ISO-10303-21;
HEADER;
FILE_DESCRIPTION (( 'STEP AP214' ),
    '1' );
FILE_NAME ('59654.STEP',
    '2023-07-24T15:19:56',
    ( '' ),
    ( '' ),
    'SwSTEP 2.0',
    'SolidWorks 2023',
    '' );
FILE_SCHEMA (( 'AUTOMOTIVE_DESIGN' ));
ENDSEC;

DATA;
#1 = DIRECTION ( 'NONE',  ( -1.000000000000000000, 0.000000000000000000, 0.000000000000000000 ) ) ;
#2 = VERTEX_POINT ( 'NONE', #263 ) ;
#3 = MECHANICAL_DESIGN_GEOMETRIC_PRESENTATION_REPRESENTATION (  '', ( #335 ), #117 ) ;
#4 =( NAMED_UNIT ( * ) PLANE_ANGLE_UNIT ( ) SI_UNIT ( $, .RADIAN. ) );
#5 = EDGE_LOOP ( 'NONE', ( #97, #181 ) ) ;
#6 = MECHANICAL_DESIGN_GEOMETRIC_PRESENTATION_REPRESENTATION (  '', ( #11 ), #26 ) ;
#7 = EDGE_LOOP ( 'NONE', ( #24, #297, #234, #344 ) ) ;
#8 =( LENGTH_UNIT ( ) NAMED_UNIT ( * ) SI_UNIT ( .MILLI., .METRE. ) );
#9 = CARTESIAN_POINT ( 'NONE',  ( 0.000000000000000000, 16.00000000000000000, 0.000000000000000000 ) ) ;
#10 = CARTESIAN_POINT ( 'NONE',  ( 5.854691731421723944E-15, 16.00000000000000000, 0.000000000000000000 ) ) ;
#11 = STYLED_ITEM ( 'NONE', ( #59 ), #210 ) ;
#12 =( NAMED_UNIT ( * ) SI_UNIT ( $, .STERADIAN. ) SOLID_ANGLE_UNIT ( ) );
#13 = AXIS2_PLACEMENT_3D ( 'NONE', #9, #300, #351 ) ;
#14 = SURFACE_SIDE_STYLE ('',( #222 ) ) ;
#15 = SURFACE_STYLE_USAGE ( .BOTH. , #14 ) ;
#16 = ADVANCED_FACE ( 'NONE', ( #237 ), #325, .T. ) ;
#17 = CARTESIAN_POINT ( 'NONE',  ( 3.184081677783117402E-15, 63.00000000000000000, 0.000000000000000000 ) ) ;
#18 = DIRECTION ( 'NONE',  ( -0.000000000000000000, -1.000000000000000000, -0.000000000000000000 ) ) ;
#19 = CARTESIAN_POINT ( 'NONE',  ( 3.999999999999998224, 63.00000000000000000, 4.898587196589406912E-16 ) ) ;
#20 = CIRCLE ( 'NONE', #154, 3.999999999999994227 ) ;
#21 = PRODUCT_DEFINITION_CONTEXT ( 'detailed design', #331, 'design' ) ;
#22 = CARTESIAN_POINT ( 'NONE',  ( 0.000000000000000000, 0.000000000000000000, 0.000000000000000000 ) ) ;
#23 = DIRECTION ( 'NONE',  ( -0.000000000000000000, -1.000000000000000000, -0.000000000000000000 ) ) ;
#24 = ORIENTED_EDGE ( 'NONE', *, *, #294, .F. ) ;
#25 = TOROIDAL_SURFACE ( 'NONE', #261, 3.500000000000000000, 0.5000000000000000000 ) ;
#26 =( GEOMETRIC_REPRESENTATION_CONTEXT ( 3 ) GLOBAL_UNCERTAINTY_ASSIGNED_CONTEXT ( ( #172 ) ) GLOBAL_UNIT_ASSIGNED_CONTEXT ( ( #362, #232, #289 ) ) REPRESENTATION_CONTEXT ( 'NONE', 'WORKASPACE' ) );
#27 = PRESENTATION_STYLE_ASSIGNMENT (( #57 ) ) ;
#28 = FACE_OUTER_BOUND ( 'NONE', #60, .T. ) ;
#29 = FILL_AREA_STYLE ('',( #116 ) ) ;
#30 = EDGE_CURVE ( 'NONE', #2, #88, #104, .T. ) ;
#31 = CIRCLE ( 'NONE', #49, 4.000000000000000000 ) ;
#32 = PRESENTATION_LAYER_ASSIGNMENT (  '', '', ( #78 ) ) ;
#33 = VERTEX_POINT ( 'NONE', #310 ) ;
#34 = PRESENTATION_STYLE_ASSIGNMENT (( #323 ) ) ;
#35 = FILL_AREA_STYLE_COLOUR ( '', #67 ) ;
#36 = CIRCLE ( 'NONE', #155, 3.500000000000000000 ) ;
#37 = DIRECTION ( 'NONE',  ( 0.000000000000000000, 0.000000000000000000, 1.000000000000000000 ) ) ;
#38 = DIRECTION ( 'NONE',  ( 0.000000000000000000, 0.000000000000000000, -1.000000000000000000 ) ) ;
#39 = SURFACE_STYLE_FILL_AREA ( #361 ) ;
#40 = FACE_OUTER_BOUND ( 'NONE', #64, .T. ) ;
#41 = STYLED_ITEM ( 'NONE', ( #259 ), #192 ) ;
#42 = CARTESIAN_POINT ( 'NONE',  ( 0.000000000000000000, 16.00000000000000000, -4.000000000000000000 ) ) ;
#43 = DIRECTION ( 'NONE',  ( -0.000000000000000000, -1.000000000000000000, -0.000000000000000000 ) ) ;
#44 = PRODUCT_CONTEXT ( 'NONE', #314, 'mechanical' ) ;
#45 = CARTESIAN_POINT ( 'NONE',  ( 0.000000000000000000, 0.000000000000000000, 0.000000000000000000 ) ) ;
#46 = CARTESIAN_POINT ( 'NONE',  ( 4.000000000000000000, 63.00000000000000000, 0.000000000000000000 ) ) ;
#47 = DIRECTION ( 'NONE',  ( -0.000000000000000000, -1.000000000000000000, -0.000000000000000000 ) ) ;
#48 = DIRECTION ( 'NONE',  ( 5.682149050294907483E-17, -1.000000000000000000, 0.000000000000000000 ) ) ;
#49 = AXIS2_PLACEMENT_3D ( 'NONE', #190, #142, #355 ) ;
#50 =( GEOMETRIC_REPRESENTATION_CONTEXT ( 3 ) GLOBAL_UNCERTAINTY_ASSIGNED_CONTEXT ( ( #359 ) ) GLOBAL_UNIT_ASSIGNED_CONTEXT ( ( #266, #4, #290 ) ) REPRESENTATION_CONTEXT ( 'NONE', 'WORKASPACE' ) );
#51 =( NAMED_UNIT ( * ) PLANE_ANGLE_UNIT ( ) SI_UNIT ( $, .RADIAN. ) );
#52 = SURFACE_SIDE_STYLE ('',( #151 ) ) ;
#53 = ORIENTED_EDGE ( 'NONE', *, *, #236, .F. ) ;
#54 = EDGE_LOOP ( 'NONE', ( #235, #132, #156, #173 ) ) ;
#55 = COLOUR_RGB ( '',1.000000000000000000, 0.000000000000000000, 0.000000000000000000 ) ;
#56 = ADVANCED_FACE ( 'NONE', ( #217 ), #107, .T. ) ;
#57 = SURFACE_STYLE_USAGE ( .BOTH. , #52 ) ;
#58 = DIRECTION ( 'NONE',  ( 0.000000000000000000, 0.000000000000000000, -1.000000000000000000 ) ) ;
#59 = PRESENTATION_STYLE_ASSIGNMENT (( #256 ) ) ;
#60 = EDGE_LOOP ( 'NONE', ( #267, #285, #233, #265 ) ) ;
#61 = ADVANCED_BREP_SHAPE_REPRESENTATION ( '59654', ( #216, #339, #262 ), #118 ) ;
#62 = AXIS2_PLACEMENT_3D ( 'NONE', #251, #113, #337 ) ;
#63 = CARTESIAN_POINT ( 'NONE',  ( 0.000000000000000000, 0.5000000000000000000, -3.500000000000000000 ) ) ;
#64 = EDGE_LOOP ( 'NONE', ( #345, #238 ) ) ;
#65 = EDGE_CURVE ( 'NONE', #33, #296, #307, .T. ) ;
#66 = ORIENTED_EDGE ( 'NONE', *, *, #368, .F. ) ;
#67 = COLOUR_RGB ( '',1.000000000000000000, 0.000000000000000000, 0.000000000000000000 ) ;
#68 = STYLED_ITEM ( 'NONE', ( #109 ), #79 ) ;
#69 = ORIENTED_EDGE ( 'NONE', *, *, #131, .F. ) ;
#70 = CARTESIAN_POINT ( 'NONE',  ( 4.898587196589412829E-16, 0.000000000000000000, 4.000000000000000000 ) ) ;
#71 = DIRECTION ( 'NONE',  ( -1.000000000000000000, -5.682149050294907483E-17, 0.000000000000000000 ) ) ;
#72 = DIRECTION ( 'NONE',  ( -5.682149050294907483E-17, 1.000000000000000000, -0.000000000000000000 ) ) ;
#73 = SURFACE_STYLE_FILL_AREA ( #278 ) ;
#74 =( LENGTH_UNIT ( ) NAMED_UNIT ( * ) SI_UNIT ( .MILLI., .METRE. ) );
#75 = DIRECTION ( 'NONE',  ( -0.000000000000000000, -1.000000000000000000, -0.000000000000000000 ) ) ;
#76 = CIRCLE ( 'NONE', #62, 3.999999999999996447 ) ;
#77 = FACE_OUTER_BOUND ( 'NONE', #100, .T. ) ;
#78 = STYLED_ITEM ( 'NONE', ( #252 ), #260 ) ;
#79 = ADVANCED_FACE ( 'NONE', ( #275 ), #194, .T. ) ;
#80 = FILL_AREA_STYLE_COLOUR ( '', #176 ) ;
#81 = LINE ( 'NONE', #19, #129 ) ;
#82 = FILL_AREA_STYLE_COLOUR ( '', #188 ) ;
#83 = PRODUCT_RELATED_PRODUCT_CATEGORY ( 'part', '', ( #242 ) ) ;
#84 = CIRCLE ( 'NONE', #287, 0.5000000000000000000 ) ;
#85 =( GEOMETRIC_REPRESENTATION_CONTEXT ( 3 ) GLOBAL_UNCERTAINTY_ASSIGNED_CONTEXT ( ( #141 ) ) GLOBAL_UNIT_ASSIGNED_CONTEXT ( ( #196, #308, #248 ) ) REPRESENTATION_CONTEXT ( 'NONE', 'WORKASPACE' ) );
#86 = UNCERTAINTY_MEASURE_WITH_UNIT (LENGTH_MEASURE( 1.000000000000000082E-05 ), #341, 'distance_accuracy_value', 'NONE');
#87 = SURFACE_STYLE_FILL_AREA ( #316 ) ;
#88 = VERTEX_POINT ( 'NONE', #333 ) ;
#89 = CARTESIAN_POINT ( 'NONE',  ( 0.000000000000000000, 0.5000000000000000000, 0.000000000000000000 ) ) ;
#90 = DIRECTION ( 'NONE',  ( -0.000000000000000000, -1.000000000000000000, -0.000000000000000000 ) ) ;
#91 =( NAMED_UNIT ( * ) SI_UNIT ( $, .STERADIAN. ) SOLID_ANGLE_UNIT ( ) );
#92 = CIRCLE ( 'NONE', #163, 4.000000000000000000 ) ;
#93 = PRODUCT_DEFINITION_FORMATION_WITH_SPECIFIED_SOURCE ( 'ANY', '', #242, .NOT_KNOWN. ) ;
#94 = DIRECTION ( 'NONE',  ( -0.000000000000000000, -1.000000000000000000, -0.000000000000000000 ) ) ;
#95 = SURFACE_SIDE_STYLE ('',( #175 ) ) ;
#96 = ORIENTED_EDGE ( 'NONE', *, *, #169, .F. ) ;
#97 = ORIENTED_EDGE ( 'NONE', *, *, #136, .F. ) ;
#98 = PRODUCT_DEFINITION_SHAPE ( 'NONE', 'NONE',  #214 ) ;
#99 = AXIS2_PLACEMENT_3D ( 'NONE', #10, #72, #187 ) ;
#100 = EDGE_LOOP ( 'NONE', ( #209, #326 ) ) ;
#101 =( NAMED_UNIT ( * ) PLANE_ANGLE_UNIT ( ) SI_UNIT ( $, .RADIAN. ) );
#102 = EDGE_LOOP ( 'NONE', ( #348, #268, #130, #96 ) ) ;
#103 = CIRCLE ( 'NONE', #328, 4.000000000000000000 ) ;
#104 = LINE ( 'NONE', #70, #143 ) ;
#105 = CARTESIAN_POINT ( 'NONE',  ( 0.000000000000000000, 0.5000000000000000000, -4.000000000000000000 ) ) ;
#106 = PRESENTATION_STYLE_ASSIGNMENT (( #338 ) ) ;
#107 = CYLINDRICAL_SURFACE ( 'NONE', #110, 3.999999999999994671 ) ;
#108 = DIRECTION ( 'NONE',  ( -5.682149050294907483E-17, 1.000000000000000000, 0.000000000000000000 ) ) ;
#109 = PRESENTATION_STYLE_ASSIGNMENT (( #15 ) ) ;
#110 = AXIS2_PLACEMENT_3D ( 'NONE', #281, #301, #360 ) ;
#111 = DIRECTION ( 'NONE',  ( -0.000000000000000000, -1.000000000000000000, -0.000000000000000000 ) ) ;
#112 = PRESENTATION_LAYER_ASSIGNMENT (  '', '', ( #365 ) ) ;
#113 = DIRECTION ( 'NONE',  ( -5.682149050294907483E-17, 1.000000000000000000, -0.000000000000000000 ) ) ;
#114 = DIRECTION ( 'NONE',  ( 0.000000000000000000, 0.000000000000000000, -1.000000000000000000 ) ) ;
#115 = PLANE ( 'NONE',  #219 ) ;
#116 = FILL_AREA_STYLE_COLOUR ( '', #280 ) ;
#117 =( GEOMETRIC_REPRESENTATION_CONTEXT ( 3 ) GLOBAL_UNCERTAINTY_ASSIGNED_CONTEXT ( ( #148 ) ) GLOBAL_UNIT_ASSIGNED_CONTEXT ( ( #8, #101, #298 ) ) REPRESENTATION_CONTEXT ( 'NONE', 'WORKASPACE' ) );
#118 =( GEOMETRIC_REPRESENTATION_CONTEXT ( 3 ) GLOBAL_UNCERTAINTY_ASSIGNED_CONTEXT ( ( #309 ) ) GLOBAL_UNIT_ASSIGNED_CONTEXT ( ( #74, #184, #166 ) ) REPRESENTATION_CONTEXT ( 'NONE', 'WORKASPACE' ) );
#119 = DIRECTION ( 'NONE',  ( 0.000000000000000000, 0.000000000000000000, -1.000000000000000000 ) ) ;
#120 = SURFACE_STYLE_FILL_AREA ( #254 ) ;
#121 = PRESENTATION_LAYER_ASSIGNMENT (  '', '', ( #41 ) ) ;
#122 = COLOUR_RGB ( '',0.7921568627450980005, 0.8196078431372548767, 0.9333333333333333481 ) ;
#123 = VECTOR ( 'NONE', #144, 1000.000000000000000 ) ;
#124 = ADVANCED_FACE ( 'NONE', ( #332 ), #354, .T. ) ;
#125 = CARTESIAN_POINT ( 'NONE',  ( 4.000000000000000000, 16.00000000000000000, 4.898587196589407898E-16 ) ) ;
#126 = ORIENTED_EDGE ( 'NONE', *, *, #152, .T. ) ;
#127 = ORIENTED_EDGE ( 'NONE', *, *, #282, .T. ) ;
#128 = MECHANICAL_DESIGN_GEOMETRIC_PRESENTATION_REPRESENTATION (  '', ( #41 ), #303 ) ;
#129 = VECTOR ( 'NONE', #284, 1000.000000000000000 ) ;
#130 = ORIENTED_EDGE ( 'NONE', *, *, #236, .T. ) ;
#131 = EDGE_CURVE ( 'NONE', #159, #88, #92, .T. ) ;
#132 = ORIENTED_EDGE ( 'NONE', *, *, #294, .T. ) ;
#133 = FACE_OUTER_BOUND ( 'NONE', #212, .T. ) ;
#134 = PRESENTATION_LAYER_ASSIGNMENT (  '', '', ( #335 ) ) ;
#135 = DIRECTION ( 'NONE',  ( -5.682149050294907483E-17, 1.000000000000000000, -0.000000000000000000 ) ) ;
#136 = EDGE_CURVE ( 'NONE', #33, #347, #20, .T. ) ;
#137 =( LENGTH_UNIT ( ) NAMED_UNIT ( * ) SI_UNIT ( .MILLI., .METRE. ) );
#138 = PLANE ( 'NONE',  #343 ) ;
#139 =( NAMED_UNIT ( * ) PLANE_ANGLE_UNIT ( ) SI_UNIT ( $, .RADIAN. ) );
#140 = SURFACE_SIDE_STYLE ('',( #39 ) ) ;
#141 = UNCERTAINTY_MEASURE_WITH_UNIT (LENGTH_MEASURE( 1.000000000000000082E-05 ), #196, 'distance_accuracy_value', 'NONE');
#142 = DIRECTION ( 'NONE',  ( -0.000000000000000000, -1.000000000000000000, -0.000000000000000000 ) ) ;
#143 = VECTOR ( 'NONE', #164, 1000.000000000000000 ) ;
#144 = DIRECTION ( 'NONE',  ( -0.000000000000000000, -1.000000000000000000, -0.000000000000000000 ) ) ;
#145 = STYLED_ITEM ( 'NONE', ( #106 ), #216 ) ;
#146 = EDGE_CURVE ( 'NONE', #2, #229, #31, .T. ) ;
#147 = CARTESIAN_POINT ( 'NONE',  ( 4.000000000000000000, 63.00000000000000000, 4.898587196589407898E-16 ) ) ;
#148 = UNCERTAINTY_MEASURE_WITH_UNIT (LENGTH_MEASURE( 1.000000000000000082E-05 ), #8, 'distance_accuracy_value', 'NONE');
#149 = DIRECTION ( 'NONE',  ( -1.224646799147353454E-16, 0.000000000000000000, -1.000000000000000000 ) ) ;
#150 = STYLED_ITEM ( 'NONE', ( #27 ), #186 ) ;
#151 = SURFACE_STYLE_FILL_AREA ( #313 ) ;
#152 = EDGE_CURVE ( 'NONE', #296, #364, #76, .T. ) ;
#153 = CARTESIAN_POINT ( 'NONE',  ( 0.000000000000000000, 0.000000000000000000, 0.000000000000000000 ) ) ;
#154 = AXIS2_PLACEMENT_3D ( 'NONE', #249, #218, #161 ) ;
#155 = AXIS2_PLACEMENT_3D ( 'NONE', #253, #90, #58 ) ;
#156 = ORIENTED_EDGE ( 'NONE', *, *, #152, .F. ) ;
#157 = ORIENTED_EDGE ( 'NONE', *, *, #30, .T. ) ;
#158 = CIRCLE ( 'NONE', #99, 3.999999999999994227 ) ;
#159 = VERTEX_POINT ( 'NONE', #105 ) ;
#160 = DIRECTION ( 'NONE',  ( 1.000000000000000000, 0.000000000000000000, 0.000000000000000000 ) ) ;
#161 = DIRECTION ( 'NONE',  ( -1.000000000000000000, 0.000000000000000000, 0.000000000000000000 ) ) ;
#162 =( NAMED_UNIT ( * ) PLANE_ANGLE_UNIT ( ) SI_UNIT ( $, .RADIAN. ) );
#163 = AXIS2_PLACEMENT_3D ( 'NONE', #353, #18, #38 ) ;
#164 = DIRECTION ( 'NONE',  ( -0.000000000000000000, -1.000000000000000000, -0.000000000000000000 ) ) ;
#165 = DIRECTION ( 'NONE',  ( -1.000000000000000000, 0.000000000000000000, 0.000000000000000000 ) ) ;
#166 =( NAMED_UNIT ( * ) SI_UNIT ( $, .STERADIAN. ) SOLID_ANGLE_UNIT ( ) );
#167 = DIRECTION ( 'NONE',  ( 0.000000000000000000, 0.000000000000000000, -1.000000000000000000 ) ) ;
#168 = CARTESIAN_POINT ( 'NONE',  ( 0.000000000000000000, 0.000000000000000000, -4.000000000000000000 ) ) ;
#169 = EDGE_CURVE ( 'NONE', #88, #159, #103, .T. ) ;
#170 =( NAMED_UNIT ( * ) SI_UNIT ( $, .STERADIAN. ) SOLID_ANGLE_UNIT ( ) );
#171 = SURFACE_SIDE_STYLE ('',( #120 ) ) ;
#172 = UNCERTAINTY_MEASURE_WITH_UNIT (LENGTH_MEASURE( 1.000000000000000082E-05 ), #362, 'distance_accuracy_value', 'NONE');
#173 = ORIENTED_EDGE ( 'NONE', *, *, #65, .F. ) ;
#174 = EDGE_CURVE ( 'NONE', #347, #33, #158, .T. ) ;
#175 = SURFACE_STYLE_FILL_AREA ( #29 ) ;
#176 = COLOUR_RGB ( '',1.000000000000000000, 0.000000000000000000, 0.000000000000000000 ) ;
#177 =( NAMED_UNIT ( * ) SI_UNIT ( $, .STERADIAN. ) SOLID_ANGLE_UNIT ( ) );
#178 = SURFACE_SIDE_STYLE ('',( #183 ) ) ;
#179 = PRESENTATION_LAYER_ASSIGNMENT (  '', '', ( #145 ) ) ;
#180 = DIRECTION ( 'NONE',  ( 0.000000000000000000, 0.000000000000000000, 1.000000000000000000 ) ) ;
#181 = ORIENTED_EDGE ( 'NONE', *, *, #174, .F. ) ;
#182 = EDGE_LOOP ( 'NONE', ( #127, #157, #69, #53 ) ) ;
#183 = SURFACE_STYLE_FILL_AREA ( #324 ) ;
#184 =( NAMED_UNIT ( * ) PLANE_ANGLE_UNIT ( ) SI_UNIT ( $, .RADIAN. ) );
#185 = CARTESIAN_POINT ( 'NONE',  ( 0.000000000000000000, 16.00000000000000000, 0.000000000000000000 ) ) ;
#186 = ADVANCED_FACE ( 'NONE', ( #40 ), #115, .T. ) ;
#187 = DIRECTION ( 'NONE',  ( -1.000000000000000000, 0.000000000000000000, 0.000000000000000000 ) ) ;
#188 = COLOUR_RGB ( '',1.000000000000000000, 0.000000000000000000, 0.000000000000000000 ) ;
#189 = CIRCLE ( 'NONE', #358, 3.999999999999996447 ) ;
#190 = CARTESIAN_POINT ( 'NONE',  ( 0.000000000000000000, 16.00000000000000000, 0.000000000000000000 ) ) ;
#191 = DIRECTION ( 'NONE',  ( 0.000000000000000000, 0.000000000000000000, -1.000000000000000000 ) ) ;
#192 = ADVANCED_FACE ( 'NONE', ( #28 ), #25, .T. ) ;
#193 = UNCERTAINTY_MEASURE_WITH_UNIT (LENGTH_MEASURE( 1.000000000000000082E-05 ), #317, 'distance_accuracy_value', 'NONE');
#194 = CYLINDRICAL_SURFACE ( 'NONE', #311, 4.000000000000000000 ) ;
#195 = DIRECTION ( 'NONE',  ( -1.000000000000000000, 0.000000000000000000, 0.000000000000000000 ) ) ;
#196 =( LENGTH_UNIT ( ) NAMED_UNIT ( * ) SI_UNIT ( .MILLI., .METRE. ) );
#197 = MECHANICAL_DESIGN_GEOMETRIC_PRESENTATION_REPRESENTATION (  '', ( #150 ), #279 ) ;
#198 = VERTEX_POINT ( 'NONE', #283 ) ;
#199 = EDGE_CURVE ( 'NONE', #198, #211, #350, .T. ) ;
#200 = PRESENTATION_LAYER_ASSIGNMENT (  '', '', ( #150 ) ) ;
#201 = AXIS2_PLACEMENT_3D ( 'NONE', #46, #48, #241 ) ;
#202 = EDGE_CURVE ( 'NONE', #88, #211, #84, .T. ) ;
#203 = FILL_AREA_STYLE_COLOUR ( '', #291 ) ;
#204 = SURFACE_STYLE_USAGE ( .BOTH. , #95 ) ;
#205 = DIRECTION ( 'NONE',  ( -0.000000000000000000, -1.000000000000000000, -0.000000000000000000 ) ) ;
#206 = EDGE_LOOP ( 'NONE', ( #322, #315, #207, #66 ) ) ;
#207 = ORIENTED_EDGE ( 'NONE', *, *, #199, .F. ) ;
#208 = CLOSED_SHELL ( 'NONE', ( #16, #210, #186, #192, #79, #260 ) ) ;
#209 = ORIENTED_EDGE ( 'NONE', *, *, #282, .F. ) ;
#210 = ADVANCED_FACE ( 'NONE', ( #367 ), #220, .T. ) ;
#211 = VERTEX_POINT ( 'NONE', #230 ) ;
#212 = EDGE_LOOP ( 'NONE', ( #126, #292 ) ) ;
#213 =( GEOMETRIC_REPRESENTATION_CONTEXT ( 3 ) GLOBAL_UNCERTAINTY_ASSIGNED_CONTEXT ( ( #225 ) ) GLOBAL_UNIT_ASSIGNED_CONTEXT ( ( #137, #139, #170 ) ) REPRESENTATION_CONTEXT ( 'NONE', 'WORKASPACE' ) );
#214 = PRODUCT_DEFINITION ( 'UNKNOWN', '', #93, #21 ) ;
#215 = FILL_AREA_STYLE ('',( #80 ) ) ;
#216 = MANIFOLD_SOLID_BREP ( 'Revolve - Cutting Edge', #208 ) ;
#217 = FACE_OUTER_BOUND ( 'NONE', #7, .T. ) ;
#218 = DIRECTION ( 'NONE',  ( -5.682149050294907483E-17, 1.000000000000000000, -0.000000000000000000 ) ) ;
#219 = AXIS2_PLACEMENT_3D ( 'NONE', #22, #288, #224 ) ;
#220 = TOROIDAL_SURFACE ( 'NONE', #370, 3.500000000000000000, 0.5000000000000000000 ) ;
#221 =( LENGTH_UNIT ( ) NAMED_UNIT ( * ) SI_UNIT ( .MILLI., .METRE. ) );
#222 = SURFACE_STYLE_FILL_AREA ( #215 ) ;
#223 = SURFACE_STYLE_USAGE ( .BOTH. , #247 ) ;
#224 = DIRECTION ( 'NONE',  ( 0.000000000000000000, 0.000000000000000000, -1.000000000000000000 ) ) ;
#225 = UNCERTAINTY_MEASURE_WITH_UNIT (LENGTH_MEASURE( 1.000000000000000082E-05 ), #137, 'distance_accuracy_value', 'NONE');
#226 = DIRECTION ( 'NONE',  ( 0.000000000000000000, 0.000000000000000000, -1.000000000000000000 ) ) ;
#227 = AXIS2_PLACEMENT_3D ( 'NONE', #295, #43, #349 ) ;
#228 = CIRCLE ( 'NONE', #293, 4.000000000000000000 ) ;
#229 = VERTEX_POINT ( 'NONE', #42 ) ;
#230 = CARTESIAN_POINT ( 'NONE',  ( 4.592425496802573972E-16, 0.000000000000000000, 3.500000000000000000 ) ) ;
#231 = VECTOR ( 'NONE', #135, 1000.000000000000000 ) ;
#232 =( NAMED_UNIT ( * ) PLANE_ANGLE_UNIT ( ) SI_UNIT ( $, .RADIAN. ) );
#233 = ORIENTED_EDGE ( 'NONE', *, *, #368, .T. ) ;
#234 = ORIENTED_EDGE ( 'NONE', *, *, #65, .T. ) ;
#235 = ORIENTED_EDGE ( 'NONE', *, *, #136, .T. ) ;
#236 = EDGE_CURVE ( 'NONE', #229, #159, #302, .T. ) ;
#237 = FACE_OUTER_BOUND ( 'NONE', #182, .T. ) ;
#238 = ORIENTED_EDGE ( 'NONE', *, *, #304, .T. ) ;
#239 = EDGE_CURVE ( 'NONE', #364, #296, #189, .T. ) ;
#240 = CARTESIAN_POINT ( 'NONE',  ( 3.184081677783117402E-15, 63.00000000000000000, 0.000000000000000000 ) ) ;
#241 = DIRECTION ( 'NONE',  ( 1.000000000000000000, 5.682149050294907483E-17, 0.000000000000000000 ) ) ;
#242 = PRODUCT ( '59654', '59654', '', ( #44 ) ) ;
#243 = AXIS2_PLACEMENT_3D ( 'NONE', #153, #23, #119 ) ;
#244 = MECHANICAL_DESIGN_GEOMETRIC_PRESENTATION_REPRESENTATION (  '', ( #145 ), #319 ) ;
#245 = APPLICATION_PROTOCOL_DEFINITION ( 'draft international standard', 'automotive_design', 1998, #314 ) ;
#246 = DIRECTION ( 'NONE',  ( -5.682149050294907483E-17, 1.000000000000000000, -0.000000000000000000 ) ) ;
#247 = SURFACE_SIDE_STYLE ('',( #73 ) ) ;
#248 =( NAMED_UNIT ( * ) SI_UNIT ( $, .STERADIAN. ) SOLID_ANGLE_UNIT ( ) );
#249 = CARTESIAN_POINT ( 'NONE',  ( 5.854691731421723944E-15, 16.00000000000000000, 0.000000000000000000 ) ) ;
#250 = PRESENTATION_LAYER_ASSIGNMENT (  '', '', ( #68 ) ) ;
#251 = CARTESIAN_POINT ( 'NONE',  ( 3.184081677783117402E-15, 63.00000000000000000, 0.000000000000000000 ) ) ;
#252 = PRESENTATION_STYLE_ASSIGNMENT (( #223 ) ) ;
#253 = CARTESIAN_POINT ( 'NONE',  ( 0.000000000000000000, 0.000000000000000000, 0.000000000000000000 ) ) ;
#254 = FILL_AREA_STYLE ('',( #82 ) ) ;
#255 = SHAPE_DEFINITION_REPRESENTATION ( #98, #61 ) ;
#256 = SURFACE_STYLE_USAGE ( .BOTH. , #320 ) ;
#257 = CIRCLE ( 'NONE', #336, 0.5000000000000000000 ) ;
#258 = CARTESIAN_POINT ( 'NONE',  ( -3.999999999999993339, 63.00000000000000000, 0.000000000000000000 ) ) ;
#259 = PRESENTATION_STYLE_ASSIGNMENT (( #286 ) ) ;
#260 = ADVANCED_FACE ( 'NONE', ( #77 ), #356, .T. ) ;
#261 = AXIS2_PLACEMENT_3D ( 'NONE', #89, #94, #226 ) ;
#262 = AXIS2_PLACEMENT_3D ( 'NONE', #299, #37, #160 ) ;
#263 = CARTESIAN_POINT ( 'NONE',  ( 4.898587196589412829E-16, 16.00000000000000000, 4.000000000000000000 ) ) ;
#264 = APPLICATION_PROTOCOL_DEFINITION ( 'draft international standard', 'automotive_design', 1998, #331 ) ;
#265 = ORIENTED_EDGE ( 'NONE', *, *, #304, .F. ) ;
#266 =( LENGTH_UNIT ( ) NAMED_UNIT ( * ) SI_UNIT ( .MILLI., .METRE. ) );
#267 = ORIENTED_EDGE ( 'NONE', *, *, #202, .F. ) ;
#268 = ORIENTED_EDGE ( 'NONE', *, *, #146, .T. ) ;
#269 = ADVANCED_FACE ( 'NONE', ( #133 ), #273, .F. ) ;
#270 = FILL_AREA_STYLE_COLOUR ( '', #122 ) ;
#271 = CARTESIAN_POINT ( 'NONE',  ( 0.000000000000000000, 0.5000000000000000000, 0.000000000000000000 ) ) ;
#272 = CARTESIAN_POINT ( 'NONE',  ( -3.999999999999991562, 63.00000000000000000, 0.000000000000000000 ) ) ;
#273 = PLANE ( 'NONE',  #201 ) ;
#274 = ADVANCED_FACE ( 'NONE', ( #330 ), #138, .F. ) ;
#275 = FACE_OUTER_BOUND ( 'NONE', #102, .T. ) ;
#276 = DIRECTION ( 'NONE',  ( -5.682149050294907483E-17, 1.000000000000000000, -0.000000000000000000 ) ) ;
#277 = UNCERTAINTY_MEASURE_WITH_UNIT (LENGTH_MEASURE( 1.000000000000000082E-05 ), #221, 'distance_accuracy_value', 'NONE');
#278 = FILL_AREA_STYLE ('',( #306 ) ) ;
#279 =( GEOMETRIC_REPRESENTATION_CONTEXT ( 3 ) GLOBAL_UNCERTAINTY_ASSIGNED_CONTEXT ( ( #86 ) ) GLOBAL_UNIT_ASSIGNED_CONTEXT ( ( #341, #342, #91 ) ) REPRESENTATION_CONTEXT ( 'NONE', 'WORKASPACE' ) );
#280 = COLOUR_RGB ( '',0.7921568627450980005, 0.8196078431372548767, 0.9333333333333333481 ) ;
#281 = CARTESIAN_POINT ( 'NONE',  ( 3.184081677783117402E-15, 63.00000000000000000, 0.000000000000000000 ) ) ;
#282 = EDGE_CURVE ( 'NONE', #229, #2, #228, .T. ) ;
#283 = CARTESIAN_POINT ( 'NONE',  ( 0.000000000000000000, 0.000000000000000000, -3.500000000000000000 ) ) ;
#284 = DIRECTION ( 'NONE',  ( -5.682149050294907483E-17, 1.000000000000000000, -0.000000000000000000 ) ) ;
#285 = ORIENTED_EDGE ( 'NONE', *, *, #169, .T. ) ;
#286 = SURFACE_STYLE_USAGE ( .BOTH. , #171 ) ;
#287 = AXIS2_PLACEMENT_3D ( 'NONE', #363, #340, #149 ) ;
#288 = DIRECTION ( 'NONE',  ( 0.000000000000000000, -1.000000000000000000, -0.000000000000000000 ) ) ;
#289 =( NAMED_UNIT ( * ) SI_UNIT ( $, .STERADIAN. ) SOLID_ANGLE_UNIT ( ) );
#290 =( NAMED_UNIT ( * ) SI_UNIT ( $, .STERADIAN. ) SOLID_ANGLE_UNIT ( ) );
#291 = COLOUR_RGB ( '',1.000000000000000000, 0.000000000000000000, 0.000000000000000000 ) ;
#292 = ORIENTED_EDGE ( 'NONE', *, *, #239, .T. ) ;
#293 = AXIS2_PLACEMENT_3D ( 'NONE', #185, #111, #191 ) ;
#294 = EDGE_CURVE ( 'NONE', #347, #364, #81, .T. ) ;
#295 = CARTESIAN_POINT ( 'NONE',  ( 0.000000000000000000, 0.000000000000000000, 0.000000000000000000 ) ) ;
#296 = VERTEX_POINT ( 'NONE', #258 ) ;
#297 = ORIENTED_EDGE ( 'NONE', *, *, #174, .T. ) ;
#298 =( NAMED_UNIT ( * ) SI_UNIT ( $, .STERADIAN. ) SOLID_ANGLE_UNIT ( ) );
#299 = CARTESIAN_POINT ( 'NONE',  ( 0.000000000000000000, 0.000000000000000000, 0.000000000000000000 ) ) ;
#300 = DIRECTION ( 'NONE',  ( 0.000000000000000000, 1.000000000000000000, 0.000000000000000000 ) ) ;
#301 = DIRECTION ( 'NONE',  ( -5.682149050294907483E-17, 1.000000000000000000, -0.000000000000000000 ) ) ;
#302 = LINE ( 'NONE', #168, #123 ) ;
#303 =( GEOMETRIC_REPRESENTATION_CONTEXT ( 3 ) GLOBAL_UNCERTAINTY_ASSIGNED_CONTEXT ( ( #193 ) ) GLOBAL_UNIT_ASSIGNED_CONTEXT ( ( #317, #51, #177 ) ) REPRESENTATION_CONTEXT ( 'NONE', 'WORKASPACE' ) );
#304 = EDGE_CURVE ( 'NONE', #211, #198, #36, .T. ) ;
#305 = DIRECTION ( 'NONE',  ( 0.000000000000000000, 0.000000000000000000, -1.000000000000000000 ) ) ;
#306 = FILL_AREA_STYLE_COLOUR ( '', #55 ) ;
#307 = LINE ( 'NONE', #272, #231 ) ;
#308 =( NAMED_UNIT ( * ) PLANE_ANGLE_UNIT ( ) SI_UNIT ( $, .RADIAN. ) );
#309 = UNCERTAINTY_MEASURE_WITH_UNIT (LENGTH_MEASURE( 1.000000000000000082E-05 ), #74, 'distance_accuracy_value', 'NONE');
#310 = CARTESIAN_POINT ( 'NONE',  ( -3.999999999999988010, 16.00000000000000000, 0.000000000000000000 ) ) ;
#311 = AXIS2_PLACEMENT_3D ( 'NONE', #45, #75, #167 ) ;
#312 = MECHANICAL_DESIGN_GEOMETRIC_PRESENTATION_REPRESENTATION (  '', ( #78 ), #85 ) ;
#313 = FILL_AREA_STYLE ('',( #366 ) ) ;
#314 = APPLICATION_CONTEXT ( 'automotive_design' ) ;
#315 = ORIENTED_EDGE ( 'NONE', *, *, #202, .T. ) ;
#316 = FILL_AREA_STYLE ('',( #203 ) ) ;
#317 =( LENGTH_UNIT ( ) NAMED_UNIT ( * ) SI_UNIT ( .MILLI., .METRE. ) );
#318 = MECHANICAL_DESIGN_GEOMETRIC_PRESENTATION_REPRESENTATION (  '', ( #68 ), #213 ) ;
#319 =( GEOMETRIC_REPRESENTATION_CONTEXT ( 3 ) GLOBAL_UNCERTAINTY_ASSIGNED_CONTEXT ( ( #277 ) ) GLOBAL_UNIT_ASSIGNED_CONTEXT ( ( #221, #162, #12 ) ) REPRESENTATION_CONTEXT ( 'NONE', 'WORKASPACE' ) );
#320 = SURFACE_SIDE_STYLE ('',( #87 ) ) ;
#321 = PRESENTATION_STYLE_ASSIGNMENT (( #204 ) ) ;
#322 = ORIENTED_EDGE ( 'NONE', *, *, #131, .T. ) ;
#323 = SURFACE_STYLE_USAGE ( .BOTH. , #178 ) ;
#324 = FILL_AREA_STYLE ('',( #35 ) ) ;
#325 = CYLINDRICAL_SURFACE ( 'NONE', #227, 4.000000000000000000 ) ;
#326 = ORIENTED_EDGE ( 'NONE', *, *, #146, .F. ) ;
#327 = CLOSED_SHELL ( 'NONE', ( #124, #274, #56, #269 ) ) ;
#328 = AXIS2_PLACEMENT_3D ( 'NONE', #271, #47, #305 ) ;
#329 = PRESENTATION_LAYER_ASSIGNMENT (  '', '', ( #11 ) ) ;
#330 = FACE_OUTER_BOUND ( 'NONE', #5, .T. ) ;
#331 = APPLICATION_CONTEXT ( 'automotive_design' ) ;
#332 = FACE_OUTER_BOUND ( 'NONE', #54, .T. ) ;
#333 = CARTESIAN_POINT ( 'NONE',  ( 4.898587196589412829E-16, 0.5000000000000000000, 4.000000000000000000 ) ) ;
#334 = CARTESIAN_POINT ( 'NONE',  ( 5.854691731421723944E-15, 16.00000000000000000, 0.000000000000000000 ) ) ;
#335 = STYLED_ITEM ( 'NONE', ( #34 ), #16 ) ;
#336 = AXIS2_PLACEMENT_3D ( 'NONE', #63, #1, #180 ) ;
#337 = DIRECTION ( 'NONE',  ( -1.000000000000000000, 0.000000000000000000, 0.000000000000000000 ) ) ;
#338 = SURFACE_STYLE_USAGE ( .BOTH. , #140 ) ;
#339 = MANIFOLD_SOLID_BREP ( 'Revolve - Tool Body (Straight Shanked)', #327 ) ;
#340 = DIRECTION ( 'NONE',  ( 1.000000000000000000, 0.000000000000000000, -1.224646799147353207E-16 ) ) ;
#341 =( LENGTH_UNIT ( ) NAMED_UNIT ( * ) SI_UNIT ( .MILLI., .METRE. ) );
#342 =( NAMED_UNIT ( * ) PLANE_ANGLE_UNIT ( ) SI_UNIT ( $, .RADIAN. ) );
#343 = AXIS2_PLACEMENT_3D ( 'NONE', #334, #108, #71 ) ;
#344 = ORIENTED_EDGE ( 'NONE', *, *, #239, .F. ) ;
#345 = ORIENTED_EDGE ( 'NONE', *, *, #199, .T. ) ;
#346 = AXIS2_PLACEMENT_3D ( 'NONE', #240, #246, #195 ) ;
#347 = VERTEX_POINT ( 'NONE', #125 ) ;
#348 = ORIENTED_EDGE ( 'NONE', *, *, #30, .F. ) ;
#349 = DIRECTION ( 'NONE',  ( 0.000000000000000000, 0.000000000000000000, -1.000000000000000000 ) ) ;
#350 = CIRCLE ( 'NONE', #243, 3.500000000000000000 ) ;
#351 = DIRECTION ( 'NONE',  ( 0.000000000000000000, -0.000000000000000000, 1.000000000000000000 ) ) ;
#352 = MECHANICAL_DESIGN_GEOMETRIC_PRESENTATION_REPRESENTATION (  '', ( #365 ), #50 ) ;
#353 = CARTESIAN_POINT ( 'NONE',  ( 0.000000000000000000, 0.5000000000000000000, 0.000000000000000000 ) ) ;
#354 = CYLINDRICAL_SURFACE ( 'NONE', #346, 3.999999999999994671 ) ;
#355 = DIRECTION ( 'NONE',  ( 0.000000000000000000, 0.000000000000000000, -1.000000000000000000 ) ) ;
#356 = PLANE ( 'NONE',  #13 ) ;
#357 = COLOUR_RGB ( '',1.000000000000000000, 0.000000000000000000, 0.000000000000000000 ) ;
#358 = AXIS2_PLACEMENT_3D ( 'NONE', #17, #276, #165 ) ;
#359 = UNCERTAINTY_MEASURE_WITH_UNIT (LENGTH_MEASURE( 1.000000000000000082E-05 ), #266, 'distance_accuracy_value', 'NONE');
#360 = DIRECTION ( 'NONE',  ( -1.000000000000000000, 0.000000000000000000, 0.000000000000000000 ) ) ;
#361 = FILL_AREA_STYLE ('',( #270 ) ) ;
#362 =( LENGTH_UNIT ( ) NAMED_UNIT ( * ) SI_UNIT ( .MILLI., .METRE. ) );
#363 = CARTESIAN_POINT ( 'NONE',  ( 4.286263797015736595E-16, 0.5000000000000000000, 3.500000000000000000 ) ) ;
#364 = VERTEX_POINT ( 'NONE', #147 ) ;
#365 = STYLED_ITEM ( 'NONE', ( #321 ), #339 ) ;
#366 = FILL_AREA_STYLE_COLOUR ( '', #357 ) ;
#367 = FACE_OUTER_BOUND ( 'NONE', #206, .T. ) ;
#368 = EDGE_CURVE ( 'NONE', #159, #198, #257, .T. ) ;
#369 = CARTESIAN_POINT ( 'NONE',  ( 0.000000000000000000, 0.5000000000000000000, 0.000000000000000000 ) ) ;
#370 = AXIS2_PLACEMENT_3D ( 'NONE', #369, #205, #114 ) ;
ENDSEC;
END-ISO-10303-21;
