ISO-10303-21;
HEADER;
FILE_DESCRIPTION (( 'STEP AP214' ),
    '1' );
FILE_NAME ('59484.STEP',
    '2023-07-24T15:07:29',
    ( '' ),
    ( '' ),
    'SwSTEP 2.0',
    'SolidWorks 2023',
    '' );
FILE_SCHEMA (( 'AUTOMOTIVE_DESIGN' ));
ENDSEC;

DATA;
#1 = EDGE_CURVE ( 'NONE', #71, #103, #182, .T. ) ;
#2 = CIRCLE ( 'NONE', #342, 4.000000000000000000 ) ;
#3 = DIRECTION ( 'NONE',  ( -4.697880814296055710E-17, 1.000000000000000000, -0.000000000000000000 ) ) ;
#4 = DIRECTION ( 'NONE',  ( -0.000000000000000000, -1.000000000000000000, -0.000000000000000000 ) ) ;
#5 = SURFACE_STYLE_USAGE ( .BOTH. , #37 ) ;
#6 = DIRECTION ( 'NONE',  ( 0.000000000000000000, -1.000000000000000000, -0.000000000000000000 ) ) ;
#7 = APPLICATION_CONTEXT ( 'automotive_design' ) ;
#8 = CARTESIAN_POINT ( 'NONE',  ( 5.204170427930421283E-15, 20.00000000000000355, 0.000000000000000000 ) ) ;
#9 =( GEOMETRIC_REPRESENTATION_CONTEXT ( 3 ) GLOBAL_UNCERTAINTY_ASSIGNED_CONTEXT ( ( #31 ) ) GLOBAL_UNIT_ASSIGNED_CONTEXT ( ( #271, #163, #72 ) ) REPRESENTATION_CONTEXT ( 'NONE', 'WORKASPACE' ) );
#10 = DIRECTION ( 'NONE',  ( 4.697880814296055710E-17, -1.000000000000000000, 0.000000000000000000 ) ) ;
#11 = CARTESIAN_POINT ( 'NONE',  ( 0.000000000000000000, 1.000000000000000000, -4.000000000000000000 ) ) ;
#12 = EDGE_CURVE ( 'NONE', #22, #348, #230, .T. ) ;
#13 = DIRECTION ( 'NONE',  ( -4.697880814296055710E-17, 1.000000000000000000, -0.000000000000000000 ) ) ;
#14 = DIRECTION ( 'NONE',  ( -4.697880814296055710E-17, 1.000000000000000000, -0.000000000000000000 ) ) ;
#15 = EDGE_CURVE ( 'NONE', #249, #198, #277, .T. ) ;
#16 = AXIS2_PLACEMENT_3D ( 'NONE', #174, #26, #247 ) ;
#17 =( NAMED_UNIT ( * ) SI_UNIT ( $, .STERADIAN. ) SOLID_ANGLE_UNIT ( ) );
#18 = MECHANICAL_DESIGN_GEOMETRIC_PRESENTATION_REPRESENTATION (  '', ( #291 ), #294 ) ;
#19 = MECHANICAL_DESIGN_GEOMETRIC_PRESENTATION_REPRESENTATION (  '', ( #187 ), #355 ) ;
#20 = CARTESIAN_POINT ( 'NONE',  ( 0.000000000000000000, 20.00000000000000000, -5.000000000000000000 ) ) ;
#21 = DIRECTION ( 'NONE',  ( -4.697880814296055710E-17, 1.000000000000000000, -0.000000000000000000 ) ) ;
#22 = VERTEX_POINT ( 'NONE', #20 ) ;
#23 = SURFACE_STYLE_USAGE ( .BOTH. , #276 ) ;
#24 = ORIENTED_EDGE ( 'NONE', *, *, #136, .F. ) ;
#25 = ADVANCED_FACE ( 'NONE', ( #304 ), #133, .T. ) ;
#26 = DIRECTION ( 'NONE',  ( -4.697880814296055710E-17, 1.000000000000000000, -0.000000000000000000 ) ) ;
#27 = MECHANICAL_DESIGN_GEOMETRIC_PRESENTATION_REPRESENTATION (  '', ( #320 ), #313 ) ;
#28 = EDGE_LOOP ( 'NONE', ( #169, #44, #363, #360 ) ) ;
#29 =( NAMED_UNIT ( * ) SI_UNIT ( $, .STERADIAN. ) SOLID_ANGLE_UNIT ( ) );
#30 = UNCERTAINTY_MEASURE_WITH_UNIT (LENGTH_MEASURE( 1.000000000000000082E-05 ), #257, 'distance_accuracy_value', 'NONE');
#31 = UNCERTAINTY_MEASURE_WITH_UNIT (LENGTH_MEASURE( 1.000000000000000082E-05 ), #271, 'distance_accuracy_value', 'NONE');
#32 = CARTESIAN_POINT ( 'NONE',  ( 0.000000000000000000, 0.000000000000000000, 0.000000000000000000 ) ) ;
#33 = STYLED_ITEM ( 'NONE', ( #78 ), #87 ) ;
#34 =( LENGTH_UNIT ( ) NAMED_UNIT ( * ) SI_UNIT ( .MILLI., .METRE. ) );
#35 = ADVANCED_FACE ( 'NONE', ( #134 ), #361, .T. ) ;
#36 = AXIS2_PLACEMENT_3D ( 'NONE', #38, #10, #322 ) ;
#37 = SURFACE_SIDE_STYLE ('',( #287 ) ) ;
#38 = CARTESIAN_POINT ( 'NONE',  ( 5.000000000000000000, 63.00000000000000000, 0.000000000000000000 ) ) ;
#39 = MECHANICAL_DESIGN_GEOMETRIC_PRESENTATION_REPRESENTATION (  '', ( #293 ), #184 ) ;
#40 = SURFACE_STYLE_FILL_AREA ( #45 ) ;
#41 = ADVANCED_FACE ( 'NONE', ( #225 ), #170, .F. ) ;
#42 = SURFACE_STYLE_USAGE ( .BOTH. , #124 ) ;
#43 = CARTESIAN_POINT ( 'NONE',  ( 3.184081677783117402E-15, 63.00000000000000000, 0.000000000000000000 ) ) ;
#44 = ORIENTED_EDGE ( 'NONE', *, *, #302, .T. ) ;
#45 = FILL_AREA_STYLE ('',( #290 ) ) ;
#46 = VECTOR ( 'NONE', #67, 1000.000000000000000 ) ;
#47 = DIRECTION ( 'NONE',  ( -0.000000000000000000, -1.000000000000000000, -0.000000000000000000 ) ) ;
#48 = FILL_AREA_STYLE ('',( #192 ) ) ;
#49 = UNCERTAINTY_MEASURE_WITH_UNIT (LENGTH_MEASURE( 1.000000000000000082E-05 ), #269, 'distance_accuracy_value', 'NONE');
#50 = EDGE_CURVE ( 'NONE', #224, #325, #194, .T. ) ;
#51 = SHAPE_DEFINITION_REPRESENTATION ( #210, #261 ) ;
#52 = DIRECTION ( 'NONE',  ( -0.000000000000000000, -1.000000000000000000, -0.000000000000000000 ) ) ;
#53 = ORIENTED_EDGE ( 'NONE', *, *, #12, .F. ) ;
#54 = PRODUCT_DEFINITION_FORMATION_WITH_SPECIFIED_SOURCE ( 'ANY', '', #96, .NOT_KNOWN. ) ;
#55 = DIRECTION ( 'NONE',  ( -0.000000000000000000, -1.000000000000000000, -0.000000000000000000 ) ) ;
#56 = MECHANICAL_DESIGN_GEOMETRIC_PRESENTATION_REPRESENTATION (  '', ( #33 ), #82 ) ;
#57 = AXIS2_PLACEMENT_3D ( 'NONE', #323, #100, #190 ) ;
#58 = UNCERTAINTY_MEASURE_WITH_UNIT (LENGTH_MEASURE( 1.000000000000000082E-05 ), #265, 'distance_accuracy_value', 'NONE');
#59 = CARTESIAN_POINT ( 'NONE',  ( 4.898587196589412829E-16, 1.000000000000000000, 4.000000000000000000 ) ) ;
#60 = PRODUCT_DEFINITION_CONTEXT ( 'detailed design', #7, 'design' ) ;
#61 = FILL_AREA_STYLE_COLOUR ( '', #204 ) ;
#62 = AXIS2_PLACEMENT_3D ( 'NONE', #254, #83, #298 ) ;
#63 = FILL_AREA_STYLE ('',( #61 ) ) ;
#64 =( NAMED_UNIT ( * ) SI_UNIT ( $, .STERADIAN. ) SOLID_ANGLE_UNIT ( ) );
#65 = TOROIDAL_SURFACE ( 'NONE', #331, 4.000000000000000000, 1.000000000000000000 ) ;
#66 = DIRECTION ( 'NONE',  ( -1.000000000000000000, 0.000000000000000000, 0.000000000000000000 ) ) ;
#67 = DIRECTION ( 'NONE',  ( -0.000000000000000000, -1.000000000000000000, -0.000000000000000000 ) ) ;
#68 = AXIS2_PLACEMENT_3D ( 'NONE', #143, #55, #300 ) ;
#69 = DIRECTION ( 'NONE',  ( -0.000000000000000000, -1.000000000000000000, -0.000000000000000000 ) ) ;
#70 = CIRCLE ( 'NONE', #203, 4.999999999999996447 ) ;
#71 = VERTEX_POINT ( 'NONE', #327 ) ;
#72 =( NAMED_UNIT ( * ) SI_UNIT ( $, .STERADIAN. ) SOLID_ANGLE_UNIT ( ) );
#73 = EDGE_LOOP ( 'NONE', ( #53, #222 ) ) ;
#74 = CYLINDRICAL_SURFACE ( 'NONE', #57, 5.000000000000000000 ) ;
#75 = ORIENTED_EDGE ( 'NONE', *, *, #212, .T. ) ;
#76 = STYLED_ITEM ( 'NONE', ( #209 ), #317 ) ;
#77 = EDGE_LOOP ( 'NONE', ( #91, #272, #281, #161 ) ) ;
#78 = PRESENTATION_STYLE_ASSIGNMENT (( #23 ) ) ;
#79 =( NAMED_UNIT ( * ) SI_UNIT ( $, .STERADIAN. ) SOLID_ANGLE_UNIT ( ) );
#80 = APPLICATION_CONTEXT ( 'automotive_design' ) ;
#81 = ORIENTED_EDGE ( 'NONE', *, *, #155, .T. ) ;
#82 =( GEOMETRIC_REPRESENTATION_CONTEXT ( 3 ) GLOBAL_UNCERTAINTY_ASSIGNED_CONTEXT ( ( #30 ) ) GLOBAL_UNIT_ASSIGNED_CONTEXT ( ( #257, #201, #29 ) ) REPRESENTATION_CONTEXT ( 'NONE', 'WORKASPACE' ) );
#83 = DIRECTION ( 'NONE',  ( -0.000000000000000000, -1.000000000000000000, -0.000000000000000000 ) ) ;
#84 = UNCERTAINTY_MEASURE_WITH_UNIT (LENGTH_MEASURE( 1.000000000000000082E-05 ), #186, 'distance_accuracy_value', 'NONE');
#85 = FACE_OUTER_BOUND ( 'NONE', #73, .T. ) ;
#86 = DIRECTION ( 'NONE',  ( 0.000000000000000000, -0.000000000000000000, 1.000000000000000000 ) ) ;
#87 = ADVANCED_FACE ( 'NONE', ( #301 ), #65, .T. ) ;
#88 = SURFACE_SIDE_STYLE ('',( #181 ) ) ;
#89 = AXIS2_PLACEMENT_3D ( 'NONE', #364, #138, #104 ) ;
#90 =( NAMED_UNIT ( * ) SI_UNIT ( $, .STERADIAN. ) SOLID_ANGLE_UNIT ( ) );
#91 = ORIENTED_EDGE ( 'NONE', *, *, #309, .T. ) ;
#92 =( LENGTH_UNIT ( ) NAMED_UNIT ( * ) SI_UNIT ( .MILLI., .METRE. ) );
#93 = EDGE_CURVE ( 'NONE', #22, #325, #221, .T. ) ;
#94 = FILL_AREA_STYLE ('',( #240 ) ) ;
#95 =( NAMED_UNIT ( * ) PLANE_ANGLE_UNIT ( ) SI_UNIT ( $, .RADIAN. ) );
#96 = PRODUCT ( '59484', '59484', '', ( #251 ) ) ;
#97 = VERTEX_POINT ( 'NONE', #200 ) ;
#98 = PRESENTATION_STYLE_ASSIGNMENT (( #127 ) ) ;
#99 = ORIENTED_EDGE ( 'NONE', *, *, #93, .T. ) ;
#100 = DIRECTION ( 'NONE',  ( -0.000000000000000000, -1.000000000000000000, -0.000000000000000000 ) ) ;
#101 = VERTEX_POINT ( 'NONE', #339 ) ;
#102 = ADVANCED_FACE ( 'NONE', ( #85 ), #285, .T. ) ;
#103 = VERTEX_POINT ( 'NONE', #202 ) ;
#104 = DIRECTION ( 'NONE',  ( -1.000000000000000000, 0.000000000000000000, 0.000000000000000000 ) ) ;
#105 = APPLICATION_PROTOCOL_DEFINITION ( 'draft international standard', 'automotive_design', 1998, #80 ) ;
#106 = EDGE_LOOP ( 'NONE', ( #189, #365 ) ) ;
#107 = LINE ( 'NONE', #362, #111 ) ;
#108 = COLOUR_RGB ( '',1.000000000000000000, 0.000000000000000000, 0.000000000000000000 ) ;
#109 = FILL_AREA_STYLE_COLOUR ( '', #108 ) ;
#110 = UNCERTAINTY_MEASURE_WITH_UNIT (LENGTH_MEASURE( 1.000000000000000082E-05 ), #168, 'distance_accuracy_value', 'NONE');
#111 = VECTOR ( 'NONE', #13, 1000.000000000000000 ) ;
#112 = DIRECTION ( 'NONE',  ( -1.224646799147353454E-16, 0.000000000000000000, -1.000000000000000000 ) ) ;
#113 = CARTESIAN_POINT ( 'NONE',  ( 0.000000000000000000, 0.000000000000000000, -5.000000000000000000 ) ) ;
#114 = AXIS2_PLACEMENT_3D ( 'NONE', #144, #142, #367 ) ;
#115 = STYLED_ITEM ( 'NONE', ( #153 ), #351 ) ;
#116 = CARTESIAN_POINT ( 'NONE',  ( 0.000000000000000000, 1.000000000000000000, -5.000000000000000000 ) ) ;
#117 = SURFACE_STYLE_FILL_AREA ( #63 ) ;
#118 = CARTESIAN_POINT ( 'NONE',  ( 4.999999999999999112, 63.00000000000000000, 6.123233995736761352E-16 ) ) ;
#119 = EDGE_CURVE ( 'NONE', #325, #224, #199, .T. ) ;
#120 = PLANE ( 'NONE',  #36 ) ;
#121 = DIRECTION ( 'NONE',  ( -4.697880814296055710E-17, 1.000000000000000000, -0.000000000000000000 ) ) ;
#122 = MECHANICAL_DESIGN_GEOMETRIC_PRESENTATION_REPRESENTATION (  '', ( #76 ), #310 ) ;
#123 = ORIENTED_EDGE ( 'NONE', *, *, #243, .F. ) ;
#124 = SURFACE_SIDE_STYLE ('',( #270 ) ) ;
#125 = CARTESIAN_POINT ( 'NONE',  ( 0.000000000000000000, 0.000000000000000000, 0.000000000000000000 ) ) ;
#126 = ORIENTED_EDGE ( 'NONE', *, *, #1, .T. ) ;
#127 = SURFACE_STYLE_USAGE ( .BOTH. , #236 ) ;
#128 = DIRECTION ( 'NONE',  ( 0.000000000000000000, 0.000000000000000000, -1.000000000000000000 ) ) ;
#129 = CARTESIAN_POINT ( 'NONE',  ( 6.123233995736766282E-16, 20.00000000000000000, 5.000000000000000000 ) ) ;
#130 = COLOUR_RGB ( '',0.7921568627450980005, 0.8196078431372548767, 0.9333333333333333481 ) ;
#131 = CARTESIAN_POINT ( 'NONE',  ( 5.510910596163088569E-16, 0.000000000000000000, 4.000000000000000000 ) ) ;
#132 = PRESENTATION_LAYER_ASSIGNMENT (  '', '', ( #293 ) ) ;
#133 = PLANE ( 'NONE',  #177 ) ;
#134 = FACE_OUTER_BOUND ( 'NONE', #137, .T. ) ;
#135 = APPLICATION_PROTOCOL_DEFINITION ( 'draft international standard', 'automotive_design', 1998, #7 ) ;
#136 = EDGE_CURVE ( 'NONE', #224, #198, #274, .T. ) ;
#137 = EDGE_LOOP ( 'NONE', ( #141, #126, #75, #123 ) ) ;
#138 = DIRECTION ( 'NONE',  ( -4.697880814296055710E-17, 1.000000000000000000, -0.000000000000000000 ) ) ;
#139 = ORIENTED_EDGE ( 'NONE', *, *, #359, .T. ) ;
#140 = AXIS2_PLACEMENT_3D ( 'NONE', #233, #370, #86 ) ;
#141 = ORIENTED_EDGE ( 'NONE', *, *, #292, .F. ) ;
#142 = DIRECTION ( 'NONE',  ( -4.697880814296055710E-17, 1.000000000000000000, 0.000000000000000000 ) ) ;
#143 = CARTESIAN_POINT ( 'NONE',  ( 0.000000000000000000, 20.00000000000000000, 0.000000000000000000 ) ) ;
#144 = CARTESIAN_POINT ( 'NONE',  ( 5.204170427930421283E-15, 20.00000000000000000, 0.000000000000000000 ) ) ;
#145 = PRESENTATION_STYLE_ASSIGNMENT (( #340 ) ) ;
#146 = AXIS2_PLACEMENT_3D ( 'NONE', #193, #69, #128 ) ;
#147 = DIRECTION ( 'NONE',  ( -0.000000000000000000, -1.000000000000000000, -0.000000000000000000 ) ) ;
#148 = PRESENTATION_STYLE_ASSIGNMENT (( #179 ) ) ;
#149 = DIRECTION ( 'NONE',  ( -0.000000000000000000, -1.000000000000000000, -0.000000000000000000 ) ) ;
#150 = CIRCLE ( 'NONE', #330, 4.999999999999996447 ) ;
#151 = PRODUCT_DEFINITION ( 'UNKNOWN', '', #54, #60 ) ;
#152 = DIRECTION ( 'NONE',  ( -4.697880814296055710E-17, 1.000000000000000000, -0.000000000000000000 ) ) ;
#153 = PRESENTATION_STYLE_ASSIGNMENT (( #42 ) ) ;
#154 = CYLINDRICAL_SURFACE ( 'NONE', #252, 5.000000000000000000 ) ;
#155 = EDGE_CURVE ( 'NONE', #198, #249, #2, .T. ) ;
#156 =( NAMED_UNIT ( * ) SI_UNIT ( $, .STERADIAN. ) SOLID_ANGLE_UNIT ( ) );
#157 = FACE_OUTER_BOUND ( 'NONE', #77, .T. ) ;
#158 = COLOUR_RGB ( '',1.000000000000000000, 0.000000000000000000, 0.000000000000000000 ) ;
#159 = SURFACE_STYLE_USAGE ( .BOTH. , #266 ) ;
#160 = CYLINDRICAL_SURFACE ( 'NONE', #357, 4.999999999999995559 ) ;
#161 = ORIENTED_EDGE ( 'NONE', *, *, #212, .F. ) ;
#162 = ORIENTED_EDGE ( 'NONE', *, *, #243, .T. ) ;
#163 =( NAMED_UNIT ( * ) PLANE_ANGLE_UNIT ( ) SI_UNIT ( $, .RADIAN. ) );
#164 = ADVANCED_FACE ( 'NONE', ( #260 ), #228, .T. ) ;
#165 = AXIS2_PLACEMENT_3D ( 'NONE', #59, #176, #112 ) ;
#166 = SURFACE_SIDE_STYLE ('',( #191 ) ) ;
#167 = SURFACE_STYLE_FILL_AREA ( #48 ) ;
#168 =( LENGTH_UNIT ( ) NAMED_UNIT ( * ) SI_UNIT ( .MILLI., .METRE. ) );
#169 = ORIENTED_EDGE ( 'NONE', *, *, #12, .T. ) ;
#170 = PLANE ( 'NONE',  #114 ) ;
#171 = PRESENTATION_LAYER_ASSIGNMENT (  '', '', ( #341 ) ) ;
#172 = PRESENTATION_LAYER_ASSIGNMENT (  '', '', ( #33 ) ) ;
#173 = COLOUR_RGB ( '',0.7921568627450980005, 0.8196078431372548767, 0.9333333333333333481 ) ;
#174 = CARTESIAN_POINT ( 'NONE',  ( 5.204170427930421283E-15, 20.00000000000000355, 0.000000000000000000 ) ) ;
#175 =( NAMED_UNIT ( * ) SI_UNIT ( $, .STERADIAN. ) SOLID_ANGLE_UNIT ( ) );
#176 = DIRECTION ( 'NONE',  ( 1.000000000000000000, 0.000000000000000000, -1.224646799147353207E-16 ) ) ;
#177 = AXIS2_PLACEMENT_3D ( 'NONE', #324, #6, #282 ) ;
#178 = DIRECTION ( 'NONE',  ( 0.000000000000000000, 0.000000000000000000, -1.000000000000000000 ) ) ;
#179 = SURFACE_STYLE_USAGE ( .BOTH. , #88 ) ;
#180 = CARTESIAN_POINT ( 'NONE',  ( 0.000000000000000000, 0.000000000000000000, -4.000000000000000000 ) ) ;
#181 = SURFACE_STYLE_FILL_AREA ( #231 ) ;
#182 = CIRCLE ( 'NONE', #16, 4.999999999999994671 ) ;
#183 = AXIS2_PLACEMENT_3D ( 'NONE', #11, #66, #245 ) ;
#184 =( GEOMETRIC_REPRESENTATION_CONTEXT ( 3 ) GLOBAL_UNCERTAINTY_ASSIGNED_CONTEXT ( ( #336 ) ) GLOBAL_UNIT_ASSIGNED_CONTEXT ( ( #34, #347, #90 ) ) REPRESENTATION_CONTEXT ( 'NONE', 'WORKASPACE' ) );
#185 = FACE_OUTER_BOUND ( 'NONE', #244, .T. ) ;
#186 =( LENGTH_UNIT ( ) NAMED_UNIT ( * ) SI_UNIT ( .MILLI., .METRE. ) );
#187 = STYLED_ITEM ( 'NONE', ( #148 ), #164 ) ;
#188 = UNCERTAINTY_MEASURE_WITH_UNIT (LENGTH_MEASURE( 1.000000000000000082E-05 ), #92, 'distance_accuracy_value', 'NONE');
#189 = ORIENTED_EDGE ( 'NONE', *, *, #309, .F. ) ;
#190 = DIRECTION ( 'NONE',  ( 0.000000000000000000, 0.000000000000000000, -1.000000000000000000 ) ) ;
#191 = SURFACE_STYLE_FILL_AREA ( #356 ) ;
#192 = FILL_AREA_STYLE_COLOUR ( '', #246 ) ;
#193 = CARTESIAN_POINT ( 'NONE',  ( 0.000000000000000000, 20.00000000000000000, 0.000000000000000000 ) ) ;
#194 = CIRCLE ( 'NONE', #62, 5.000000000000000000 ) ;
#195 = EDGE_LOOP ( 'NONE', ( #139, #162 ) ) ;
#196 = ORIENTED_EDGE ( 'NONE', *, *, #352, .F. ) ;
#197 =( NAMED_UNIT ( * ) PLANE_ANGLE_UNIT ( ) SI_UNIT ( $, .RADIAN. ) );
#198 = VERTEX_POINT ( 'NONE', #131 ) ;
#199 = CIRCLE ( 'NONE', #232, 5.000000000000000000 ) ;
#200 = CARTESIAN_POINT ( 'NONE',  ( 5.000000000000000000, 63.00000000000000000, 6.123233995736762338E-16 ) ) ;
#201 =( NAMED_UNIT ( * ) PLANE_ANGLE_UNIT ( ) SI_UNIT ( $, .RADIAN. ) );
#202 = CARTESIAN_POINT ( 'NONE',  ( -4.999999999999989342, 20.00000000000000355, 0.000000000000000000 ) ) ;
#203 = AXIS2_PLACEMENT_3D ( 'NONE', #299, #121, #273 ) ;
#204 = COLOUR_RGB ( '',1.000000000000000000, 0.000000000000000000, 0.000000000000000000 ) ;
#205 = CARTESIAN_POINT ( 'NONE',  ( 0.000000000000000000, 1.000000000000000000, 0.000000000000000000 ) ) ;
#206 = FILL_AREA_STYLE_COLOUR ( '', #158 ) ;
#207 = CIRCLE ( 'NONE', #146, 5.000000000000000000 ) ;
#208 =( NAMED_UNIT ( * ) PLANE_ANGLE_UNIT ( ) SI_UNIT ( $, .RADIAN. ) );
#209 = PRESENTATION_STYLE_ASSIGNMENT (( #159 ) ) ;
#210 = PRODUCT_DEFINITION_SHAPE ( 'NONE', 'NONE',  #151 ) ;
#211 = LINE ( 'NONE', #118, #318 ) ;
#212 = EDGE_CURVE ( 'NONE', #103, #101, #107, .T. ) ;
#213 = ORIENTED_EDGE ( 'NONE', *, *, #119, .T. ) ;
#214 = PRESENTATION_LAYER_ASSIGNMENT (  '', '', ( #187 ) ) ;
#215 =( GEOMETRIC_REPRESENTATION_CONTEXT ( 3 ) GLOBAL_UNCERTAINTY_ASSIGNED_CONTEXT ( ( #368 ) ) GLOBAL_UNIT_ASSIGNED_CONTEXT ( ( #219, #358, #238 ) ) REPRESENTATION_CONTEXT ( 'NONE', 'WORKASPACE' ) );
#216 =( NAMED_UNIT ( * ) PLANE_ANGLE_UNIT ( ) SI_UNIT ( $, .RADIAN. ) );
#217 = EDGE_CURVE ( 'NONE', #348, #22, #207, .T. ) ;
#218 = SURFACE_STYLE_USAGE ( .BOTH. , #166 ) ;
#219 =( LENGTH_UNIT ( ) NAMED_UNIT ( * ) SI_UNIT ( .MILLI., .METRE. ) );
#220 = EDGE_LOOP ( 'NONE', ( #213, #329, #278, #196 ) ) ;
#221 = LINE ( 'NONE', #113, #288 ) ;
#222 = ORIENTED_EDGE ( 'NONE', *, *, #217, .F. ) ;
#223 = PRESENTATION_LAYER_ASSIGNMENT (  '', '', ( #291 ) ) ;
#224 = VERTEX_POINT ( 'NONE', #296 ) ;
#225 = FACE_OUTER_BOUND ( 'NONE', #106, .T. ) ;
#226 = ORIENTED_EDGE ( 'NONE', *, *, #15, .T. ) ;
#227 = MECHANICAL_DESIGN_GEOMETRIC_PRESENTATION_REPRESENTATION (  '', ( #341 ), #9 ) ;
#228 = TOROIDAL_SURFACE ( 'NONE', #311, 4.000000000000000000, 1.000000000000000000 ) ;
#229 =( NAMED_UNIT ( * ) PLANE_ANGLE_UNIT ( ) SI_UNIT ( $, .RADIAN. ) );
#230 = CIRCLE ( 'NONE', #68, 5.000000000000000000 ) ;
#231 = FILL_AREA_STYLE ('',( #314 ) ) ;
#232 = AXIS2_PLACEMENT_3D ( 'NONE', #315, #369, #259 ) ;
#233 = CARTESIAN_POINT ( 'NONE',  ( 0.000000000000000000, 20.00000000000000000, 0.000000000000000000 ) ) ;
#234 = DIRECTION ( 'NONE',  ( -0.000000000000000000, -1.000000000000000000, -0.000000000000000000 ) ) ;
#235 = PRESENTATION_STYLE_ASSIGNMENT (( #5 ) ) ;
#236 = SURFACE_SIDE_STYLE ('',( #40 ) ) ;
#237 = COLOUR_RGB ( '',1.000000000000000000, 0.000000000000000000, 0.000000000000000000 ) ;
#238 =( NAMED_UNIT ( * ) SI_UNIT ( $, .STERADIAN. ) SOLID_ANGLE_UNIT ( ) );
#239 = CARTESIAN_POINT ( 'NONE',  ( 6.123233995736766282E-16, 0.000000000000000000, 5.000000000000000000 ) ) ;
#240 = FILL_AREA_STYLE_COLOUR ( '', #173 ) ;
#241 = FILL_AREA_STYLE_COLOUR ( '', #237 ) ;
#242 = EDGE_LOOP ( 'NONE', ( #226, #81 ) ) ;
#243 = EDGE_CURVE ( 'NONE', #97, #101, #150, .T. ) ;
#244 = EDGE_LOOP ( 'NONE', ( #268, #308, #99, #297 ) ) ;
#245 = DIRECTION ( 'NONE',  ( 0.000000000000000000, 0.000000000000000000, 1.000000000000000000 ) ) ;
#246 = COLOUR_RGB ( '',1.000000000000000000, 0.000000000000000000, 0.000000000000000000 ) ;
#247 = DIRECTION ( 'NONE',  ( -1.000000000000000000, 0.000000000000000000, 0.000000000000000000 ) ) ;
#248 = ORIENTED_EDGE ( 'NONE', *, *, #155, .F. ) ;
#249 = VERTEX_POINT ( 'NONE', #180 ) ;
#250 = AXIS2_PLACEMENT_3D ( 'NONE', #279, #255, #335 ) ;
#251 = PRODUCT_CONTEXT ( 'NONE', #80, 'mechanical' ) ;
#252 = AXIS2_PLACEMENT_3D ( 'NONE', #125, #149, #289 ) ;
#253 = DIRECTION ( 'NONE',  ( 0.000000000000000000, 0.000000000000000000, -1.000000000000000000 ) ) ;
#254 = CARTESIAN_POINT ( 'NONE',  ( 0.000000000000000000, 1.000000000000000000, 0.000000000000000000 ) ) ;
#255 = DIRECTION ( 'NONE',  ( 0.000000000000000000, 0.000000000000000000, 1.000000000000000000 ) ) ;
#256 = ADVANCED_FACE ( 'NONE', ( #262 ), #120, .F. ) ;
#257 =( LENGTH_UNIT ( ) NAMED_UNIT ( * ) SI_UNIT ( .MILLI., .METRE. ) );
#258 = CIRCLE ( 'NONE', #350, 4.999999999999994671 ) ;
#259 = DIRECTION ( 'NONE',  ( 0.000000000000000000, 0.000000000000000000, -1.000000000000000000 ) ) ;
#260 = FACE_OUTER_BOUND ( 'NONE', #307, .T. ) ;
#261 = ADVANCED_BREP_SHAPE_REPRESENTATION ( '59484', ( #351, #354, #250 ), #280 ) ;
#262 = FACE_OUTER_BOUND ( 'NONE', #195, .T. ) ;
#263 = COLOUR_RGB ( '',1.000000000000000000, 0.000000000000000000, 0.000000000000000000 ) ;
#264 = CIRCLE ( 'NONE', #183, 1.000000000000000000 ) ;
#265 =( LENGTH_UNIT ( ) NAMED_UNIT ( * ) SI_UNIT ( .MILLI., .METRE. ) );
#266 = SURFACE_SIDE_STYLE ('',( #267 ) ) ;
#267 = SURFACE_STYLE_FILL_AREA ( #349 ) ;
#268 = ORIENTED_EDGE ( 'NONE', *, *, #302, .F. ) ;
#269 =( LENGTH_UNIT ( ) NAMED_UNIT ( * ) SI_UNIT ( .MILLI., .METRE. ) );
#270 = SURFACE_STYLE_FILL_AREA ( #94 ) ;
#271 =( LENGTH_UNIT ( ) NAMED_UNIT ( * ) SI_UNIT ( .MILLI., .METRE. ) );
#272 = ORIENTED_EDGE ( 'NONE', *, *, #292, .T. ) ;
#273 = DIRECTION ( 'NONE',  ( -1.000000000000000000, 0.000000000000000000, 0.000000000000000000 ) ) ;
#274 = CIRCLE ( 'NONE', #165, 1.000000000000000000 ) ;
#275 = PRESENTATION_STYLE_ASSIGNMENT (( #218 ) ) ;
#276 = SURFACE_SIDE_STYLE ('',( #167 ) ) ;
#277 = CIRCLE ( 'NONE', #312, 4.000000000000000000 ) ;
#278 = ORIENTED_EDGE ( 'NONE', *, *, #15, .F. ) ;
#279 = CARTESIAN_POINT ( 'NONE',  ( 0.000000000000000000, 0.000000000000000000, 0.000000000000000000 ) ) ;
#280 =( GEOMETRIC_REPRESENTATION_CONTEXT ( 3 ) GLOBAL_UNCERTAINTY_ASSIGNED_CONTEXT ( ( #84 ) ) GLOBAL_UNIT_ASSIGNED_CONTEXT ( ( #186, #197, #79 ) ) REPRESENTATION_CONTEXT ( 'NONE', 'WORKASPACE' ) );
#281 = ORIENTED_EDGE ( 'NONE', *, *, #359, .F. ) ;
#282 = DIRECTION ( 'NONE',  ( 0.000000000000000000, 0.000000000000000000, -1.000000000000000000 ) ) ;
#283 = PRESENTATION_LAYER_ASSIGNMENT (  '', '', ( #76 ) ) ;
#284 = DIRECTION ( 'NONE',  ( 0.000000000000000000, 0.000000000000000000, -1.000000000000000000 ) ) ;
#285 = PLANE ( 'NONE',  #140 ) ;
#286 = CLOSED_SHELL ( 'NONE', ( #346, #41, #35, #256 ) ) ;
#287 = SURFACE_STYLE_FILL_AREA ( #316 ) ;
#288 = VECTOR ( 'NONE', #234, 1000.000000000000000 ) ;
#289 = DIRECTION ( 'NONE',  ( 0.000000000000000000, 0.000000000000000000, -1.000000000000000000 ) ) ;
#290 = FILL_AREA_STYLE_COLOUR ( '', #130 ) ;
#291 = STYLED_ITEM ( 'NONE', ( #235 ), #333 ) ;
#292 = EDGE_CURVE ( 'NONE', #71, #97, #211, .T. ) ;
#293 = STYLED_ITEM ( 'NONE', ( #145 ), #102 ) ;
#294 =( GEOMETRIC_REPRESENTATION_CONTEXT ( 3 ) GLOBAL_UNCERTAINTY_ASSIGNED_CONTEXT ( ( #188 ) ) GLOBAL_UNIT_ASSIGNED_CONTEXT ( ( #92, #95, #156 ) ) REPRESENTATION_CONTEXT ( 'NONE', 'WORKASPACE' ) );
#295 = DIRECTION ( 'NONE',  ( -1.000000000000000000, 0.000000000000000000, 0.000000000000000000 ) ) ;
#296 = CARTESIAN_POINT ( 'NONE',  ( 6.123233995736766282E-16, 1.000000000000000000, 5.000000000000000000 ) ) ;
#297 = ORIENTED_EDGE ( 'NONE', *, *, #50, .F. ) ;
#298 = DIRECTION ( 'NONE',  ( 0.000000000000000000, 0.000000000000000000, -1.000000000000000000 ) ) ;
#299 = CARTESIAN_POINT ( 'NONE',  ( 3.184081677783117402E-15, 63.00000000000000000, 0.000000000000000000 ) ) ;
#300 = DIRECTION ( 'NONE',  ( 0.000000000000000000, 0.000000000000000000, -1.000000000000000000 ) ) ;
#301 = FACE_OUTER_BOUND ( 'NONE', #220, .T. ) ;
#302 = EDGE_CURVE ( 'NONE', #348, #224, #353, .T. ) ;
#303 = DIRECTION ( 'NONE',  ( -1.000000000000000000, 0.000000000000000000, 0.000000000000000000 ) ) ;
#304 = FACE_OUTER_BOUND ( 'NONE', #242, .T. ) ;
#305 = PRESENTATION_LAYER_ASSIGNMENT (  '', '', ( #320 ) ) ;
#306 = CARTESIAN_POINT ( 'NONE',  ( 0.000000000000000000, 1.000000000000000000, 0.000000000000000000 ) ) ;
#307 = EDGE_LOOP ( 'NONE', ( #24, #334, #332, #248 ) ) ;
#308 = ORIENTED_EDGE ( 'NONE', *, *, #217, .T. ) ;
#309 = EDGE_CURVE ( 'NONE', #103, #71, #258, .T. ) ;
#310 =( GEOMETRIC_REPRESENTATION_CONTEXT ( 3 ) GLOBAL_UNCERTAINTY_ASSIGNED_CONTEXT ( ( #49 ) ) GLOBAL_UNIT_ASSIGNED_CONTEXT ( ( #269, #208, #64 ) ) REPRESENTATION_CONTEXT ( 'NONE', 'WORKASPACE' ) );
#311 = AXIS2_PLACEMENT_3D ( 'NONE', #306, #52, #328 ) ;
#312 = AXIS2_PLACEMENT_3D ( 'NONE', #366, #47, #253 ) ;
#313 =( GEOMETRIC_REPRESENTATION_CONTEXT ( 3 ) GLOBAL_UNCERTAINTY_ASSIGNED_CONTEXT ( ( #110 ) ) GLOBAL_UNIT_ASSIGNED_CONTEXT ( ( #168, #229, #175 ) ) REPRESENTATION_CONTEXT ( 'NONE', 'WORKASPACE' ) );
#314 = FILL_AREA_STYLE_COLOUR ( '', #263 ) ;
#315 = CARTESIAN_POINT ( 'NONE',  ( 0.000000000000000000, 1.000000000000000000, 0.000000000000000000 ) ) ;
#316 = FILL_AREA_STYLE ('',( #206 ) ) ;
#317 = ADVANCED_FACE ( 'NONE', ( #185 ), #154, .T. ) ;
#318 = VECTOR ( 'NONE', #152, 1000.000000000000000 ) ;
#319 = DIRECTION ( 'NONE',  ( -1.000000000000000000, 0.000000000000000000, 0.000000000000000000 ) ) ;
#320 = STYLED_ITEM ( 'NONE', ( #275 ), #25 ) ;
#321 = CARTESIAN_POINT ( 'NONE',  ( 3.184081677783117402E-15, 63.00000000000000000, 0.000000000000000000 ) ) ;
#322 = DIRECTION ( 'NONE',  ( 1.000000000000000000, 4.697880814296055710E-17, 0.000000000000000000 ) ) ;
#323 = CARTESIAN_POINT ( 'NONE',  ( 0.000000000000000000, 0.000000000000000000, 0.000000000000000000 ) ) ;
#324 = CARTESIAN_POINT ( 'NONE',  ( 0.000000000000000000, 0.000000000000000000, 0.000000000000000000 ) ) ;
#325 = VERTEX_POINT ( 'NONE', #116 ) ;
#326 = PRODUCT_RELATED_PRODUCT_CATEGORY ( 'part', '', ( #96 ) ) ;
#327 = CARTESIAN_POINT ( 'NONE',  ( 5.000000000000000000, 20.00000000000000355, 6.123233995736762338E-16 ) ) ;
#328 = DIRECTION ( 'NONE',  ( 0.000000000000000000, 0.000000000000000000, -1.000000000000000000 ) ) ;
#329 = ORIENTED_EDGE ( 'NONE', *, *, #136, .T. ) ;
#330 = AXIS2_PLACEMENT_3D ( 'NONE', #43, #21, #303 ) ;
#331 = AXIS2_PLACEMENT_3D ( 'NONE', #205, #4, #284 ) ;
#332 = ORIENTED_EDGE ( 'NONE', *, *, #352, .T. ) ;
#333 = ADVANCED_FACE ( 'NONE', ( #345 ), #74, .T. ) ;
#334 = ORIENTED_EDGE ( 'NONE', *, *, #50, .T. ) ;
#335 = DIRECTION ( 'NONE',  ( 1.000000000000000000, 0.000000000000000000, 0.000000000000000000 ) ) ;
#336 = UNCERTAINTY_MEASURE_WITH_UNIT (LENGTH_MEASURE( 1.000000000000000082E-05 ), #34, 'distance_accuracy_value', 'NONE');
#337 = CLOSED_SHELL ( 'NONE', ( #333, #87, #25, #164, #317, #102 ) ) ;
#338 = MECHANICAL_DESIGN_GEOMETRIC_PRESENTATION_REPRESENTATION (  '', ( #115 ), #215 ) ;
#339 = CARTESIAN_POINT ( 'NONE',  ( -4.999999999999992895, 63.00000000000000000, 0.000000000000000000 ) ) ;
#340 = SURFACE_STYLE_USAGE ( .BOTH. , #344 ) ;
#341 = STYLED_ITEM ( 'NONE', ( #98 ), #354 ) ;
#342 = AXIS2_PLACEMENT_3D ( 'NONE', #32, #147, #178 ) ;
#343 = PRESENTATION_LAYER_ASSIGNMENT (  '', '', ( #115 ) ) ;
#344 = SURFACE_SIDE_STYLE ('',( #117 ) ) ;
#345 = FACE_OUTER_BOUND ( 'NONE', #28, .T. ) ;
#346 = ADVANCED_FACE ( 'NONE', ( #157 ), #160, .T. ) ;
#347 =( NAMED_UNIT ( * ) PLANE_ANGLE_UNIT ( ) SI_UNIT ( $, .RADIAN. ) );
#348 = VERTEX_POINT ( 'NONE', #129 ) ;
#349 = FILL_AREA_STYLE ('',( #241 ) ) ;
#350 = AXIS2_PLACEMENT_3D ( 'NONE', #8, #3, #319 ) ;
#351 = MANIFOLD_SOLID_BREP ( 'Revolve - Cutting Edge', #337 ) ;
#352 = EDGE_CURVE ( 'NONE', #325, #249, #264, .T. ) ;
#353 = LINE ( 'NONE', #239, #46 ) ;
#354 = MANIFOLD_SOLID_BREP ( 'Revolve - Tool Body (Straight Shanked)', #286 ) ;
#355 =( GEOMETRIC_REPRESENTATION_CONTEXT ( 3 ) GLOBAL_UNCERTAINTY_ASSIGNED_CONTEXT ( ( #58 ) ) GLOBAL_UNIT_ASSIGNED_CONTEXT ( ( #265, #216, #17 ) ) REPRESENTATION_CONTEXT ( 'NONE', 'WORKASPACE' ) );
#356 = FILL_AREA_STYLE ('',( #109 ) ) ;
#357 = AXIS2_PLACEMENT_3D ( 'NONE', #321, #14, #295 ) ;
#358 =( NAMED_UNIT ( * ) PLANE_ANGLE_UNIT ( ) SI_UNIT ( $, .RADIAN. ) );
#359 = EDGE_CURVE ( 'NONE', #101, #97, #70, .T. ) ;
#360 = ORIENTED_EDGE ( 'NONE', *, *, #93, .F. ) ;
#361 = CYLINDRICAL_SURFACE ( 'NONE', #89, 4.999999999999995559 ) ;
#362 = CARTESIAN_POINT ( 'NONE',  ( -4.999999999999992006, 63.00000000000000000, 0.000000000000000000 ) ) ;
#363 = ORIENTED_EDGE ( 'NONE', *, *, #119, .F. ) ;
#364 = CARTESIAN_POINT ( 'NONE',  ( 3.184081677783117402E-15, 63.00000000000000000, 0.000000000000000000 ) ) ;
#365 = ORIENTED_EDGE ( 'NONE', *, *, #1, .F. ) ;
#366 = CARTESIAN_POINT ( 'NONE',  ( 0.000000000000000000, 0.000000000000000000, 0.000000000000000000 ) ) ;
#367 = DIRECTION ( 'NONE',  ( -1.000000000000000000, -4.697880814296055710E-17, 0.000000000000000000 ) ) ;
#368 = UNCERTAINTY_MEASURE_WITH_UNIT (LENGTH_MEASURE( 1.000000000000000082E-05 ), #219, 'distance_accuracy_value', 'NONE');
#369 = DIRECTION ( 'NONE',  ( -0.000000000000000000, -1.000000000000000000, -0.000000000000000000 ) ) ;
#370 = DIRECTION ( 'NONE',  ( 0.000000000000000000, 1.000000000000000000, 0.000000000000000000 ) ) ;
ENDSEC;
END-ISO-10303-21;
