ISO-10303-21;
HEADER;
FILE_DESCRIPTION (( 'STEP AP214' ),
    '1' );
FILE_NAME ('81318.STEP',
    '2023-06-30T22:22:39',
    ( '' ),
    ( '' ),
    'SwSTEP 2.0',
    'SolidWorks 2023',
    '' );
FILE_SCHEMA (( 'AUTOMOTIVE_DESIGN' ));
ENDSEC;

DATA;
#1 = CARTESIAN_POINT ( 'NONE',  ( -7.654042494670957545E-18, 0.06250000000000001388, 0.000000000000000000 ) ) ;
#2 = ADVANCED_FACE ( 'NONE', ( #250 ), #353, .T. ) ;
#3 = LENGTH_MEASURE_WITH_UNIT ( LENGTH_MEASURE( 0.02539999999999999897 ), #151 );
#4 = VECTOR ( 'NONE', #154, 39.37007874015748143 ) ;
#5 = AXIS2_PLACEMENT_3D ( 'NONE', #73, #13, #330 ) ;
#6 = CARTESIAN_POINT ( 'NONE',  ( 7.654042494670951382E-18, 0.06250000000000001388, 0.06249999999999993755 ) ) ;
#7 = SURFACE_STYLE_FILL_AREA ( #41 ) ;
#8 = CARTESIAN_POINT ( 'NONE',  ( 0.000000000000000000, 0.06250000000000001388, 0.000000000000000000 ) ) ;
#9 =( GEOMETRIC_REPRESENTATION_CONTEXT ( 3 ) GLOBAL_UNCERTAINTY_ASSIGNED_CONTEXT ( ( #371 ) ) GLOBAL_UNIT_ASSIGNED_CONTEXT ( ( #155, #267, #310 ) ) REPRESENTATION_CONTEXT ( 'NONE', 'WORKASPACE' ) );
#10 = MECHANICAL_DESIGN_GEOMETRIC_PRESENTATION_REPRESENTATION (  '', ( #126 ), #214 ) ;
#11 = DIRECTION ( 'NONE',  ( -0.000000000000000000, -1.000000000000000000, -0.000000000000000000 ) ) ;
#12 = SURFACE_SIDE_STYLE ('',( #247 ) ) ;
#13 = DIRECTION ( 'NONE',  ( -1.483672453417965792E-16, 1.000000000000000000, 0.000000000000000000 ) ) ;
#14 = CARTESIAN_POINT ( 'NONE',  ( 5.045720391776147351E-16, 0.7499999999999998890, 0.000000000000000000 ) ) ;
#15 = APPLICATION_CONTEXT ( 'automotive_design' ) ;
#16 =( NAMED_UNIT ( * ) SI_UNIT ( $, .STERADIAN. ) SOLID_ANGLE_UNIT ( ) );
#17 = CARTESIAN_POINT ( 'NONE',  ( 0.000000000000000000, 0.000000000000000000, 0.000000000000000000 ) ) ;
#18 =( NAMED_UNIT ( * ) SI_UNIT ( $, .STERADIAN. ) SOLID_ANGLE_UNIT ( ) );
#19 = AXIS2_PLACEMENT_3D ( 'NONE', #243, #227, #301 ) ;
#20 = SURFACE_STYLE_FILL_AREA ( #81 ) ;
#21 = DIMENSIONAL_EXPONENTS ( 1.000000000000000000, 0.000000000000000000, 0.000000000000000000, 0.000000000000000000, 0.000000000000000000, 0.000000000000000000, 0.000000000000000000 ) ;
#22 =( LENGTH_UNIT ( ) NAMED_UNIT ( * ) SI_UNIT ( $, .METRE. ) );
#23 = VERTEX_POINT ( 'NONE', #314 ) ;
#24 = DIRECTION ( 'NONE',  ( -0.000000000000000000, -1.000000000000000000, -0.000000000000000000 ) ) ;
#25 =( LENGTH_UNIT ( ) NAMED_UNIT ( * ) SI_UNIT ( $, .METRE. ) );
#26 = EDGE_CURVE ( 'NONE', #366, #192, #277, .T. ) ;
#27 = CARTESIAN_POINT ( 'NONE',  ( 0.000000000000000000, 0.7499999999999998890, 0.000000000000000000 ) ) ;
#28 = STYLED_ITEM ( 'NONE', ( #68 ), #2 ) ;
#29 = EDGE_LOOP ( 'NONE', ( #341, #166, #212, #303, #307 ) ) ;
#30 = FILL_AREA_STYLE ('',( #86 ) ) ;
#31 = DIRECTION ( 'NONE',  ( 0.000000000000000000, 1.000000000000000000, 0.000000000000000000 ) ) ;
#32 = PRODUCT_CONTEXT ( 'NONE', #351, 'mechanical' ) ;
#33 = EDGE_CURVE ( 'NONE', #23, #249, #34, .T. ) ;
#34 = CIRCLE ( 'NONE', #337, 0.06249999999999995143 ) ;
#35 = DIRECTION ( 'NONE',  ( 0.000000000000000000, 0.000000000000000000, -1.000000000000000000 ) ) ;
#36 = PRESENTATION_STYLE_ASSIGNMENT (( #204 ) ) ;
#37 = DIRECTION ( 'NONE',  ( -1.000000000000000000, 0.000000000000000000, 0.000000000000000000 ) ) ;
#38 = LINE ( 'NONE', #257, #4 ) ;
#39 = DIRECTION ( 'NONE',  ( -0.000000000000000000, -1.000000000000000000, -0.000000000000000000 ) ) ;
#40 = MECHANICAL_DESIGN_GEOMETRIC_PRESENTATION_REPRESENTATION (  '', ( #284 ), #89 ) ;
#41 = FILL_AREA_STYLE ('',( #63 ) ) ;
#42 =( NAMED_UNIT ( * ) PLANE_ANGLE_UNIT ( ) SI_UNIT ( $, .RADIAN. ) );
#43 = COLOUR_RGB ( '',1.000000000000000000, 0.000000000000000000, 0.000000000000000000 ) ;
#44 = DIRECTION ( 'NONE',  ( -1.483672453417965792E-16, 1.000000000000000000, -0.000000000000000000 ) ) ;
#45 = PRODUCT ( '81318', '81318', '', ( #32 ) ) ;
#46 = DIRECTION ( 'NONE',  ( -1.483672453417965792E-16, 1.000000000000000000, -0.000000000000000000 ) ) ;
#47 = CARTESIAN_POINT ( 'NONE',  ( 0.000000000000000000, 0.06250000000000001388, -0.06249999999999995143 ) ) ;
#48 = DIMENSIONAL_EXPONENTS ( 1.000000000000000000, 0.000000000000000000, 0.000000000000000000, 0.000000000000000000, 0.000000000000000000, 0.000000000000000000, 0.000000000000000000 ) ;
#49 = EDGE_LOOP ( 'NONE', ( #88, #317 ) ) ;
#50 = FILL_AREA_STYLE_COLOUR ( '', #251 ) ;
#51 = CYLINDRICAL_SURFACE ( 'NONE', #235, 0.06249999999999991673 ) ;
#52 = PRESENTATION_LAYER_ASSIGNMENT (  '', '', ( #354 ) ) ;
#53 = DIMENSIONAL_EXPONENTS ( 1.000000000000000000, 0.000000000000000000, 0.000000000000000000, 0.000000000000000000, 0.000000000000000000, 0.000000000000000000, 0.000000000000000000 ) ;
#54 = VERTEX_POINT ( 'NONE', #289 ) ;
#55 = ORIENTED_EDGE ( 'NONE', *, *, #171, .T. ) ;
#56 = APPLICATION_PROTOCOL_DEFINITION ( 'draft international standard', 'automotive_design', 1998, #15 ) ;
#57 = ORIENTED_EDGE ( 'NONE', *, *, #344, .T. ) ;
#58 = PRESENTATION_LAYER_ASSIGNMENT (  '', '', ( #126 ) ) ;
#59 = UNCERTAINTY_MEASURE_WITH_UNIT (LENGTH_MEASURE( 1.000000000000000082E-05 ), #324, 'distance_accuracy_value', 'NONE');
#60 = EDGE_CURVE ( 'NONE', #108, #360, #115, .T. ) ;
#61 =( CONVERSION_BASED_UNIT ( 'INCH', #253 ) LENGTH_UNIT ( ) NAMED_UNIT ( #53 ) );
#62 = AXIS2_PLACEMENT_3D ( 'NONE', #147, #285, #37 ) ;
#63 = FILL_AREA_STYLE_COLOUR ( '', #118 ) ;
#64 = AXIS2_PLACEMENT_3D ( 'NONE', #311, #44, #340 ) ;
#65 = ADVANCED_FACE ( 'NONE', ( #97 ), #226, .T. ) ;
#66 = CIRCLE ( 'NONE', #19, 0.06249999999999997918 ) ;
#67 = DIRECTION ( 'NONE',  ( 0.000000000000000000, 0.000000000000000000, 1.000000000000000000 ) ) ;
#68 = PRESENTATION_STYLE_ASSIGNMENT (( #152 ) ) ;
#69 = AXIS2_PLACEMENT_3D ( 'NONE', #27, #31, #112 ) ;
#70 = DIRECTION ( 'NONE',  ( -1.000000000000000000, 0.000000000000000000, 0.000000000000000000 ) ) ;
#71 =( LENGTH_UNIT ( ) NAMED_UNIT ( * ) SI_UNIT ( $, .METRE. ) );
#72 = ORIENTED_EDGE ( 'NONE', *, *, #123, .F. ) ;
#73 = CARTESIAN_POINT ( 'NONE',  ( 5.045720391776147351E-16, 0.7499999999999998890, 0.000000000000000000 ) ) ;
#74 = SURFACE_STYLE_USAGE ( .BOTH. , #127 ) ;
#75 = ORIENTED_EDGE ( 'NONE', *, *, #197, .T. ) ;
#76 = DIMENSIONAL_EXPONENTS ( 1.000000000000000000, 0.000000000000000000, 0.000000000000000000, 0.000000000000000000, 0.000000000000000000, 0.000000000000000000, 0.000000000000000000 ) ;
#77 = ADVANCED_FACE ( 'NONE', ( #258 ), #237, .T. ) ;
#78 = DIRECTION ( 'NONE',  ( 0.000000000000000000, 0.000000000000000000, -1.000000000000000000 ) ) ;
#79 = MECHANICAL_DESIGN_GEOMETRIC_PRESENTATION_REPRESENTATION (  '', ( #290 ), #261 ) ;
#80 =( GEOMETRIC_REPRESENTATION_CONTEXT ( 3 ) GLOBAL_UNCERTAINTY_ASSIGNED_CONTEXT ( ( #222 ) ) GLOBAL_UNIT_ASSIGNED_CONTEXT ( ( #358, #129, #239 ) ) REPRESENTATION_CONTEXT ( 'NONE', 'WORKASPACE' ) );
#81 = FILL_AREA_STYLE ('',( #223 ) ) ;
#82 = ORIENTED_EDGE ( 'NONE', *, *, #367, .T. ) ;
#83 = DIRECTION ( 'NONE',  ( -1.483672453417965792E-16, 1.000000000000000000, -0.000000000000000000 ) ) ;
#84 = CARTESIAN_POINT ( 'NONE',  ( -0.06249999999999886896, 0.7499999999999998890, 0.000000000000000000 ) ) ;
#85 = ORIENTED_EDGE ( 'NONE', *, *, #316, .F. ) ;
#86 = FILL_AREA_STYLE_COLOUR ( '', #43 ) ;
#87 =( NAMED_UNIT ( * ) PLANE_ANGLE_UNIT ( ) SI_UNIT ( $, .RADIAN. ) );
#88 = ORIENTED_EDGE ( 'NONE', *, *, #296, .F. ) ;
#89 =( GEOMETRIC_REPRESENTATION_CONTEXT ( 3 ) GLOBAL_UNCERTAINTY_ASSIGNED_CONTEXT ( ( #59 ) ) GLOBAL_UNIT_ASSIGNED_CONTEXT ( ( #324, #90, #279 ) ) REPRESENTATION_CONTEXT ( 'NONE', 'WORKASPACE' ) );
#90 =( NAMED_UNIT ( * ) PLANE_ANGLE_UNIT ( ) SI_UNIT ( $, .RADIAN. ) );
#91 = UNCERTAINTY_MEASURE_WITH_UNIT (LENGTH_MEASURE( 1.000000000000000082E-05 ), #232, 'distance_accuracy_value', 'NONE');
#92 = CARTESIAN_POINT ( 'NONE',  ( 0.000000000000000000, 0.7499999999999998890, -0.06249999999999988204 ) ) ;
#93 = CARTESIAN_POINT ( 'NONE',  ( 0.000000000000000000, 0.06250000000000001388, 0.000000000000000000 ) ) ;
#94 = DIRECTION ( 'NONE',  ( -0.000000000000000000, -1.000000000000000000, -0.000000000000000000 ) ) ;
#95 = CIRCLE ( 'NONE', #278, 0.06249999999999988204 ) ;
#96 = CARTESIAN_POINT ( 'NONE',  ( 2.449293598294706907E-16, 2.500000000000000000, 0.000000000000000000 ) ) ;
#97 = FACE_OUTER_BOUND ( 'NONE', #113, .T. ) ;
#98 = CIRCLE ( 'NONE', #103, 0.06249999999999963224 ) ;
#99 = PRODUCT_DEFINITION_FORMATION_WITH_SPECIFIED_SOURCE ( 'ANY', '', #45, .NOT_KNOWN. ) ;
#100 = DIRECTION ( 'NONE',  ( 0.000000000000000000, 0.000000000000000000, -1.000000000000000000 ) ) ;
#101 =( CONVERSION_BASED_UNIT ( 'INCH', #294 ) LENGTH_UNIT ( ) NAMED_UNIT ( #21 ) );
#102 = DIRECTION ( 'NONE',  ( -1.483672453417965792E-16, 1.000000000000000000, -0.000000000000000000 ) ) ;
#103 = AXIS2_PLACEMENT_3D ( 'NONE', #165, #167, #111 ) ;
#104 = DIMENSIONAL_EXPONENTS ( 1.000000000000000000, 0.000000000000000000, 0.000000000000000000, 0.000000000000000000, 0.000000000000000000, 0.000000000000000000, 0.000000000000000000 ) ;
#105 = VERTEX_POINT ( 'NONE', #6 ) ;
#106 =( LENGTH_UNIT ( ) NAMED_UNIT ( * ) SI_UNIT ( $, .METRE. ) );
#107 = FILL_AREA_STYLE ('',( #365 ) ) ;
#108 = VERTEX_POINT ( 'NONE', #92 ) ;
#109 = STYLED_ITEM ( 'NONE', ( #208 ), #231 ) ;
#110 = EDGE_LOOP ( 'NONE', ( #220, #114, #55, #370 ) ) ;
#111 = DIRECTION ( 'NONE',  ( -1.000000000000000000, 0.000000000000000000, 0.000000000000000000 ) ) ;
#112 = DIRECTION ( 'NONE',  ( 0.000000000000000000, -0.000000000000000000, 1.000000000000000000 ) ) ;
#113 = EDGE_LOOP ( 'NONE', ( #187, #75, #242, #190 ) ) ;
#114 = ORIENTED_EDGE ( 'NONE', *, *, #33, .T. ) ;
#115 = CIRCLE ( 'NONE', #283, 0.06249999999999988204 ) ;
#116 = AXIS2_PLACEMENT_3D ( 'NONE', #8, #11, #122 ) ;
#117 = SURFACE_STYLE_FILL_AREA ( #144 ) ;
#118 = COLOUR_RGB ( '',0.7921568627450980005, 0.8196078431372548767, 0.9333333333333333481 ) ;
#119 = AXIS2_PLACEMENT_3D ( 'NONE', #1, #67, #286 ) ;
#120 = FILL_AREA_STYLE_COLOUR ( '', #149 ) ;
#121 = MANIFOLD_SOLID_BREP ( 'Revolve - Cutting Edge', #234 ) ;
#122 = DIRECTION ( 'NONE',  ( 0.000000000000000000, 0.000000000000000000, -1.000000000000000000 ) ) ;
#123 = EDGE_CURVE ( 'NONE', #360, #105, #38, .T. ) ;
#124 = PLANE ( 'NONE',  #331 ) ;
#125 = FACE_OUTER_BOUND ( 'NONE', #270, .T. ) ;
#126 = STYLED_ITEM ( 'NONE', ( #240 ), #148 ) ;
#127 = SURFACE_SIDE_STYLE ('',( #333 ) ) ;
#128 = ORIENTED_EDGE ( 'NONE', *, *, #293, .T. ) ;
#129 =( NAMED_UNIT ( * ) PLANE_ANGLE_UNIT ( ) SI_UNIT ( $, .RADIAN. ) );
#130 = EDGE_CURVE ( 'NONE', #108, #249, #287, .T. ) ;
#131 = SURFACE_SIDE_STYLE ('',( #20 ) ) ;
#132 = ORIENTED_EDGE ( 'NONE', *, *, #207, .T. ) ;
#133 = LENGTH_MEASURE_WITH_UNIT ( LENGTH_MEASURE( 0.02539999999999999897 ), #22 );
#134 = DIRECTION ( 'NONE',  ( 1.000000000000000000, 0.000000000000000000, 0.000000000000000000 ) ) ;
#135 = AXIS2_PLACEMENT_3D ( 'NONE', #96, #348, #203 ) ;
#136 = AXIS2_PLACEMENT_3D ( 'NONE', #292, #295, #299 ) ;
#137 = CARTESIAN_POINT ( 'NONE',  ( 7.654042494670945219E-18, 0.7499999999999998890, 0.06249999999999988204 ) ) ;
#138 = EDGE_LOOP ( 'NONE', ( #276, #315, #164, #85 ) ) ;
#139 =( LENGTH_UNIT ( ) NAMED_UNIT ( * ) SI_UNIT ( $, .METRE. ) );
#140 = VERTEX_POINT ( 'NONE', #146 ) ;
#141 =( NAMED_UNIT ( * ) SI_UNIT ( $, .STERADIAN. ) SOLID_ANGLE_UNIT ( ) );
#142 =( NAMED_UNIT ( * ) PLANE_ANGLE_UNIT ( ) SI_UNIT ( $, .RADIAN. ) );
#143 = AXIS2_PLACEMENT_3D ( 'NONE', #364, #46, #266 ) ;
#144 = FILL_AREA_STYLE ('',( #120 ) ) ;
#145 =( NAMED_UNIT ( * ) PLANE_ANGLE_UNIT ( ) SI_UNIT ( $, .RADIAN. ) );
#146 = CARTESIAN_POINT ( 'NONE',  ( -3.827021247335479543E-18, 3.414809992080329023E-17, 0.000000000000000000 ) ) ;
#147 = CARTESIAN_POINT ( 'NONE',  ( 2.449293598294706907E-16, 2.500000000000000000, 0.000000000000000000 ) ) ;
#148 = ADVANCED_FACE ( 'NONE', ( #363 ), #372, .T. ) ;
#149 = COLOUR_RGB ( '',1.000000000000000000, 0.000000000000000000, 0.000000000000000000 ) ;
#150 = AXIS2_PLACEMENT_3D ( 'NONE', #14, #102, #70 ) ;
#151 =( LENGTH_UNIT ( ) NAMED_UNIT ( * ) SI_UNIT ( $, .METRE. ) );
#152 = SURFACE_STYLE_USAGE ( .BOTH. , #159 ) ;
#153 = DIRECTION ( 'NONE',  ( -0.000000000000000000, -1.000000000000000000, -0.000000000000000000 ) ) ;
#154 = DIRECTION ( 'NONE',  ( -0.000000000000000000, -1.000000000000000000, -0.000000000000000000 ) ) ;
#155 =( CONVERSION_BASED_UNIT ( 'INCH', #332 ) LENGTH_UNIT ( ) NAMED_UNIT ( #304 ) );
#156 = PRESENTATION_LAYER_ASSIGNMENT (  '', '', ( #326 ) ) ;
#157 = COLOUR_RGB ( '',1.000000000000000000, 0.000000000000000000, 0.000000000000000000 ) ;
#158 = CARTESIAN_POINT ( 'NONE',  ( 0.06249999999999988204, 2.500000000000000000, 7.654042494670905160E-18 ) ) ;
#159 = SURFACE_SIDE_STYLE ('',( #181 ) ) ;
#160 = CARTESIAN_POINT ( 'NONE',  ( 0.000000000000000000, 0.000000000000000000, 0.000000000000000000 ) ) ;
#161 = VERTEX_POINT ( 'NONE', #84 ) ;
#162 = UNCERTAINTY_MEASURE_WITH_UNIT (LENGTH_MEASURE( 1.000000000000000082E-05 ), #288, 'distance_accuracy_value', 'NONE');
#163 = PRESENTATION_STYLE_ASSIGNMENT (( #74 ) ) ;
#164 = ORIENTED_EDGE ( 'NONE', *, *, #26, .F. ) ;
#165 = CARTESIAN_POINT ( 'NONE',  ( 2.449293598294706907E-16, 2.500000000000000000, 0.000000000000000000 ) ) ;
#166 = ORIENTED_EDGE ( 'NONE', *, *, #123, .T. ) ;
#167 = DIRECTION ( 'NONE',  ( -1.483672453417965792E-16, 1.000000000000000000, -0.000000000000000000 ) ) ;
#168 = AXIS2_PLACEMENT_3D ( 'NONE', #195, #201, #191 ) ;
#169 = ORIENTED_EDGE ( 'NONE', *, *, #26, .T. ) ;
#170 = UNCERTAINTY_MEASURE_WITH_UNIT (LENGTH_MEASURE( 1.000000000000000082E-05 ), #61, 'distance_accuracy_value', 'NONE');
#171 = EDGE_CURVE ( 'NONE', #249, #54, #230, .T. ) ;
#172 = APPLICATION_PROTOCOL_DEFINITION ( 'draft international standard', 'automotive_design', 1998, #351 ) ;
#173 =( CONVERSION_BASED_UNIT ( 'INCH', #291 ) LENGTH_UNIT ( ) NAMED_UNIT ( #193 ) );
#174 = MECHANICAL_DESIGN_GEOMETRIC_PRESENTATION_REPRESENTATION (  '', ( #354 ), #194 ) ;
#175 = COLOUR_RGB ( '',0.7921568627450980005, 0.8196078431372548767, 0.9333333333333333481 ) ;
#176 = SURFACE_STYLE_USAGE ( .BOTH. , #131 ) ;
#177 = DIRECTION ( 'NONE',  ( -1.483672453417965792E-16, 1.000000000000000000, -0.000000000000000000 ) ) ;
#178 = CARTESIAN_POINT ( 'NONE',  ( 0.000000000000000000, 0.06250000000000001388, 0.000000000000000000 ) ) ;
#179 = VECTOR ( 'NONE', #83, 39.37007874015748143 ) ;
#180 = PRESENTATION_STYLE_ASSIGNMENT (( #329 ) ) ;
#181 = SURFACE_STYLE_FILL_AREA ( #238 ) ;
#182 = FILL_AREA_STYLE_COLOUR ( '', #175 ) ;
#183 = ORIENTED_EDGE ( 'NONE', *, *, #209, .F. ) ;
#184 = ADVANCED_FACE ( 'NONE', ( #210 ), #302, .F. ) ;
#185 = ORIENTED_EDGE ( 'NONE', *, *, #367, .F. ) ;
#186 = CYLINDRICAL_SURFACE ( 'NONE', #64, 0.06249999999999950734 ) ;
#187 = ORIENTED_EDGE ( 'NONE', *, *, #213, .F. ) ;
#188 = DIRECTION ( 'NONE',  ( 0.000000000000000000, 0.000000000000000000, -1.000000000000000000 ) ) ;
#189 =( NAMED_UNIT ( * ) SI_UNIT ( $, .STERADIAN. ) SOLID_ANGLE_UNIT ( ) );
#190 = ORIENTED_EDGE ( 'NONE', *, *, #344, .F. ) ;
#191 = DIRECTION ( 'NONE',  ( 1.000000000000000000, 0.000000000000000000, 0.000000000000000000 ) ) ;
#192 = VERTEX_POINT ( 'NONE', #158 ) ;
#193 = DIMENSIONAL_EXPONENTS ( 1.000000000000000000, 0.000000000000000000, 0.000000000000000000, 0.000000000000000000, 0.000000000000000000, 0.000000000000000000, 0.000000000000000000 ) ;
#194 =( GEOMETRIC_REPRESENTATION_CONTEXT ( 3 ) GLOBAL_UNCERTAINTY_ASSIGNED_CONTEXT ( ( #91 ) ) GLOBAL_UNIT_ASSIGNED_CONTEXT ( ( #232, #268, #18 ) ) REPRESENTATION_CONTEXT ( 'NONE', 'WORKASPACE' ) );
#195 = CARTESIAN_POINT ( 'NONE',  ( 0.000000000000000000, 0.000000000000000000, 0.000000000000000000 ) ) ;
#196 = SURFACE_SIDE_STYLE ('',( #7 ) ) ;
#197 = EDGE_CURVE ( 'NONE', #246, #161, #349, .T. ) ;
#198 = PRODUCT_DEFINITION_SHAPE ( 'NONE', 'NONE',  #347 ) ;
#199 = DIRECTION ( 'NONE',  ( 0.000000000000000000, 0.000000000000000000, -1.000000000000000000 ) ) ;
#200 = MECHANICAL_DESIGN_GEOMETRIC_PRESENTATION_REPRESENTATION (  '', ( #326 ), #245 ) ;
#201 = DIRECTION ( 'NONE',  ( 0.000000000000000000, 0.000000000000000000, 1.000000000000000000 ) ) ;
#202 = CIRCLE ( 'NONE', #150, 0.06249999999999937550 ) ;
#203 = DIRECTION ( 'NONE',  ( -1.000000000000000000, 0.000000000000000000, 0.000000000000000000 ) ) ;
#204 = SURFACE_STYLE_USAGE ( .BOTH. , #196 ) ;
#205 = PRESENTATION_STYLE_ASSIGNMENT (( #352 ) ) ;
#206 = CIRCLE ( 'NONE', #339, 0.06249999999999995143 ) ;
#207 = EDGE_CURVE ( 'NONE', #23, #140, #66, .T. ) ;
#208 = PRESENTATION_STYLE_ASSIGNMENT (( #368 ) ) ;
#209 = EDGE_CURVE ( 'NONE', #105, #23, #262, .T. ) ;
#210 = FACE_OUTER_BOUND ( 'NONE', #49, .T. ) ;
#211 = DIRECTION ( 'NONE',  ( -0.000000000000000000, -1.000000000000000000, -0.000000000000000000 ) ) ;
#212 = ORIENTED_EDGE ( 'NONE', *, *, #293, .F. ) ;
#213 = EDGE_CURVE ( 'NONE', #246, #192, #298, .T. ) ;
#214 =( GEOMETRIC_REPRESENTATION_CONTEXT ( 3 ) GLOBAL_UNCERTAINTY_ASSIGNED_CONTEXT ( ( #345 ) ) GLOBAL_UNIT_ASSIGNED_CONTEXT ( ( #173, #142, #189 ) ) REPRESENTATION_CONTEXT ( 'NONE', 'WORKASPACE' ) );
#215 = CARTESIAN_POINT ( 'NONE',  ( 0.06249999999999988204, 0.7499999999999998890, 7.654042494670905160E-18 ) ) ;
#216 = ORIENTED_EDGE ( 'NONE', *, *, #209, .T. ) ;
#217 = FACE_OUTER_BOUND ( 'NONE', #312, .T. ) ;
#218 = ADVANCED_FACE ( 'NONE', ( #263 ), #124, .F. ) ;
#219 = CARTESIAN_POINT ( 'NONE',  ( -0.06249999999999938244, 2.500000000000000000, 0.000000000000000000 ) ) ;
#220 = ORIENTED_EDGE ( 'NONE', *, *, #207, .F. ) ;
#221 = PRESENTATION_LAYER_ASSIGNMENT (  '', '', ( #109 ) ) ;
#222 = UNCERTAINTY_MEASURE_WITH_UNIT (LENGTH_MEASURE( 1.000000000000000082E-05 ), #358, 'distance_accuracy_value', 'NONE');
#223 = FILL_AREA_STYLE_COLOUR ( '', #343 ) ;
#224 = CARTESIAN_POINT ( 'NONE',  ( 0.000000000000000000, 0.7499999999999998890, 0.000000000000000000 ) ) ;
#225 = MECHANICAL_DESIGN_GEOMETRIC_PRESENTATION_REPRESENTATION (  '', ( #28 ), #9 ) ;
#226 = CYLINDRICAL_SURFACE ( 'NONE', #62, 0.06249999999999950734 ) ;
#227 = DIRECTION ( 'NONE',  ( 1.224646799147353207E-16, -0.000000000000000000, 1.000000000000000000 ) ) ;
#228 = ORIENTED_EDGE ( 'NONE', *, *, #33, .F. ) ;
#229 = PRESENTATION_LAYER_ASSIGNMENT (  '', '', ( #290 ) ) ;
#230 = CIRCLE ( 'NONE', #136, 0.06249999999999995143 ) ;
#231 = MANIFOLD_SOLID_BREP ( 'Revolve - Tool Body (Straight Shanked)', #269 ) ;
#232 =( CONVERSION_BASED_UNIT ( 'INCH', #336 ) LENGTH_UNIT ( ) NAMED_UNIT ( #361 ) );
#233 = FILL_AREA_STYLE ('',( #182 ) ) ;
#234 = CLOSED_SHELL ( 'NONE', ( #77, #2, #356, #241, #148 ) ) ;
#235 = AXIS2_PLACEMENT_3D ( 'NONE', #160, #211, #78 ) ;
#236 = ORIENTED_EDGE ( 'NONE', *, *, #60, .F. ) ;
#237 = SPHERICAL_SURFACE ( 'NONE', #369, 0.06249999999999997918 ) ;
#238 = FILL_AREA_STYLE ('',( #50 ) ) ;
#239 =( NAMED_UNIT ( * ) SI_UNIT ( $, .STERADIAN. ) SOLID_ANGLE_UNIT ( ) );
#240 = PRESENTATION_STYLE_ASSIGNMENT (( #176 ) ) ;
#241 = ADVANCED_FACE ( 'NONE', ( #125 ), #51, .T. ) ;
#242 = ORIENTED_EDGE ( 'NONE', *, *, #316, .T. ) ;
#243 = CARTESIAN_POINT ( 'NONE',  ( -7.654042494670957545E-18, 0.06250000000000001388, 0.000000000000000000 ) ) ;
#244 = SURFACE_STYLE_FILL_AREA ( #233 ) ;
#245 =( GEOMETRIC_REPRESENTATION_CONTEXT ( 3 ) GLOBAL_UNCERTAINTY_ASSIGNED_CONTEXT ( ( #162 ) ) GLOBAL_UNIT_ASSIGNED_CONTEXT ( ( #288, #145, #282 ) ) REPRESENTATION_CONTEXT ( 'NONE', 'WORKASPACE' ) );
#246 = VERTEX_POINT ( 'NONE', #215 ) ;
#247 = SURFACE_STYLE_FILL_AREA ( #30 ) ;
#248 = CARTESIAN_POINT ( 'NONE',  ( -0.06249999999999925754, 2.500000000000000000, 0.000000000000000000 ) ) ;
#249 = VERTEX_POINT ( 'NONE', #47 ) ;
#250 = FACE_OUTER_BOUND ( 'NONE', #29, .T. ) ;
#251 = COLOUR_RGB ( '',1.000000000000000000, 0.000000000000000000, 0.000000000000000000 ) ;
#252 = CIRCLE ( 'NONE', #359, 0.06249999999999997918 ) ;
#253 = LENGTH_MEASURE_WITH_UNIT ( LENGTH_MEASURE( 0.02539999999999999897 ), #139 );
#254 = CARTESIAN_POINT ( 'NONE',  ( -7.654042494670957545E-18, 0.06250000000000001388, 0.000000000000000000 ) ) ;
#255 = PRODUCT_RELATED_PRODUCT_CATEGORY ( 'part', '', ( #45 ) ) ;
#256 =( LENGTH_UNIT ( ) NAMED_UNIT ( * ) SI_UNIT ( $, .METRE. ) );
#257 = CARTESIAN_POINT ( 'NONE',  ( 7.654042494670946760E-18, 0.000000000000000000, 0.06249999999999991673 ) ) ;
#258 = FACE_OUTER_BOUND ( 'NONE', #373, .T. ) ;
#259 = PRODUCT_DEFINITION_CONTEXT ( 'detailed design', #15, 'design' ) ;
#260 = SURFACE_SIDE_STYLE ('',( #117 ) ) ;
#261 =( GEOMETRIC_REPRESENTATION_CONTEXT ( 3 ) GLOBAL_UNCERTAINTY_ASSIGNED_CONTEXT ( ( #309 ) ) GLOBAL_UNIT_ASSIGNED_CONTEXT ( ( #101, #42, #16 ) ) REPRESENTATION_CONTEXT ( 'NONE', 'WORKASPACE' ) );
#262 = CIRCLE ( 'NONE', #116, 0.06249999999999995143 ) ;
#263 = FACE_OUTER_BOUND ( 'NONE', #280, .T. ) ;
#264 = DIRECTION ( 'NONE',  ( 0.000000000000000000, 0.000000000000000000, -1.000000000000000000 ) ) ;
#265 = CARTESIAN_POINT ( 'NONE',  ( 0.06249999999999988204, 2.500000000000000000, 0.000000000000000000 ) ) ;
#266 = DIRECTION ( 'NONE',  ( -1.000000000000000000, 0.000000000000000000, 0.000000000000000000 ) ) ;
#267 =( NAMED_UNIT ( * ) PLANE_ANGLE_UNIT ( ) SI_UNIT ( $, .RADIAN. ) );
#268 =( NAMED_UNIT ( * ) PLANE_ANGLE_UNIT ( ) SI_UNIT ( $, .RADIAN. ) );
#269 = CLOSED_SHELL ( 'NONE', ( #274, #184, #65, #218 ) ) ;
#270 = EDGE_LOOP ( 'NONE', ( #72, #82, #338, #228, #183 ) ) ;
#271 = MECHANICAL_DESIGN_GEOMETRIC_PRESENTATION_REPRESENTATION (  '', ( #109 ), #80 ) ;
#272 =( GEOMETRIC_REPRESENTATION_CONTEXT ( 3 ) GLOBAL_UNCERTAINTY_ASSIGNED_CONTEXT ( ( #170 ) ) GLOBAL_UNIT_ASSIGNED_CONTEXT ( ( #61, #87, #141 ) ) REPRESENTATION_CONTEXT ( 'NONE', 'WORKASPACE' ) );
#273 = DIRECTION ( 'NONE',  ( 1.483672453417965792E-16, -1.000000000000000000, 0.000000000000000000 ) ) ;
#274 = ADVANCED_FACE ( 'NONE', ( #275 ), #186, .T. ) ;
#275 = FACE_OUTER_BOUND ( 'NONE', #138, .T. ) ;
#276 = ORIENTED_EDGE ( 'NONE', *, *, #296, .T. ) ;
#277 = CIRCLE ( 'NONE', #135, 0.06249999999999963224 ) ;
#278 = AXIS2_PLACEMENT_3D ( 'NONE', #346, #94, #35 ) ;
#279 =( NAMED_UNIT ( * ) SI_UNIT ( $, .STERADIAN. ) SOLID_ANGLE_UNIT ( ) );
#280 = EDGE_LOOP ( 'NONE', ( #169, #57 ) ) ;
#281 = LINE ( 'NONE', #248, #179 ) ;
#282 =( NAMED_UNIT ( * ) SI_UNIT ( $, .STERADIAN. ) SOLID_ANGLE_UNIT ( ) );
#283 = AXIS2_PLACEMENT_3D ( 'NONE', #224, #39, #323 ) ;
#284 = STYLED_ITEM ( 'NONE', ( #180 ), #356 ) ;
#285 = DIRECTION ( 'NONE',  ( -1.483672453417965792E-16, 1.000000000000000000, -0.000000000000000000 ) ) ;
#286 = DIRECTION ( 'NONE',  ( 1.000000000000000000, 0.000000000000000000, 0.000000000000000000 ) ) ;
#287 = LINE ( 'NONE', #357, #297 ) ;
#288 =( CONVERSION_BASED_UNIT ( 'INCH', #320 ) LENGTH_UNIT ( ) NAMED_UNIT ( #76 ) );
#289 = CARTESIAN_POINT ( 'NONE',  ( 0.06249999999999996531, 0.06250000000000001388, 0.000000000000000000 ) ) ;
#290 = STYLED_ITEM ( 'NONE', ( #205 ), #77 ) ;
#291 = LENGTH_MEASURE_WITH_UNIT ( LENGTH_MEASURE( 0.02539999999999999897 ), #25 );
#292 = CARTESIAN_POINT ( 'NONE',  ( 0.000000000000000000, 0.06250000000000001388, 0.000000000000000000 ) ) ;
#293 = EDGE_CURVE ( 'NONE', #54, #105, #206, .T. ) ;
#294 = LENGTH_MEASURE_WITH_UNIT ( LENGTH_MEASURE( 0.02539999999999999897 ), #256 );
#295 = DIRECTION ( 'NONE',  ( -0.000000000000000000, -1.000000000000000000, -0.000000000000000000 ) ) ;
#296 = EDGE_CURVE ( 'NONE', #161, #246, #202, .T. ) ;
#297 = VECTOR ( 'NONE', #325, 39.37007874015748143 ) ;
#298 = LINE ( 'NONE', #355, #318 ) ;
#299 = DIRECTION ( 'NONE',  ( 0.000000000000000000, 0.000000000000000000, -1.000000000000000000 ) ) ;
#300 = DIRECTION ( 'NONE',  ( 1.000000000000000000, 1.483672453417965792E-16, 0.000000000000000000 ) ) ;
#301 = DIRECTION ( 'NONE',  ( 1.000000000000000000, 0.000000000000000000, -1.224646799147353454E-16 ) ) ;
#302 = PLANE ( 'NONE',  #5 ) ;
#303 = ORIENTED_EDGE ( 'NONE', *, *, #171, .F. ) ;
#304 = DIMENSIONAL_EXPONENTS ( 1.000000000000000000, 0.000000000000000000, 0.000000000000000000, 0.000000000000000000, 0.000000000000000000, 0.000000000000000000, 0.000000000000000000 ) ;
#305 = SURFACE_SIDE_STYLE ('',( #244 ) ) ;
#306 = AXIS2_PLACEMENT_3D ( 'NONE', #17, #24, #100 ) ;
#307 = ORIENTED_EDGE ( 'NONE', *, *, #130, .F. ) ;
#308 = PRESENTATION_LAYER_ASSIGNMENT (  '', '', ( #284 ) ) ;
#309 = UNCERTAINTY_MEASURE_WITH_UNIT (LENGTH_MEASURE( 1.000000000000000082E-05 ), #101, 'distance_accuracy_value', 'NONE');
#310 =( NAMED_UNIT ( * ) SI_UNIT ( $, .STERADIAN. ) SOLID_ANGLE_UNIT ( ) );
#311 = CARTESIAN_POINT ( 'NONE',  ( 2.449293598294706907E-16, 2.500000000000000000, 0.000000000000000000 ) ) ;
#312 = EDGE_LOOP ( 'NONE', ( #236, #185 ) ) ;
#313 = DIRECTION ( 'NONE',  ( -1.000000000000000000, 0.000000000000000000, 0.000000000000000000 ) ) ;
#314 = CARTESIAN_POINT ( 'NONE',  ( -0.06249999999999996531, 0.06250000000000001388, 7.654042494670952923E-18 ) ) ;
#315 = ORIENTED_EDGE ( 'NONE', *, *, #213, .T. ) ;
#316 = EDGE_CURVE ( 'NONE', #161, #366, #281, .T. ) ;
#317 = ORIENTED_EDGE ( 'NONE', *, *, #197, .F. ) ;
#318 = VECTOR ( 'NONE', #177, 39.37007874015748143 ) ;
#319 = SHAPE_DEFINITION_REPRESENTATION ( #198, #334 ) ;
#320 = LENGTH_MEASURE_WITH_UNIT ( LENGTH_MEASURE( 0.02539999999999999897 ), #350 );
#321 = EDGE_CURVE ( 'NONE', #54, #140, #252, .T. ) ;
#322 = PRESENTATION_LAYER_ASSIGNMENT (  '', '', ( #28 ) ) ;
#323 = DIRECTION ( 'NONE',  ( 0.000000000000000000, 0.000000000000000000, -1.000000000000000000 ) ) ;
#324 =( CONVERSION_BASED_UNIT ( 'INCH', #3 ) LENGTH_UNIT ( ) NAMED_UNIT ( #48 ) );
#325 = DIRECTION ( 'NONE',  ( -0.000000000000000000, -1.000000000000000000, -0.000000000000000000 ) ) ;
#326 = STYLED_ITEM ( 'NONE', ( #36 ), #121 ) ;
#327 = DIRECTION ( 'NONE',  ( -0.000000000000000000, -1.000000000000000000, -0.000000000000000000 ) ) ;
#328 = DIRECTION ( 'NONE',  ( 0.000000000000000000, 0.000000000000000000, 1.000000000000000000 ) ) ;
#329 = SURFACE_STYLE_USAGE ( .BOTH. , #12 ) ;
#330 = DIRECTION ( 'NONE',  ( -1.000000000000000000, -1.483672453417965792E-16, 0.000000000000000000 ) ) ;
#331 = AXIS2_PLACEMENT_3D ( 'NONE', #265, #273, #300 ) ;
#332 = LENGTH_MEASURE_WITH_UNIT ( LENGTH_MEASURE( 0.02539999999999999897 ), #106 );
#333 = SURFACE_STYLE_FILL_AREA ( #107 ) ;
#334 = ADVANCED_BREP_SHAPE_REPRESENTATION ( '81318', ( #121, #231, #168 ), #272 ) ;
#335 = ORIENTED_EDGE ( 'NONE', *, *, #321, .F. ) ;
#336 = LENGTH_MEASURE_WITH_UNIT ( LENGTH_MEASURE( 0.02539999999999999897 ), #71 );
#337 = AXIS2_PLACEMENT_3D ( 'NONE', #93, #327, #199 ) ;
#338 = ORIENTED_EDGE ( 'NONE', *, *, #130, .T. ) ;
#339 = AXIS2_PLACEMENT_3D ( 'NONE', #178, #153, #264 ) ;
#340 = DIRECTION ( 'NONE',  ( -1.000000000000000000, 0.000000000000000000, 0.000000000000000000 ) ) ;
#341 = ORIENTED_EDGE ( 'NONE', *, *, #60, .T. ) ;
#342 = PLANE ( 'NONE',  #69 ) ;
#343 = COLOUR_RGB ( '',1.000000000000000000, 0.000000000000000000, 0.000000000000000000 ) ;
#344 = EDGE_CURVE ( 'NONE', #192, #366, #98, .T. ) ;
#345 = UNCERTAINTY_MEASURE_WITH_UNIT (LENGTH_MEASURE( 1.000000000000000082E-05 ), #173, 'distance_accuracy_value', 'NONE');
#346 = CARTESIAN_POINT ( 'NONE',  ( 0.000000000000000000, 0.7499999999999998890, 0.000000000000000000 ) ) ;
#347 = PRODUCT_DEFINITION ( 'UNKNOWN', '', #99, #259 ) ;
#348 = DIRECTION ( 'NONE',  ( -1.483672453417965792E-16, 1.000000000000000000, -0.000000000000000000 ) ) ;
#349 = CIRCLE ( 'NONE', #143, 0.06249999999999937550 ) ;
#350 =( LENGTH_UNIT ( ) NAMED_UNIT ( * ) SI_UNIT ( $, .METRE. ) );
#351 = APPLICATION_CONTEXT ( 'automotive_design' ) ;
#352 = SURFACE_STYLE_USAGE ( .BOTH. , #260 ) ;
#353 = CYLINDRICAL_SURFACE ( 'NONE', #306, 0.06249999999999991673 ) ;
#354 = STYLED_ITEM ( 'NONE', ( #163 ), #241 ) ;
#355 = CARTESIAN_POINT ( 'NONE',  ( 0.06249999999999975020, 2.500000000000000000, 7.654042494670897456E-18 ) ) ;
#356 = ADVANCED_FACE ( 'NONE', ( #217 ), #342, .T. ) ;
#357 = CARTESIAN_POINT ( 'NONE',  ( 0.000000000000000000, 0.000000000000000000, -0.06249999999999991673 ) ) ;
#358 =( CONVERSION_BASED_UNIT ( 'INCH', #133 ) LENGTH_UNIT ( ) NAMED_UNIT ( #104 ) );
#359 = AXIS2_PLACEMENT_3D ( 'NONE', #254, #188, #313 ) ;
#360 = VERTEX_POINT ( 'NONE', #137 ) ;
#361 = DIMENSIONAL_EXPONENTS ( 1.000000000000000000, 0.000000000000000000, 0.000000000000000000, 0.000000000000000000, 0.000000000000000000, 0.000000000000000000, 0.000000000000000000 ) ;
#362 = CARTESIAN_POINT ( 'NONE',  ( -7.654042494670957545E-18, 0.06250000000000001388, 0.000000000000000000 ) ) ;
#363 = FACE_OUTER_BOUND ( 'NONE', #110, .T. ) ;
#364 = CARTESIAN_POINT ( 'NONE',  ( 5.045720391776147351E-16, 0.7499999999999998890, 0.000000000000000000 ) ) ;
#365 = FILL_AREA_STYLE_COLOUR ( '', #157 ) ;
#366 = VERTEX_POINT ( 'NONE', #219 ) ;
#367 = EDGE_CURVE ( 'NONE', #360, #108, #95, .T. ) ;
#368 = SURFACE_STYLE_USAGE ( .BOTH. , #305 ) ;
#369 = AXIS2_PLACEMENT_3D ( 'NONE', #362, #328, #134 ) ;
#370 = ORIENTED_EDGE ( 'NONE', *, *, #321, .T. ) ;
#371 = UNCERTAINTY_MEASURE_WITH_UNIT (LENGTH_MEASURE( 1.000000000000000082E-05 ), #155, 'distance_accuracy_value', 'NONE');
#372 = SPHERICAL_SURFACE ( 'NONE', #119, 0.06249999999999997918 ) ;
#373 = EDGE_LOOP ( 'NONE', ( #216, #132, #335, #128 ) ) ;
ENDSEC;
END-ISO-10303-21;
