ISO-10303-21;
HEADER;
FILE_DESCRIPTION (( 'STEP AP214' ),
    '1' );
FILE_NAME ('84632.STEP',
    '2023-06-23T14:15:05',
    ( '' ),
    ( '' ),
    'SwSTEP 2.0',
    'SolidWorks 2023',
    '' );
FILE_SCHEMA (( 'AUTOMOTIVE_DESIGN' ));
ENDSEC;

DATA;
#1 =( LENGTH_UNIT ( ) NAMED_UNIT ( * ) SI_UNIT ( $, .METRE. ) );
#2 = ORIENTED_EDGE ( 'NONE', *, *, #63, .T. ) ;
#3 =( CONVERSION_BASED_UNIT ( 'INCH', #164 ) LENGTH_UNIT ( ) NAMED_UNIT ( #286 ) );
#4 = ORIENTED_EDGE ( 'NONE', *, *, #80, .F. ) ;
#5 = FACE_OUTER_BOUND ( 'NONE', #217, .T. ) ;
#6 = SURFACE_STYLE_FILL_AREA ( #196 ) ;
#7 = ORIENTED_EDGE ( 'NONE', *, *, #237, .T. ) ;
#8 = DIRECTION ( 'NONE',  ( -0.000000000000000000, -1.000000000000000000, -0.000000000000000000 ) ) ;
#9 = UNCERTAINTY_MEASURE_WITH_UNIT (LENGTH_MEASURE( 1.000000000000000082E-05 ), #205, 'distance_accuracy_value', 'NONE');
#10 = CIRCLE ( 'NONE', #183, 0.1875000000000000278 ) ;
#11 = CARTESIAN_POINT ( 'NONE',  ( 2.296212748401287726E-17, 2.500000000000000000, 0.1875000000000000278 ) ) ;
#12 =( NAMED_UNIT ( * ) PLANE_ANGLE_UNIT ( ) SI_UNIT ( $, .RADIAN. ) );
#13 = STYLED_ITEM ( 'NONE', ( #198 ), #254 ) ;
#14 = DIRECTION ( 'NONE',  ( -0.000000000000000000, -1.000000000000000000, -0.000000000000000000 ) ) ;
#15 =( LENGTH_UNIT ( ) NAMED_UNIT ( * ) SI_UNIT ( $, .METRE. ) );
#16 = EDGE_CURVE ( 'NONE', #285, #74, #89, .T. ) ;
#17 = DIRECTION ( 'NONE',  ( -1.224646799147353207E-16, 1.000000000000000000, -0.000000000000000000 ) ) ;
#18 =( GEOMETRIC_REPRESENTATION_CONTEXT ( 3 ) GLOBAL_UNCERTAINTY_ASSIGNED_CONTEXT ( ( #265 ) ) GLOBAL_UNIT_ASSIGNED_CONTEXT ( ( #279, #253, #305 ) ) REPRESENTATION_CONTEXT ( 'NONE', 'WORKASPACE' ) );
#19 = AXIS2_PLACEMENT_3D ( 'NONE', #273, #113, #157 ) ;
#20 = CARTESIAN_POINT ( 'NONE',  ( 0.1875000000000000278, 2.500000000000000000, 2.296212748401290807E-17 ) ) ;
#21 = CARTESIAN_POINT ( 'NONE',  ( 0.000000000000000000, 0.000000000000000000, 0.000000000000000000 ) ) ;
#22 = ADVANCED_FACE ( 'NONE', ( #60 ), #103, .T. ) ;
#23 = COLOUR_RGB ( '',1.000000000000000000, 0.000000000000000000, 0.000000000000000000 ) ;
#24 = DIRECTION ( 'NONE',  ( -1.000000000000000000, -1.224646799147353207E-16, 0.000000000000000000 ) ) ;
#25 = ORIENTED_EDGE ( 'NONE', *, *, #138, .T. ) ;
#26 = DIRECTION ( 'NONE',  ( 0.000000000000000000, -1.000000000000000000, -0.000000000000000000 ) ) ;
#27 = DIMENSIONAL_EXPONENTS ( 1.000000000000000000, 0.000000000000000000, 0.000000000000000000, 0.000000000000000000, 0.000000000000000000, 0.000000000000000000, 0.000000000000000000 ) ;
#28 = SURFACE_STYLE_FILL_AREA ( #73 ) ;
#29 = STYLED_ITEM ( 'NONE', ( #139 ), #70 ) ;
#30 = CARTESIAN_POINT ( 'NONE',  ( 0.1875000000000000278, 5.000000000000000000, 0.000000000000000000 ) ) ;
#31 = ORIENTED_EDGE ( 'NONE', *, *, #16, .T. ) ;
#32 = APPLICATION_CONTEXT ( 'automotive_design' ) ;
#33 = FACE_OUTER_BOUND ( 'NONE', #76, .T. ) ;
#34 = UNCERTAINTY_MEASURE_WITH_UNIT (LENGTH_MEASURE( 1.000000000000000082E-05 ), #278, 'distance_accuracy_value', 'NONE');
#35 = DIRECTION ( 'NONE',  ( -0.000000000000000000, -1.000000000000000000, -0.000000000000000000 ) ) ;
#36 = DIRECTION ( 'NONE',  ( -1.000000000000000000, 0.000000000000000000, 0.000000000000000000 ) ) ;
#37 = LENGTH_MEASURE_WITH_UNIT ( LENGTH_MEASURE( 0.02539999999999999897 ), #245 );
#38 = EDGE_CURVE ( 'NONE', #97, #50, #41, .T. ) ;
#39 = ORIENTED_EDGE ( 'NONE', *, *, #189, .F. ) ;
#40 = CIRCLE ( 'NONE', #82, 0.1875000000000000278 ) ;
#41 = LINE ( 'NONE', #175, #149 ) ;
#42 = SHAPE_DEFINITION_REPRESENTATION ( #182, #45 ) ;
#43 = LENGTH_MEASURE_WITH_UNIT ( LENGTH_MEASURE( 0.02539999999999999897 ), #187 );
#44 = MECHANICAL_DESIGN_GEOMETRIC_PRESENTATION_REPRESENTATION (  '', ( #29 ), #208 ) ;
#45 = ADVANCED_BREP_SHAPE_REPRESENTATION ( '84632', ( #70, #68, #19 ), #94 ) ;
#46 = SURFACE_STYLE_FILL_AREA ( #213 ) ;
#47 = CYLINDRICAL_SURFACE ( 'NONE', #194, 0.1875000000000000278 ) ;
#48 = COLOUR_RGB ( '',1.000000000000000000, 0.000000000000000000, 0.000000000000000000 ) ;
#49 = FACE_OUTER_BOUND ( 'NONE', #145, .T. ) ;
#50 = VERTEX_POINT ( 'NONE', #296 ) ;
#51 = DIMENSIONAL_EXPONENTS ( 1.000000000000000000, 0.000000000000000000, 0.000000000000000000, 0.000000000000000000, 0.000000000000000000, 0.000000000000000000, 0.000000000000000000 ) ;
#52 = ORIENTED_EDGE ( 'NONE', *, *, #300, .F. ) ;
#53 =( GEOMETRIC_REPRESENTATION_CONTEXT ( 3 ) GLOBAL_UNCERTAINTY_ASSIGNED_CONTEXT ( ( #9 ) ) GLOBAL_UNIT_ASSIGNED_CONTEXT ( ( #205, #59, #81 ) ) REPRESENTATION_CONTEXT ( 'NONE', 'WORKASPACE' ) );
#54 = PRESENTATION_STYLE_ASSIGNMENT (( #124 ) ) ;
#55 = PRODUCT_DEFINITION ( 'UNKNOWN', '', #235, #180 ) ;
#56 = CARTESIAN_POINT ( 'NONE',  ( 0.000000000000000000, 2.500000000000000000, 0.000000000000000000 ) ) ;
#57 = PLANE ( 'NONE',  #291 ) ;
#58 = AXIS2_PLACEMENT_3D ( 'NONE', #132, #86, #127 ) ;
#59 =( NAMED_UNIT ( * ) PLANE_ANGLE_UNIT ( ) SI_UNIT ( $, .RADIAN. ) );
#60 = FACE_OUTER_BOUND ( 'NONE', #290, .T. ) ;
#61 = CARTESIAN_POINT ( 'NONE',  ( -3.061616997868383141E-16, 5.000000000000000000, 0.000000000000000000 ) ) ;
#62 = DIRECTION ( 'NONE',  ( 1.000000000000000000, 1.224646799147353207E-16, 0.000000000000000000 ) ) ;
#63 = EDGE_CURVE ( 'NONE', #214, #74, #79, .T. ) ;
#64 =( LENGTH_UNIT ( ) NAMED_UNIT ( * ) SI_UNIT ( $, .METRE. ) );
#65 = CARTESIAN_POINT ( 'NONE',  ( 0.000000000000000000, 0.000000000000000000, -0.1875000000000000278 ) ) ;
#66 = FACE_OUTER_BOUND ( 'NONE', #123, .T. ) ;
#67 =( GEOMETRIC_REPRESENTATION_CONTEXT ( 3 ) GLOBAL_UNCERTAINTY_ASSIGNED_CONTEXT ( ( #203 ) ) GLOBAL_UNIT_ASSIGNED_CONTEXT ( ( #3, #195, #147 ) ) REPRESENTATION_CONTEXT ( 'NONE', 'WORKASPACE' ) );
#68 = MANIFOLD_SOLID_BREP ( 'Revolve - Tool Body (Straight Shanked)', #130 ) ;
#69 = CARTESIAN_POINT ( 'NONE',  ( 0.000000000000000000, 2.500000000000000000, 0.000000000000000000 ) ) ;
#70 = MANIFOLD_SOLID_BREP ( 'Revolve - Cutting Edge', #259 ) ;
#71 = SURFACE_SIDE_STYLE ('',( #210 ) ) ;
#72 = CIRCLE ( 'NONE', #77, 0.1875000000000000278 ) ;
#73 = FILL_AREA_STYLE ('',( #190 ) ) ;
#74 = VERTEX_POINT ( 'NONE', #65 ) ;
#75 = CARTESIAN_POINT ( 'NONE',  ( 1.406024796245491849E-33, 2.500000000000000000, 0.000000000000000000 ) ) ;
#76 = EDGE_LOOP ( 'NONE', ( #191, #25 ) ) ;
#77 = AXIS2_PLACEMENT_3D ( 'NONE', #240, #268, #243 ) ;
#78 = DIRECTION ( 'NONE',  ( -1.224646799147353207E-16, 1.000000000000000000, 0.000000000000000000 ) ) ;
#79 = LINE ( 'NONE', #83, #125 ) ;
#80 = EDGE_CURVE ( 'NONE', #241, #214, #10, .T. ) ;
#81 =( NAMED_UNIT ( * ) SI_UNIT ( $, .STERADIAN. ) SOLID_ANGLE_UNIT ( ) );
#82 = AXIS2_PLACEMENT_3D ( 'NONE', #150, #133, #36 ) ;
#83 = CARTESIAN_POINT ( 'NONE',  ( 0.000000000000000000, 0.000000000000000000, -0.1875000000000000278 ) ) ;
#84 = CYLINDRICAL_SURFACE ( 'NONE', #226, 0.1875000000000001943 ) ;
#85 = LENGTH_MEASURE_WITH_UNIT ( LENGTH_MEASURE( 0.02539999999999999897 ), #64 );
#86 = DIRECTION ( 'NONE',  ( -0.000000000000000000, -1.000000000000000000, -0.000000000000000000 ) ) ;
#87 = EDGE_CURVE ( 'NONE', #193, #261, #137, .T. ) ;
#88 = UNCERTAINTY_MEASURE_WITH_UNIT (LENGTH_MEASURE( 1.000000000000000082E-05 ), #112, 'distance_accuracy_value', 'NONE');
#89 = CIRCLE ( 'NONE', #58, 0.1875000000000000278 ) ;
#90 = ORIENTED_EDGE ( 'NONE', *, *, #138, .F. ) ;
#91 = ADVANCED_FACE ( 'NONE', ( #66 ), #47, .T. ) ;
#92 = AXIS2_PLACEMENT_3D ( 'NONE', #169, #234, #143 ) ;
#93 = DIRECTION ( 'NONE',  ( 0.000000000000000000, 0.000000000000000000, -1.000000000000000000 ) ) ;
#94 =( GEOMETRIC_REPRESENTATION_CONTEXT ( 3 ) GLOBAL_UNCERTAINTY_ASSIGNED_CONTEXT ( ( #34 ) ) GLOBAL_UNIT_ASSIGNED_CONTEXT ( ( #278, #304, #280 ) ) REPRESENTATION_CONTEXT ( 'NONE', 'WORKASPACE' ) );
#95 = DIRECTION ( 'NONE',  ( -1.000000000000000000, 0.000000000000000000, 0.000000000000000000 ) ) ;
#96 = UNCERTAINTY_MEASURE_WITH_UNIT (LENGTH_MEASURE( 1.000000000000000082E-05 ), #248, 'distance_accuracy_value', 'NONE');
#97 = VERTEX_POINT ( 'NONE', #20 ) ;
#98 = DIRECTION ( 'NONE',  ( 0.000000000000000000, 0.000000000000000000, -1.000000000000000000 ) ) ;
#99 = ORIENTED_EDGE ( 'NONE', *, *, #63, .F. ) ;
#100 = FACE_OUTER_BOUND ( 'NONE', #146, .T. ) ;
#101 = ORIENTED_EDGE ( 'NONE', *, *, #38, .T. ) ;
#102 = DIRECTION ( 'NONE',  ( -1.224646799147353207E-16, 1.000000000000000000, -0.000000000000000000 ) ) ;
#103 = PLANE ( 'NONE',  #141 ) ;
#104 = ADVANCED_FACE ( 'NONE', ( #115 ), #192, .T. ) ;
#105 = CIRCLE ( 'NONE', #92, 0.1875000000000003331 ) ;
#106 = FACE_OUTER_BOUND ( 'NONE', #117, .T. ) ;
#107 = ADVANCED_FACE ( 'NONE', ( #100 ), #256, .T. ) ;
#108 = CARTESIAN_POINT ( 'NONE',  ( 0.000000000000000000, 2.500000000000000000, -0.1875000000000000278 ) ) ;
#109 =( NAMED_UNIT ( * ) PLANE_ANGLE_UNIT ( ) SI_UNIT ( $, .RADIAN. ) );
#110 = PRESENTATION_LAYER_ASSIGNMENT (  '', '', ( #222 ) ) ;
#111 = SURFACE_STYLE_USAGE ( .BOTH. , #71 ) ;
#112 =( CONVERSION_BASED_UNIT ( 'INCH', #43 ) LENGTH_UNIT ( ) NAMED_UNIT ( #51 ) );
#113 = DIRECTION ( 'NONE',  ( 0.000000000000000000, 0.000000000000000000, 1.000000000000000000 ) ) ;
#114 = VECTOR ( 'NONE', #17, 39.37007874015748143 ) ;
#115 = FACE_OUTER_BOUND ( 'NONE', #118, .T. ) ;
#116 = DIRECTION ( 'NONE',  ( 0.000000000000000000, 0.000000000000000000, -1.000000000000000000 ) ) ;
#117 = EDGE_LOOP ( 'NONE', ( #39, #204, #2, #297 ) ) ;
#118 = EDGE_LOOP ( 'NONE', ( #236, #101, #52, #167 ) ) ;
#119 = PRESENTATION_LAYER_ASSIGNMENT (  '', '', ( #171 ) ) ;
#120 = AXIS2_PLACEMENT_3D ( 'NONE', #75, #78, #24 ) ;
#121 = PRESENTATION_LAYER_ASSIGNMENT (  '', '', ( #13 ) ) ;
#122 = LINE ( 'NONE', #216, #160 ) ;
#123 = EDGE_LOOP ( 'NONE', ( #148, #284, #166, #99 ) ) ;
#124 = SURFACE_STYLE_USAGE ( .BOTH. , #144 ) ;
#125 = VECTOR ( 'NONE', #35, 39.37007874015748143 ) ;
#126 = FILL_AREA_STYLE ('',( #151 ) ) ;
#127 = DIRECTION ( 'NONE',  ( 0.000000000000000000, 0.000000000000000000, -1.000000000000000000 ) ) ;
#128 = FILL_AREA_STYLE_COLOUR ( '', #303 ) ;
#129 = ADVANCED_FACE ( 'NONE', ( #49 ), #283, .F. ) ;
#130 = CLOSED_SHELL ( 'NONE', ( #104, #129, #294, #275 ) ) ;
#131 = CARTESIAN_POINT ( 'NONE',  ( 0.000000000000000000, 0.000000000000000000, 0.000000000000000000 ) ) ;
#132 = CARTESIAN_POINT ( 'NONE',  ( 0.000000000000000000, 0.000000000000000000, 0.000000000000000000 ) ) ;
#133 = DIRECTION ( 'NONE',  ( -1.224646799147353207E-16, 1.000000000000000000, -0.000000000000000000 ) ) ;
#134 = ORIENTED_EDGE ( 'NONE', *, *, #38, .F. ) ;
#135 = PRODUCT_CONTEXT ( 'NONE', #32, 'mechanical' ) ;
#136 = COLOUR_RGB ( '',0.7921568627450980005, 0.8196078431372548767, 0.9333333333333333481 ) ;
#137 = LINE ( 'NONE', #276, #114 ) ;
#138 = EDGE_CURVE ( 'NONE', #50, #261, #105, .T. ) ;
#139 = PRESENTATION_STYLE_ASSIGNMENT (( #111 ) ) ;
#140 = DIRECTION ( 'NONE',  ( -0.000000000000000000, -1.000000000000000000, -0.000000000000000000 ) ) ;
#141 = AXIS2_PLACEMENT_3D ( 'NONE', #206, #197, #288 ) ;
#142 = DIMENSIONAL_EXPONENTS ( 1.000000000000000000, 0.000000000000000000, 0.000000000000000000, 0.000000000000000000, 0.000000000000000000, 0.000000000000000000, 0.000000000000000000 ) ;
#143 = DIRECTION ( 'NONE',  ( -1.000000000000000000, 0.000000000000000000, 0.000000000000000000 ) ) ;
#144 = SURFACE_SIDE_STYLE ('',( #28 ) ) ;
#145 = EDGE_LOOP ( 'NONE', ( #309, #257 ) ) ;
#146 = EDGE_LOOP ( 'NONE', ( #7, #31 ) ) ;
#147 =( NAMED_UNIT ( * ) SI_UNIT ( $, .STERADIAN. ) SOLID_ANGLE_UNIT ( ) );
#148 = ORIENTED_EDGE ( 'NONE', *, *, #186, .T. ) ;
#149 = VECTOR ( 'NONE', #244, 39.37007874015748143 ) ;
#150 = CARTESIAN_POINT ( 'NONE',  ( 0.000000000000000000, 2.500000000000000000, 0.000000000000000000 ) ) ;
#151 = FILL_AREA_STYLE_COLOUR ( '', #23 ) ;
#152 = DIRECTION ( 'NONE',  ( -1.000000000000000000, 0.000000000000000000, 0.000000000000000000 ) ) ;
#153 = FILL_AREA_STYLE_COLOUR ( '', #215 ) ;
#154 = CARTESIAN_POINT ( 'NONE',  ( -3.061616997868383141E-16, 5.000000000000000000, 0.000000000000000000 ) ) ;
#155 = FILL_AREA_STYLE ('',( #153 ) ) ;
#156 = DIRECTION ( 'NONE',  ( 0.000000000000000000, 0.000000000000000000, -1.000000000000000000 ) ) ;
#157 = DIRECTION ( 'NONE',  ( 1.000000000000000000, 0.000000000000000000, 0.000000000000000000 ) ) ;
#158 = FILL_AREA_STYLE ('',( #301 ) ) ;
#159 = CIRCLE ( 'NONE', #209, 0.1875000000000003331 ) ;
#160 = VECTOR ( 'NONE', #232, 39.37007874015748143 ) ;
#161 = APPLICATION_PROTOCOL_DEFINITION ( 'draft international standard', 'automotive_design', 1998, #32 ) ;
#162 = PRESENTATION_STYLE_ASSIGNMENT (( #274 ) ) ;
#163 = MECHANICAL_DESIGN_GEOMETRIC_PRESENTATION_REPRESENTATION (  '', ( #255 ), #200 ) ;
#164 = LENGTH_MEASURE_WITH_UNIT ( LENGTH_MEASURE( 0.02539999999999999897 ), #1 );
#165 = ORIENTED_EDGE ( 'NONE', *, *, #270, .T. ) ;
#166 = ORIENTED_EDGE ( 'NONE', *, *, #237, .F. ) ;
#167 = ORIENTED_EDGE ( 'NONE', *, *, #87, .F. ) ;
#168 = PRESENTATION_LAYER_ASSIGNMENT (  '', '', ( #29 ) ) ;
#169 = CARTESIAN_POINT ( 'NONE',  ( -3.061616997868383141E-16, 5.000000000000000000, 0.000000000000000000 ) ) ;
#170 = SURFACE_STYLE_FILL_AREA ( #155 ) ;
#171 = STYLED_ITEM ( 'NONE', ( #179 ), #22 ) ;
#172 = CARTESIAN_POINT ( 'NONE',  ( 2.296212748401287726E-17, 0.000000000000000000, 0.1875000000000000278 ) ) ;
#173 = SURFACE_SIDE_STYLE ('',( #170 ) ) ;
#174 = CYLINDRICAL_SURFACE ( 'NONE', #230, 0.1875000000000000278 ) ;
#175 = CARTESIAN_POINT ( 'NONE',  ( 0.1874999999999998890, 5.000000000000000000, 2.296212748401289575E-17 ) ) ;
#176 = LENGTH_MEASURE_WITH_UNIT ( LENGTH_MEASURE( 0.02539999999999999897 ), #295 );
#177 = UNCERTAINTY_MEASURE_WITH_UNIT (LENGTH_MEASURE( 1.000000000000000082E-05 ), #207, 'distance_accuracy_value', 'NONE');
#178 =( GEOMETRIC_REPRESENTATION_CONTEXT ( 3 ) GLOBAL_UNCERTAINTY_ASSIGNED_CONTEXT ( ( #177 ) ) GLOBAL_UNIT_ASSIGNED_CONTEXT ( ( #207, #12, #199 ) ) REPRESENTATION_CONTEXT ( 'NONE', 'WORKASPACE' ) );
#179 = PRESENTATION_STYLE_ASSIGNMENT (( #271 ) ) ;
#180 = PRODUCT_DEFINITION_CONTEXT ( 'detailed design', #219, 'design' ) ;
#181 = SURFACE_SIDE_STYLE ('',( #46 ) ) ;
#182 = PRODUCT_DEFINITION_SHAPE ( 'NONE', 'NONE',  #55 ) ;
#183 = AXIS2_PLACEMENT_3D ( 'NONE', #69, #140, #93 ) ;
#184 =( LENGTH_UNIT ( ) NAMED_UNIT ( * ) SI_UNIT ( $, .METRE. ) );
#185 = LENGTH_MEASURE_WITH_UNIT ( LENGTH_MEASURE( 0.02539999999999999897 ), #15 );
#186 = EDGE_CURVE ( 'NONE', #214, #241, #277, .T. ) ;
#187 =( LENGTH_UNIT ( ) NAMED_UNIT ( * ) SI_UNIT ( $, .METRE. ) );
#188 = CARTESIAN_POINT ( 'NONE',  ( 0.000000000000000000, 0.000000000000000000, 0.000000000000000000 ) ) ;
#189 = EDGE_CURVE ( 'NONE', #241, #285, #122, .T. ) ;
#190 = FILL_AREA_STYLE_COLOUR ( '', #272 ) ;
#191 = ORIENTED_EDGE ( 'NONE', *, *, #300, .T. ) ;
#192 = CYLINDRICAL_SURFACE ( 'NONE', #228, 0.1875000000000001943 ) ;
#193 = VERTEX_POINT ( 'NONE', #308 ) ;
#194 = AXIS2_PLACEMENT_3D ( 'NONE', #188, #14, #231 ) ;
#195 =( NAMED_UNIT ( * ) PLANE_ANGLE_UNIT ( ) SI_UNIT ( $, .RADIAN. ) );
#196 = FILL_AREA_STYLE ('',( #128 ) ) ;
#197 = DIRECTION ( 'NONE',  ( 0.000000000000000000, 1.000000000000000000, 0.000000000000000000 ) ) ;
#198 = PRESENTATION_STYLE_ASSIGNMENT (( #293 ) ) ;
#199 =( NAMED_UNIT ( * ) SI_UNIT ( $, .STERADIAN. ) SOLID_ANGLE_UNIT ( ) );
#200 =( GEOMETRIC_REPRESENTATION_CONTEXT ( 3 ) GLOBAL_UNCERTAINTY_ASSIGNED_CONTEXT ( ( #96 ) ) GLOBAL_UNIT_ASSIGNED_CONTEXT ( ( #248, #109, #227 ) ) REPRESENTATION_CONTEXT ( 'NONE', 'WORKASPACE' ) );
#201 = AXIS2_PLACEMENT_3D ( 'NONE', #56, #239, #116 ) ;
#202 = DIRECTION ( 'NONE',  ( -1.224646799147353207E-16, 1.000000000000000000, -0.000000000000000000 ) ) ;
#203 = UNCERTAINTY_MEASURE_WITH_UNIT (LENGTH_MEASURE( 1.000000000000000082E-05 ), #3, 'distance_accuracy_value', 'NONE');
#204 = ORIENTED_EDGE ( 'NONE', *, *, #80, .T. ) ;
#205 =( CONVERSION_BASED_UNIT ( 'INCH', #176 ) LENGTH_UNIT ( ) NAMED_UNIT ( #142 ) );
#206 = CARTESIAN_POINT ( 'NONE',  ( 0.000000000000000000, 2.500000000000000000, 0.000000000000000000 ) ) ;
#207 =( CONVERSION_BASED_UNIT ( 'INCH', #85 ) LENGTH_UNIT ( ) NAMED_UNIT ( #27 ) );
#208 =( GEOMETRIC_REPRESENTATION_CONTEXT ( 3 ) GLOBAL_UNCERTAINTY_ASSIGNED_CONTEXT ( ( #88 ) ) GLOBAL_UNIT_ASSIGNED_CONTEXT ( ( #112, #281, #212 ) ) REPRESENTATION_CONTEXT ( 'NONE', 'WORKASPACE' ) );
#209 = AXIS2_PLACEMENT_3D ( 'NONE', #61, #202, #152 ) ;
#210 = SURFACE_STYLE_FILL_AREA ( #158 ) ;
#211 = AXIS2_PLACEMENT_3D ( 'NONE', #223, #8, #287 ) ;
#212 =( NAMED_UNIT ( * ) SI_UNIT ( $, .STERADIAN. ) SOLID_ANGLE_UNIT ( ) );
#213 = FILL_AREA_STYLE ('',( #252 ) ) ;
#214 = VERTEX_POINT ( 'NONE', #108 ) ;
#215 = COLOUR_RGB ( '',0.7921568627450980005, 0.8196078431372548767, 0.9333333333333333481 ) ;
#216 = CARTESIAN_POINT ( 'NONE',  ( 2.296212748401287726E-17, 0.000000000000000000, 0.1875000000000000278 ) ) ;
#217 = EDGE_LOOP ( 'NONE', ( #134, #165, #282, #90 ) ) ;
#218 = CARTESIAN_POINT ( 'NONE',  ( -0.1875000000000006384, 5.000000000000000000, 0.000000000000000000 ) ) ;
#219 = APPLICATION_CONTEXT ( 'automotive_design' ) ;
#220 = SURFACE_SIDE_STYLE ('',( #6 ) ) ;
#221 = SURFACE_SIDE_STYLE ('',( #224 ) ) ;
#222 = STYLED_ITEM ( 'NONE', ( #54 ), #107 ) ;
#223 = CARTESIAN_POINT ( 'NONE',  ( 0.000000000000000000, 0.000000000000000000, 0.000000000000000000 ) ) ;
#224 = SURFACE_STYLE_FILL_AREA ( #126 ) ;
#225 = MECHANICAL_DESIGN_GEOMETRIC_PRESENTATION_REPRESENTATION (  '', ( #222 ), #67 ) ;
#226 = AXIS2_PLACEMENT_3D ( 'NONE', #154, #102, #266 ) ;
#227 =( NAMED_UNIT ( * ) SI_UNIT ( $, .STERADIAN. ) SOLID_ANGLE_UNIT ( ) );
#228 = AXIS2_PLACEMENT_3D ( 'NONE', #258, #260, #95 ) ;
#229 = LENGTH_MEASURE_WITH_UNIT ( LENGTH_MEASURE( 0.02539999999999999897 ), #184 );
#230 = AXIS2_PLACEMENT_3D ( 'NONE', #131, #264, #156 ) ;
#231 = DIRECTION ( 'NONE',  ( 0.000000000000000000, 0.000000000000000000, -1.000000000000000000 ) ) ;
#232 = DIRECTION ( 'NONE',  ( -0.000000000000000000, -1.000000000000000000, -0.000000000000000000 ) ) ;
#233 = DIMENSIONAL_EXPONENTS ( 1.000000000000000000, 0.000000000000000000, 0.000000000000000000, 0.000000000000000000, 0.000000000000000000, 0.000000000000000000, 0.000000000000000000 ) ;
#234 = DIRECTION ( 'NONE',  ( -1.224646799147353207E-16, 1.000000000000000000, -0.000000000000000000 ) ) ;
#235 = PRODUCT_DEFINITION_FORMATION_WITH_SPECIFIED_SOURCE ( 'ANY', '', #251, .NOT_KNOWN. ) ;
#236 = ORIENTED_EDGE ( 'NONE', *, *, #263, .T. ) ;
#237 = EDGE_CURVE ( 'NONE', #74, #285, #292, .T. ) ;
#238 = DIMENSIONAL_EXPONENTS ( 1.000000000000000000, 0.000000000000000000, 0.000000000000000000, 0.000000000000000000, 0.000000000000000000, 0.000000000000000000, 0.000000000000000000 ) ;
#239 = DIRECTION ( 'NONE',  ( -0.000000000000000000, -1.000000000000000000, -0.000000000000000000 ) ) ;
#240 = CARTESIAN_POINT ( 'NONE',  ( 0.000000000000000000, 2.500000000000000000, 0.000000000000000000 ) ) ;
#241 = VERTEX_POINT ( 'NONE', #11 ) ;
#242 = PRESENTATION_LAYER_ASSIGNMENT (  '', '', ( #250 ) ) ;
#243 = DIRECTION ( 'NONE',  ( -1.000000000000000000, 0.000000000000000000, 0.000000000000000000 ) ) ;
#244 = DIRECTION ( 'NONE',  ( -1.224646799147353207E-16, 1.000000000000000000, -0.000000000000000000 ) ) ;
#245 =( LENGTH_UNIT ( ) NAMED_UNIT ( * ) SI_UNIT ( $, .METRE. ) );
#246 = ORIENTED_EDGE ( 'NONE', *, *, #186, .F. ) ;
#247 = MECHANICAL_DESIGN_GEOMETRIC_PRESENTATION_REPRESENTATION (  '', ( #250 ), #18 ) ;
#248 =( CONVERSION_BASED_UNIT ( 'INCH', #37 ) LENGTH_UNIT ( ) NAMED_UNIT ( #262 ) );
#249 = APPLICATION_PROTOCOL_DEFINITION ( 'draft international standard', 'automotive_design', 1998, #219 ) ;
#250 = STYLED_ITEM ( 'NONE', ( #162 ), #91 ) ;
#251 = PRODUCT ( '84632', '84632', '', ( #135 ) ) ;
#252 = FILL_AREA_STYLE_COLOUR ( '', #48 ) ;
#253 =( NAMED_UNIT ( * ) PLANE_ANGLE_UNIT ( ) SI_UNIT ( $, .RADIAN. ) );
#254 = ADVANCED_FACE ( 'NONE', ( #106 ), #174, .T. ) ;
#255 = STYLED_ITEM ( 'NONE', ( #269 ), #68 ) ;
#256 = PLANE ( 'NONE',  #307 ) ;
#257 = ORIENTED_EDGE ( 'NONE', *, *, #270, .F. ) ;
#258 = CARTESIAN_POINT ( 'NONE',  ( -3.061616997868383141E-16, 5.000000000000000000, 0.000000000000000000 ) ) ;
#259 = CLOSED_SHELL ( 'NONE', ( #91, #22, #254, #107 ) ) ;
#260 = DIRECTION ( 'NONE',  ( -1.224646799147353207E-16, 1.000000000000000000, -0.000000000000000000 ) ) ;
#261 = VERTEX_POINT ( 'NONE', #218 ) ;
#262 = DIMENSIONAL_EXPONENTS ( 1.000000000000000000, 0.000000000000000000, 0.000000000000000000, 0.000000000000000000, 0.000000000000000000, 0.000000000000000000, 0.000000000000000000 ) ;
#263 = EDGE_CURVE ( 'NONE', #193, #97, #40, .T. ) ;
#264 = DIRECTION ( 'NONE',  ( -0.000000000000000000, -1.000000000000000000, -0.000000000000000000 ) ) ;
#265 = UNCERTAINTY_MEASURE_WITH_UNIT (LENGTH_MEASURE( 1.000000000000000082E-05 ), #279, 'distance_accuracy_value', 'NONE');
#266 = DIRECTION ( 'NONE',  ( -1.000000000000000000, 0.000000000000000000, 0.000000000000000000 ) ) ;
#267 = SURFACE_STYLE_USAGE ( .BOTH. , #173 ) ;
#268 = DIRECTION ( 'NONE',  ( -1.224646799147353207E-16, 1.000000000000000000, -0.000000000000000000 ) ) ;
#269 = PRESENTATION_STYLE_ASSIGNMENT (( #267 ) ) ;
#270 = EDGE_CURVE ( 'NONE', #97, #193, #72, .T. ) ;
#271 = SURFACE_STYLE_USAGE ( .BOTH. , #221 ) ;
#272 = COLOUR_RGB ( '',1.000000000000000000, 0.000000000000000000, 0.000000000000000000 ) ;
#273 = CARTESIAN_POINT ( 'NONE',  ( 0.000000000000000000, 0.000000000000000000, 0.000000000000000000 ) ) ;
#274 = SURFACE_STYLE_USAGE ( .BOTH. , #181 ) ;
#275 = ADVANCED_FACE ( 'NONE', ( #33 ), #57, .F. ) ;
#276 = CARTESIAN_POINT ( 'NONE',  ( -0.1875000000000004996, 5.000000000000000000, 0.000000000000000000 ) ) ;
#277 = CIRCLE ( 'NONE', #201, 0.1875000000000000278 ) ;
#278 =( CONVERSION_BASED_UNIT ( 'INCH', #229 ) LENGTH_UNIT ( ) NAMED_UNIT ( #238 ) );
#279 =( CONVERSION_BASED_UNIT ( 'INCH', #185 ) LENGTH_UNIT ( ) NAMED_UNIT ( #233 ) );
#280 =( NAMED_UNIT ( * ) SI_UNIT ( $, .STERADIAN. ) SOLID_ANGLE_UNIT ( ) );
#281 =( NAMED_UNIT ( * ) PLANE_ANGLE_UNIT ( ) SI_UNIT ( $, .RADIAN. ) );
#282 = ORIENTED_EDGE ( 'NONE', *, *, #87, .T. ) ;
#283 = PLANE ( 'NONE',  #120 ) ;
#284 = ORIENTED_EDGE ( 'NONE', *, *, #189, .T. ) ;
#285 = VERTEX_POINT ( 'NONE', #172 ) ;
#286 = DIMENSIONAL_EXPONENTS ( 1.000000000000000000, 0.000000000000000000, 0.000000000000000000, 0.000000000000000000, 0.000000000000000000, 0.000000000000000000, 0.000000000000000000 ) ;
#287 = DIRECTION ( 'NONE',  ( 0.000000000000000000, 0.000000000000000000, -1.000000000000000000 ) ) ;
#288 = DIRECTION ( 'NONE',  ( 0.000000000000000000, -0.000000000000000000, 1.000000000000000000 ) ) ;
#289 = DIRECTION ( 'NONE',  ( 1.224646799147353207E-16, -1.000000000000000000, 0.000000000000000000 ) ) ;
#290 = EDGE_LOOP ( 'NONE', ( #246, #4 ) ) ;
#291 = AXIS2_PLACEMENT_3D ( 'NONE', #30, #289, #62 ) ;
#292 = CIRCLE ( 'NONE', #211, 0.1875000000000000278 ) ;
#293 = SURFACE_STYLE_USAGE ( .BOTH. , #220 ) ;
#294 = ADVANCED_FACE ( 'NONE', ( #5 ), #84, .T. ) ;
#295 =( LENGTH_UNIT ( ) NAMED_UNIT ( * ) SI_UNIT ( $, .METRE. ) );
#296 = CARTESIAN_POINT ( 'NONE',  ( 0.1875000000000000278, 5.000000000000000000, 2.296212748401290807E-17 ) ) ;
#297 = ORIENTED_EDGE ( 'NONE', *, *, #16, .F. ) ;
#298 = PRESENTATION_LAYER_ASSIGNMENT (  '', '', ( #255 ) ) ;
#299 = MECHANICAL_DESIGN_GEOMETRIC_PRESENTATION_REPRESENTATION (  '', ( #13 ), #53 ) ;
#300 = EDGE_CURVE ( 'NONE', #261, #50, #159, .T. ) ;
#301 = FILL_AREA_STYLE_COLOUR ( '', #136 ) ;
#302 = MECHANICAL_DESIGN_GEOMETRIC_PRESENTATION_REPRESENTATION (  '', ( #171 ), #178 ) ;
#303 = COLOUR_RGB ( '',1.000000000000000000, 0.000000000000000000, 0.000000000000000000 ) ;
#304 =( NAMED_UNIT ( * ) PLANE_ANGLE_UNIT ( ) SI_UNIT ( $, .RADIAN. ) );
#305 =( NAMED_UNIT ( * ) SI_UNIT ( $, .STERADIAN. ) SOLID_ANGLE_UNIT ( ) );
#306 = PRODUCT_RELATED_PRODUCT_CATEGORY ( 'part', '', ( #251 ) ) ;
#307 = AXIS2_PLACEMENT_3D ( 'NONE', #21, #26, #98 ) ;
#308 = CARTESIAN_POINT ( 'NONE',  ( -0.1875000000000000278, 2.500000000000000000, 0.000000000000000000 ) ) ;
#309 = ORIENTED_EDGE ( 'NONE', *, *, #263, .F. ) ;
ENDSEC;
END-ISO-10303-21;
