ISO-10303-21;
HEADER;
FILE_DESCRIPTION (( 'STEP AP214' ),
    '1' );
FILE_NAME ('59539.STEP',
    '2023-07-24T15:09:51',
    ( '' ),
    ( '' ),
    'SwSTEP 2.0',
    'SolidWorks 2023',
    '' );
FILE_SCHEMA (( 'AUTOMOTIVE_DESIGN' ));
ENDSEC;

DATA;
#1 = SURFACE_SIDE_STYLE ('',( #334 ) ) ;
#2 = CARTESIAN_POINT ( 'NONE',  ( 4.898587196589412829E-16, 1.000000000000000000, 4.000000000000000000 ) ) ;
#3 = VECTOR ( 'NONE', #147, 1000.000000000000000 ) ;
#4 = AXIS2_PLACEMENT_3D ( 'NONE', #232, #252, #370 ) ;
#5 = CARTESIAN_POINT ( 'NONE',  ( 4.000000000000000000, 16.00000000000000000, 4.898587196589407898E-16 ) ) ;
#6 = SURFACE_STYLE_USAGE ( .BOTH. , #208 ) ;
#7 = UNCERTAINTY_MEASURE_WITH_UNIT (LENGTH_MEASURE( 1.000000000000000082E-05 ), #323, 'distance_accuracy_value', 'NONE');
#8 =( NAMED_UNIT ( * ) SI_UNIT ( $, .STERADIAN. ) SOLID_ANGLE_UNIT ( ) );
#9 = ORIENTED_EDGE ( 'NONE', *, *, #236, .F. ) ;
#10 = APPLICATION_CONTEXT ( 'automotive_design' ) ;
#11 = DIRECTION ( 'NONE',  ( -0.000000000000000000, -1.000000000000000000, -0.000000000000000000 ) ) ;
#12 = ADVANCED_FACE ( 'NONE', ( #293 ), #105, .T. ) ;
#13 =( NAMED_UNIT ( * ) PLANE_ANGLE_UNIT ( ) SI_UNIT ( $, .RADIAN. ) );
#14 = CARTESIAN_POINT ( 'NONE',  ( 3.184081677783117402E-15, 63.00000000000000000, 0.000000000000000000 ) ) ;
#15 = MECHANICAL_DESIGN_GEOMETRIC_PRESENTATION_REPRESENTATION (  '', ( #22 ), #296 ) ;
#16 = VERTEX_POINT ( 'NONE', #181 ) ;
#17 = EDGE_CURVE ( 'NONE', #101, #217, #53, .T. ) ;
#18 = STYLED_ITEM ( 'NONE', ( #155 ), #195 ) ;
#19 = SURFACE_STYLE_FILL_AREA ( #191 ) ;
#20 = EDGE_LOOP ( 'NONE', ( #131, #198, #185, #345 ) ) ;
#21 = VECTOR ( 'NONE', #274, 1000.000000000000000 ) ;
#22 = STYLED_ITEM ( 'NONE', ( #313 ), #271 ) ;
#23 = ORIENTED_EDGE ( 'NONE', *, *, #333, .T. ) ;
#24 = PRODUCT_RELATED_PRODUCT_CATEGORY ( 'part', '', ( #161 ) ) ;
#25 =( LENGTH_UNIT ( ) NAMED_UNIT ( * ) SI_UNIT ( .MILLI., .METRE. ) );
#26 = FACE_OUTER_BOUND ( 'NONE', #297, .T. ) ;
#27 = DIRECTION ( 'NONE',  ( -1.000000000000000000, -5.682149050294907483E-17, 0.000000000000000000 ) ) ;
#28 =( NAMED_UNIT ( * ) SI_UNIT ( $, .STERADIAN. ) SOLID_ANGLE_UNIT ( ) );
#29 =( GEOMETRIC_REPRESENTATION_CONTEXT ( 3 ) GLOBAL_UNCERTAINTY_ASSIGNED_CONTEXT ( ( #154 ) ) GLOBAL_UNIT_ASSIGNED_CONTEXT ( ( #25, #203, #280 ) ) REPRESENTATION_CONTEXT ( 'NONE', 'WORKASPACE' ) );
#30 = AXIS2_PLACEMENT_3D ( 'NONE', #63, #141, #207 ) ;
#31 = FACE_OUTER_BOUND ( 'NONE', #263, .T. ) ;
#32 = FILL_AREA_STYLE_COLOUR ( '', #363 ) ;
#33 = MANIFOLD_SOLID_BREP ( 'Revolve - Cutting Edge', #71 ) ;
#34 =( NAMED_UNIT ( * ) PLANE_ANGLE_UNIT ( ) SI_UNIT ( $, .RADIAN. ) );
#35 = DIRECTION ( 'NONE',  ( -5.682149050294907483E-17, 1.000000000000000000, -0.000000000000000000 ) ) ;
#36 = SHAPE_DEFINITION_REPRESENTATION ( #99, #212 ) ;
#37 = MECHANICAL_DESIGN_GEOMETRIC_PRESENTATION_REPRESENTATION (  '', ( #214 ), #228 ) ;
#38 = UNCERTAINTY_MEASURE_WITH_UNIT (LENGTH_MEASURE( 1.000000000000000082E-05 ), #123, 'distance_accuracy_value', 'NONE');
#39 = PRESENTATION_STYLE_ASSIGNMENT (( #98 ) ) ;
#40 = SURFACE_STYLE_USAGE ( .BOTH. , #235 ) ;
#41 = SURFACE_STYLE_FILL_AREA ( #287 ) ;
#42 = VECTOR ( 'NONE', #35, 1000.000000000000000 ) ;
#43 = UNCERTAINTY_MEASURE_WITH_UNIT (LENGTH_MEASURE( 1.000000000000000082E-05 ), #309, 'distance_accuracy_value', 'NONE');
#44 = DIRECTION ( 'NONE',  ( 0.000000000000000000, 0.000000000000000000, 1.000000000000000000 ) ) ;
#45 = FACE_OUTER_BOUND ( 'NONE', #197, .T. ) ;
#46 = ORIENTED_EDGE ( 'NONE', *, *, #108, .F. ) ;
#47 = DIRECTION ( 'NONE',  ( 0.000000000000000000, 0.000000000000000000, -1.000000000000000000 ) ) ;
#48 = EDGE_LOOP ( 'NONE', ( #50, #156 ) ) ;
#49 = ORIENTED_EDGE ( 'NONE', *, *, #184, .F. ) ;
#50 = ORIENTED_EDGE ( 'NONE', *, *, #92, .T. ) ;
#51 = APPLICATION_CONTEXT ( 'automotive_design' ) ;
#52 = ORIENTED_EDGE ( 'NONE', *, *, #339, .T. ) ;
#53 = CIRCLE ( 'NONE', #348, 3.999999999999994227 ) ;
#54 = COLOUR_RGB ( '',1.000000000000000000, 0.000000000000000000, 0.000000000000000000 ) ;
#55 = ORIENTED_EDGE ( 'NONE', *, *, #17, .F. ) ;
#56 = PRESENTATION_LAYER_ASSIGNMENT (  '', '', ( #214 ) ) ;
#57 = CARTESIAN_POINT ( 'NONE',  ( 4.898587196589412829E-16, 16.00000000000000000, 4.000000000000000000 ) ) ;
#58 = FACE_OUTER_BOUND ( 'NONE', #272, .T. ) ;
#59 = DIRECTION ( 'NONE',  ( -0.000000000000000000, -1.000000000000000000, -0.000000000000000000 ) ) ;
#60 = SURFACE_STYLE_FILL_AREA ( #281 ) ;
#61 = ADVANCED_FACE ( 'NONE', ( #120 ), #62, .T. ) ;
#62 = CYLINDRICAL_SURFACE ( 'NONE', #223, 3.999999999999994671 ) ;
#63 = CARTESIAN_POINT ( 'NONE',  ( 4.000000000000000000, 63.00000000000000000, 0.000000000000000000 ) ) ;
#64 = CARTESIAN_POINT ( 'NONE',  ( -3.999999999999991562, 63.00000000000000000, 0.000000000000000000 ) ) ;
#65 =( NAMED_UNIT ( * ) PLANE_ANGLE_UNIT ( ) SI_UNIT ( $, .RADIAN. ) );
#66 = ORIENTED_EDGE ( 'NONE', *, *, #69, .T. ) ;
#67 = DIRECTION ( 'NONE',  ( 0.000000000000000000, -1.000000000000000000, -0.000000000000000000 ) ) ;
#68 = VERTEX_POINT ( 'NONE', #308 ) ;
#69 = EDGE_CURVE ( 'NONE', #242, #168, #240, .T. ) ;
#70 = DIRECTION ( 'NONE',  ( -1.224646799147352961E-16, 0.000000000000000000, -1.000000000000000000 ) ) ;
#71 = CLOSED_SHELL ( 'NONE', ( #322, #195, #180, #218, #347, #12 ) ) ;
#72 = AXIS2_PLACEMENT_3D ( 'NONE', #350, #100, #216 ) ;
#73 = DIRECTION ( 'NONE',  ( -1.000000000000000000, 0.000000000000000000, 0.000000000000000000 ) ) ;
#74 = CARTESIAN_POINT ( 'NONE',  ( 0.000000000000000000, 0.000000000000000000, 0.000000000000000000 ) ) ;
#75 = FACE_OUTER_BOUND ( 'NONE', #330, .T. ) ;
#76 = FILL_AREA_STYLE_COLOUR ( '', #316 ) ;
#77 = AXIS2_PLACEMENT_3D ( 'NONE', #285, #124, #70 ) ;
#78 =( LENGTH_UNIT ( ) NAMED_UNIT ( * ) SI_UNIT ( .MILLI., .METRE. ) );
#79 = MECHANICAL_DESIGN_GEOMETRIC_PRESENTATION_REPRESENTATION (  '', ( #317 ), #340 ) ;
#80 = ORIENTED_EDGE ( 'NONE', *, *, #82, .F. ) ;
#81 = ORIENTED_EDGE ( 'NONE', *, *, #284, .F. ) ;
#82 = EDGE_CURVE ( 'NONE', #168, #242, #362, .T. ) ;
#83 = ORIENTED_EDGE ( 'NONE', *, *, #175, .T. ) ;
#84 = CARTESIAN_POINT ( 'NONE',  ( 0.000000000000000000, 1.000000000000000000, -3.000000000000000000 ) ) ;
#85 = ADVANCED_FACE ( 'NONE', ( #31 ), #91, .F. ) ;
#86 = SURFACE_STYLE_USAGE ( .BOTH. , #1 ) ;
#87 = SURFACE_SIDE_STYLE ('',( #60 ) ) ;
#88 = PRESENTATION_STYLE_ASSIGNMENT (( #86 ) ) ;
#89 = DIRECTION ( 'NONE',  ( -1.000000000000000000, 0.000000000000000000, 0.000000000000000000 ) ) ;
#90 = AXIS2_PLACEMENT_3D ( 'NONE', #291, #320, #47 ) ;
#91 = PLANE ( 'NONE',  #295 ) ;
#92 = EDGE_CURVE ( 'NONE', #355, #139, #106, .T. ) ;
#93 = APPLICATION_PROTOCOL_DEFINITION ( 'draft international standard', 'automotive_design', 1998, #10 ) ;
#94 =( NAMED_UNIT ( * ) PLANE_ANGLE_UNIT ( ) SI_UNIT ( $, .RADIAN. ) );
#95 =( GEOMETRIC_REPRESENTATION_CONTEXT ( 3 ) GLOBAL_UNCERTAINTY_ASSIGNED_CONTEXT ( ( #38 ) ) GLOBAL_UNIT_ASSIGNED_CONTEXT ( ( #123, #94, #8 ) ) REPRESENTATION_CONTEXT ( 'NONE', 'WORKASPACE' ) );
#96 = PRESENTATION_STYLE_ASSIGNMENT (( #6 ) ) ;
#97 =( NAMED_UNIT ( * ) PLANE_ANGLE_UNIT ( ) SI_UNIT ( $, .RADIAN. ) );
#98 = SURFACE_STYLE_USAGE ( .BOTH. , #346 ) ;
#99 = PRODUCT_DEFINITION_SHAPE ( 'NONE', 'NONE',  #126 ) ;
#100 = DIRECTION ( 'NONE',  ( -0.000000000000000000, -1.000000000000000000, -0.000000000000000000 ) ) ;
#101 = VERTEX_POINT ( 'NONE', #254 ) ;
#102 = UNCERTAINTY_MEASURE_WITH_UNIT (LENGTH_MEASURE( 1.000000000000000082E-05 ), #78, 'distance_accuracy_value', 'NONE');
#103 = DIRECTION ( 'NONE',  ( -5.682149050294907483E-17, 1.000000000000000000, -0.000000000000000000 ) ) ;
#104 =( GEOMETRIC_REPRESENTATION_CONTEXT ( 3 ) GLOBAL_UNCERTAINTY_ASSIGNED_CONTEXT ( ( #268 ) ) GLOBAL_UNIT_ASSIGNED_CONTEXT ( ( #314, #211, #319 ) ) REPRESENTATION_CONTEXT ( 'NONE', 'WORKASPACE' ) );
#105 = PLANE ( 'NONE',  #144 ) ;
#106 = CIRCLE ( 'NONE', #227, 3.999999999999996447 ) ;
#107 = ORIENTED_EDGE ( 'NONE', *, *, #162, .T. ) ;
#108 = EDGE_CURVE ( 'NONE', #101, #355, #336, .T. ) ;
#109 = ORIENTED_EDGE ( 'NONE', *, *, #184, .T. ) ;
#110 = CIRCLE ( 'NONE', #77, 1.000000000000000000 ) ;
#111 = DIRECTION ( 'NONE',  ( 0.000000000000000000, 0.000000000000000000, -1.000000000000000000 ) ) ;
#112 = FILL_AREA_STYLE ('',( #250 ) ) ;
#113 = AXIS2_PLACEMENT_3D ( 'NONE', #121, #255, #200 ) ;
#114 =( NAMED_UNIT ( * ) SI_UNIT ( $, .STERADIAN. ) SOLID_ANGLE_UNIT ( ) );
#115 = PLANE ( 'NONE',  #303 ) ;
#116 = DIRECTION ( 'NONE',  ( -1.000000000000000000, 0.000000000000000000, 0.000000000000000000 ) ) ;
#117 = CARTESIAN_POINT ( 'NONE',  ( 5.854691731421723944E-15, 16.00000000000000000, 0.000000000000000000 ) ) ;
#118 = SURFACE_STYLE_USAGE ( .BOTH. , #307 ) ;
#119 = CLOSED_SHELL ( 'NONE', ( #247, #85, #61, #310 ) ) ;
#120 = FACE_OUTER_BOUND ( 'NONE', #20, .T. ) ;
#121 = CARTESIAN_POINT ( 'NONE',  ( 0.000000000000000000, 16.00000000000000000, 0.000000000000000000 ) ) ;
#122 = CIRCLE ( 'NONE', #186, 4.000000000000000000 ) ;
#123 =( LENGTH_UNIT ( ) NAMED_UNIT ( * ) SI_UNIT ( .MILLI., .METRE. ) );
#124 = DIRECTION ( 'NONE',  ( 1.000000000000000000, 0.000000000000000000, -1.224646799147353207E-16 ) ) ;
#125 = PRODUCT_CONTEXT ( 'NONE', #10, 'mechanical' ) ;
#126 = PRODUCT_DEFINITION ( 'UNKNOWN', '', #151, #264 ) ;
#127 =( GEOMETRIC_REPRESENTATION_CONTEXT ( 3 ) GLOBAL_UNCERTAINTY_ASSIGNED_CONTEXT ( ( #290 ) ) GLOBAL_UNIT_ASSIGNED_CONTEXT ( ( #136, #299, #219 ) ) REPRESENTATION_CONTEXT ( 'NONE', 'WORKASPACE' ) );
#128 = MECHANICAL_DESIGN_GEOMETRIC_PRESENTATION_REPRESENTATION (  '', ( #327 ), #29 ) ;
#129 = AXIS2_PLACEMENT_3D ( 'NONE', #328, #103, #73 ) ;
#130 = FILL_AREA_STYLE_COLOUR ( '', #190 ) ;
#131 = ORIENTED_EDGE ( 'NONE', *, *, #175, .F. ) ;
#132 =( NAMED_UNIT ( * ) SI_UNIT ( $, .STERADIAN. ) SOLID_ANGLE_UNIT ( ) );
#133 = EDGE_CURVE ( 'NONE', #173, #326, #150, .T. ) ;
#134 = AXIS2_PLACEMENT_3D ( 'NONE', #256, #275, #341 ) ;
#135 = CIRCLE ( 'NONE', #344, 4.000000000000000000 ) ;
#136 =( LENGTH_UNIT ( ) NAMED_UNIT ( * ) SI_UNIT ( .MILLI., .METRE. ) );
#137 = UNCERTAINTY_MEASURE_WITH_UNIT (LENGTH_MEASURE( 1.000000000000000082E-05 ), #282, 'distance_accuracy_value', 'NONE');
#138 = ORIENTED_EDGE ( 'NONE', *, *, #236, .T. ) ;
#139 = VERTEX_POINT ( 'NONE', #359 ) ;
#140 = ORIENTED_EDGE ( 'NONE', *, *, #339, .F. ) ;
#141 = DIRECTION ( 'NONE',  ( 5.682149050294907483E-17, -1.000000000000000000, 0.000000000000000000 ) ) ;
#142 = FACE_OUTER_BOUND ( 'NONE', #169, .T. ) ;
#143 = FILL_AREA_STYLE_COLOUR ( '', #234 ) ;
#144 = AXIS2_PLACEMENT_3D ( 'NONE', #269, #221, #329 ) ;
#145 = CARTESIAN_POINT ( 'NONE',  ( 3.184081677783117402E-15, 63.00000000000000000, 0.000000000000000000 ) ) ;
#146 = CIRCLE ( 'NONE', #4, 3.999999999999994227 ) ;
#147 = DIRECTION ( 'NONE',  ( -5.682149050294907483E-17, 1.000000000000000000, -0.000000000000000000 ) ) ;
#148 = CARTESIAN_POINT ( 'NONE',  ( 0.000000000000000000, 0.000000000000000000, 0.000000000000000000 ) ) ;
#149 = CYLINDRICAL_SURFACE ( 'NONE', #253, 4.000000000000000000 ) ;
#150 = LINE ( 'NONE', #301, #21 ) ;
#151 = PRODUCT_DEFINITION_FORMATION_WITH_SPECIFIED_SOURCE ( 'ANY', '', #161, .NOT_KNOWN. ) ;
#152 = TOROIDAL_SURFACE ( 'NONE', #72, 3.000000000000000000, 1.000000000000000000 ) ;
#153 = SURFACE_STYLE_USAGE ( .BOTH. , #239 ) ;
#154 = UNCERTAINTY_MEASURE_WITH_UNIT (LENGTH_MEASURE( 1.000000000000000082E-05 ), #25, 'distance_accuracy_value', 'NONE');
#155 = PRESENTATION_STYLE_ASSIGNMENT (( #40 ) ) ;
#156 = ORIENTED_EDGE ( 'NONE', *, *, #367, .T. ) ;
#157 = AXIS2_PLACEMENT_3D ( 'NONE', #364, #361, #111 ) ;
#158 = FILL_AREA_STYLE_COLOUR ( '', #273 ) ;
#159 = DIRECTION ( 'NONE',  ( 1.000000000000000000, 0.000000000000000000, 0.000000000000000000 ) ) ;
#160 = DIRECTION ( 'NONE',  ( -0.000000000000000000, -1.000000000000000000, -0.000000000000000000 ) ) ;
#161 = PRODUCT ( '59539', '59539', '', ( #125 ) ) ;
#162 = EDGE_CURVE ( 'NONE', #173, #68, #171, .T. ) ;
#163 = ORIENTED_EDGE ( 'NONE', *, *, #82, .T. ) ;
#164 = AXIS2_PLACEMENT_3D ( 'NONE', #148, #59, #233 ) ;
#165 = PRESENTATION_LAYER_ASSIGNMENT (  '', '', ( #22 ) ) ;
#166 = CARTESIAN_POINT ( 'NONE',  ( -3.999999999999993339, 63.00000000000000000, 0.000000000000000000 ) ) ;
#167 = EDGE_LOOP ( 'NONE', ( #49, #138, #357, #294 ) ) ;
#168 = VERTEX_POINT ( 'NONE', #332 ) ;
#169 = EDGE_LOOP ( 'NONE', ( #163, #66 ) ) ;
#170 = PRESENTATION_LAYER_ASSIGNMENT (  '', '', ( #244 ) ) ;
#171 = CIRCLE ( 'NONE', #157, 4.000000000000000000 ) ;
#172 = CIRCLE ( 'NONE', #241, 1.000000000000000000 ) ;
#173 = VERTEX_POINT ( 'NONE', #57 ) ;
#174 = LINE ( 'NONE', #179, #3 ) ;
#175 = EDGE_CURVE ( 'NONE', #217, #139, #174, .T. ) ;
#176 = DIRECTION ( 'NONE',  ( 0.000000000000000000, 0.000000000000000000, -1.000000000000000000 ) ) ;
#177 = CARTESIAN_POINT ( 'NONE',  ( 5.854691731421723944E-15, 16.00000000000000000, 0.000000000000000000 ) ) ;
#178 = PLANE ( 'NONE',  #30 ) ;
#179 = CARTESIAN_POINT ( 'NONE',  ( 3.999999999999998224, 63.00000000000000000, 4.898587196589406912E-16 ) ) ;
#180 = ADVANCED_FACE ( 'NONE', ( #142 ), #115, .T. ) ;
#181 = CARTESIAN_POINT ( 'NONE',  ( 0.000000000000000000, 1.000000000000000000, -4.000000000000000000 ) ) ;
#182 = FILL_AREA_STYLE_COLOUR ( '', #288 ) ;
#183 = CARTESIAN_POINT ( 'NONE',  ( 0.000000000000000000, 0.000000000000000000, 0.000000000000000000 ) ) ;
#184 = EDGE_CURVE ( 'NONE', #326, #242, #110, .T. ) ;
#185 = ORIENTED_EDGE ( 'NONE', *, *, #108, .T. ) ;
#186 = AXIS2_PLACEMENT_3D ( 'NONE', #262, #160, #324 ) ;
#187 = PRESENTATION_STYLE_ASSIGNMENT (( #153 ) ) ;
#188 = SURFACE_STYLE_FILL_AREA ( #276 ) ;
#189 = CYLINDRICAL_SURFACE ( 'NONE', #210, 3.999999999999994671 ) ;
#190 = COLOUR_RGB ( '',1.000000000000000000, 0.000000000000000000, 0.000000000000000000 ) ;
#191 = FILL_AREA_STYLE ('',( #76 ) ) ;
#192 = UNCERTAINTY_MEASURE_WITH_UNIT (LENGTH_MEASURE( 1.000000000000000082E-05 ), #338, 'distance_accuracy_value', 'NONE');
#193 = PRESENTATION_LAYER_ASSIGNMENT (  '', '', ( #327 ) ) ;
#194 = ORIENTED_EDGE ( 'NONE', *, *, #92, .F. ) ;
#195 = ADVANCED_FACE ( 'NONE', ( #45 ), #231, .T. ) ;
#196 = APPLICATION_PROTOCOL_DEFINITION ( 'draft international standard', 'automotive_design', 1998, #51 ) ;
#197 = EDGE_LOOP ( 'NONE', ( #52, #109, #80, #81 ) ) ;
#198 = ORIENTED_EDGE ( 'NONE', *, *, #318, .T. ) ;
#199 = CIRCLE ( 'NONE', #129, 3.999999999999996447 ) ;
#200 = DIRECTION ( 'NONE',  ( 0.000000000000000000, 0.000000000000000000, -1.000000000000000000 ) ) ;
#201 = CARTESIAN_POINT ( 'NONE',  ( 3.184081677783117402E-15, 63.00000000000000000, 0.000000000000000000 ) ) ;
#202 = SURFACE_STYLE_FILL_AREA ( #204 ) ;
#203 =( NAMED_UNIT ( * ) PLANE_ANGLE_UNIT ( ) SI_UNIT ( $, .RADIAN. ) );
#204 = FILL_AREA_STYLE ('',( #182 ) ) ;
#205 = DIRECTION ( 'NONE',  ( -1.000000000000000000, 0.000000000000000000, 0.000000000000000000 ) ) ;
#206 = DIRECTION ( 'NONE',  ( -5.682149050294907483E-17, 1.000000000000000000, 0.000000000000000000 ) ) ;
#207 = DIRECTION ( 'NONE',  ( 1.000000000000000000, 5.682149050294907483E-17, 0.000000000000000000 ) ) ;
#208 = SURFACE_SIDE_STYLE ('',( #230 ) ) ;
#209 = STYLED_ITEM ( 'NONE', ( #96 ), #180 ) ;
#210 = AXIS2_PLACEMENT_3D ( 'NONE', #14, #292, #257 ) ;
#211 =( NAMED_UNIT ( * ) PLANE_ANGLE_UNIT ( ) SI_UNIT ( $, .RADIAN. ) );
#212 = ADVANCED_BREP_SHAPE_REPRESENTATION ( '59539', ( #33, #271, #300 ), #259 ) ;
#213 = DIRECTION ( 'NONE',  ( 0.000000000000000000, 0.000000000000000000, -1.000000000000000000 ) ) ;
#214 = STYLED_ITEM ( 'NONE', ( #249 ), #322 ) ;
#215 = LINE ( 'NONE', #220, #351 ) ;
#216 = DIRECTION ( 'NONE',  ( 0.000000000000000000, 0.000000000000000000, -1.000000000000000000 ) ) ;
#217 = VERTEX_POINT ( 'NONE', #5 ) ;
#218 = ADVANCED_FACE ( 'NONE', ( #321 ), #152, .T. ) ;
#219 =( NAMED_UNIT ( * ) SI_UNIT ( $, .STERADIAN. ) SOLID_ANGLE_UNIT ( ) );
#220 = CARTESIAN_POINT ( 'NONE',  ( 0.000000000000000000, 0.000000000000000000, -4.000000000000000000 ) ) ;
#221 = DIRECTION ( 'NONE',  ( 0.000000000000000000, 1.000000000000000000, 0.000000000000000000 ) ) ;
#222 = MECHANICAL_DESIGN_GEOMETRIC_PRESENTATION_REPRESENTATION (  '', ( #366 ), #95 ) ;
#223 = AXIS2_PLACEMENT_3D ( 'NONE', #201, #304, #205 ) ;
#224 = ORIENTED_EDGE ( 'NONE', *, *, #318, .F. ) ;
#225 = PRESENTATION_STYLE_ASSIGNMENT (( #354 ) ) ;
#226 = DIRECTION ( 'NONE',  ( -0.000000000000000000, -1.000000000000000000, -0.000000000000000000 ) ) ;
#227 = AXIS2_PLACEMENT_3D ( 'NONE', #145, #277, #311 ) ;
#228 =( GEOMETRIC_REPRESENTATION_CONTEXT ( 3 ) GLOBAL_UNCERTAINTY_ASSIGNED_CONTEXT ( ( #192 ) ) GLOBAL_UNIT_ASSIGNED_CONTEXT ( ( #338, #229, #28 ) ) REPRESENTATION_CONTEXT ( 'NONE', 'WORKASPACE' ) );
#229 =( NAMED_UNIT ( * ) PLANE_ANGLE_UNIT ( ) SI_UNIT ( $, .RADIAN. ) );
#230 = SURFACE_STYLE_FILL_AREA ( #112 ) ;
#231 = TOROIDAL_SURFACE ( 'NONE', #352, 3.000000000000000000, 1.000000000000000000 ) ;
#232 = CARTESIAN_POINT ( 'NONE',  ( 5.854691731421723944E-15, 16.00000000000000000, 0.000000000000000000 ) ) ;
#233 = DIRECTION ( 'NONE',  ( 0.000000000000000000, 0.000000000000000000, -1.000000000000000000 ) ) ;
#234 = COLOUR_RGB ( '',1.000000000000000000, 0.000000000000000000, 0.000000000000000000 ) ;
#235 = SURFACE_SIDE_STYLE ('',( #41 ) ) ;
#236 = EDGE_CURVE ( 'NONE', #326, #16, #122, .T. ) ;
#237 =( NAMED_UNIT ( * ) SI_UNIT ( $, .STERADIAN. ) SOLID_ANGLE_UNIT ( ) );
#238 = PRESENTATION_LAYER_ASSIGNMENT (  '', '', ( #317 ) ) ;
#239 = SURFACE_SIDE_STYLE ('',( #289 ) ) ;
#240 = CIRCLE ( 'NONE', #164, 3.000000000000000000 ) ;
#241 = AXIS2_PLACEMENT_3D ( 'NONE', #84, #116, #278 ) ;
#242 = VERTEX_POINT ( 'NONE', #265 ) ;
#243 =( NAMED_UNIT ( * ) SI_UNIT ( $, .STERADIAN. ) SOLID_ANGLE_UNIT ( ) );
#244 = STYLED_ITEM ( 'NONE', ( #225 ), #12 ) ;
#245 = CIRCLE ( 'NONE', #113, 4.000000000000000000 ) ;
#246 = SURFACE_SIDE_STYLE ('',( #19 ) ) ;
#247 = ADVANCED_FACE ( 'NONE', ( #75 ), #189, .T. ) ;
#248 = ORIENTED_EDGE ( 'NONE', *, *, #133, .T. ) ;
#249 = PRESENTATION_STYLE_ASSIGNMENT (( #118 ) ) ;
#250 = FILL_AREA_STYLE_COLOUR ( '', #54 ) ;
#251 = COLOUR_RGB ( '',0.7921568627450980005, 0.8196078431372548767, 0.9333333333333333481 ) ;
#252 = DIRECTION ( 'NONE',  ( -5.682149050294907483E-17, 1.000000000000000000, -0.000000000000000000 ) ) ;
#253 = AXIS2_PLACEMENT_3D ( 'NONE', #305, #226, #258 ) ;
#254 = CARTESIAN_POINT ( 'NONE',  ( -3.999999999999988010, 16.00000000000000000, 0.000000000000000000 ) ) ;
#255 = DIRECTION ( 'NONE',  ( -0.000000000000000000, -1.000000000000000000, -0.000000000000000000 ) ) ;
#256 = CARTESIAN_POINT ( 'NONE',  ( 0.000000000000000000, 0.000000000000000000, 0.000000000000000000 ) ) ;
#257 = DIRECTION ( 'NONE',  ( -1.000000000000000000, 0.000000000000000000, 0.000000000000000000 ) ) ;
#258 = DIRECTION ( 'NONE',  ( 0.000000000000000000, 0.000000000000000000, -1.000000000000000000 ) ) ;
#259 =( GEOMETRIC_REPRESENTATION_CONTEXT ( 3 ) GLOBAL_UNCERTAINTY_ASSIGNED_CONTEXT ( ( #102 ) ) GLOBAL_UNIT_ASSIGNED_CONTEXT ( ( #78, #13, #132 ) ) REPRESENTATION_CONTEXT ( 'NONE', 'WORKASPACE' ) );
#260 = DIRECTION ( 'NONE',  ( 0.000000000000000000, 0.000000000000000000, -1.000000000000000000 ) ) ;
#261 = DIRECTION ( 'NONE',  ( -0.000000000000000000, -1.000000000000000000, -0.000000000000000000 ) ) ;
#262 = CARTESIAN_POINT ( 'NONE',  ( 0.000000000000000000, 1.000000000000000000, 0.000000000000000000 ) ) ;
#263 = EDGE_LOOP ( 'NONE', ( #55, #224 ) ) ;
#264 = PRODUCT_DEFINITION_CONTEXT ( 'detailed design', #51, 'design' ) ;
#265 = CARTESIAN_POINT ( 'NONE',  ( 4.286263797015736595E-16, 0.000000000000000000, 3.000000000000000000 ) ) ;
#266 = MECHANICAL_DESIGN_GEOMETRIC_PRESENTATION_REPRESENTATION (  '', ( #244 ), #127 ) ;
#267 = ORIENTED_EDGE ( 'NONE', *, *, #353, .T. ) ;
#268 = UNCERTAINTY_MEASURE_WITH_UNIT (LENGTH_MEASURE( 1.000000000000000082E-05 ), #314, 'distance_accuracy_value', 'NONE');
#269 = CARTESIAN_POINT ( 'NONE',  ( 0.000000000000000000, 16.00000000000000000, 0.000000000000000000 ) ) ;
#270 = ORIENTED_EDGE ( 'NONE', *, *, #353, .F. ) ;
#271 = MANIFOLD_SOLID_BREP ( 'Revolve - Tool Body (Straight Shanked)', #119 ) ;
#272 = EDGE_LOOP ( 'NONE', ( #23, #248, #140, #270 ) ) ;
#273 = COLOUR_RGB ( '',1.000000000000000000, 0.000000000000000000, 0.000000000000000000 ) ;
#274 = DIRECTION ( 'NONE',  ( -0.000000000000000000, -1.000000000000000000, -0.000000000000000000 ) ) ;
#275 = DIRECTION ( 'NONE',  ( -0.000000000000000000, -1.000000000000000000, -0.000000000000000000 ) ) ;
#276 = FILL_AREA_STYLE ('',( #143 ) ) ;
#277 = DIRECTION ( 'NONE',  ( -5.682149050294907483E-17, 1.000000000000000000, -0.000000000000000000 ) ) ;
#278 = DIRECTION ( 'NONE',  ( 0.000000000000000000, 0.000000000000000000, 1.000000000000000000 ) ) ;
#279 = SURFACE_STYLE_USAGE ( .BOTH. , #87 ) ;
#280 =( NAMED_UNIT ( * ) SI_UNIT ( $, .STERADIAN. ) SOLID_ANGLE_UNIT ( ) );
#281 = FILL_AREA_STYLE ('',( #32 ) ) ;
#282 =( LENGTH_UNIT ( ) NAMED_UNIT ( * ) SI_UNIT ( .MILLI., .METRE. ) );
#283 =( GEOMETRIC_REPRESENTATION_CONTEXT ( 3 ) GLOBAL_UNCERTAINTY_ASSIGNED_CONTEXT ( ( #137 ) ) GLOBAL_UNIT_ASSIGNED_CONTEXT ( ( #282, #97, #237 ) ) REPRESENTATION_CONTEXT ( 'NONE', 'WORKASPACE' ) );
#284 = EDGE_CURVE ( 'NONE', #16, #168, #172, .T. ) ;
#285 = CARTESIAN_POINT ( 'NONE',  ( 3.673940397442059868E-16, 1.000000000000000000, 3.000000000000000000 ) ) ;
#286 = ORIENTED_EDGE ( 'NONE', *, *, #162, .F. ) ;
#287 = FILL_AREA_STYLE ('',( #158 ) ) ;
#288 = COLOUR_RGB ( '',1.000000000000000000, 0.000000000000000000, 0.000000000000000000 ) ;
#289 = SURFACE_STYLE_FILL_AREA ( #342 ) ;
#290 = UNCERTAINTY_MEASURE_WITH_UNIT (LENGTH_MEASURE( 1.000000000000000082E-05 ), #136, 'distance_accuracy_value', 'NONE');
#291 = CARTESIAN_POINT ( 'NONE',  ( 0.000000000000000000, 0.000000000000000000, 0.000000000000000000 ) ) ;
#292 = DIRECTION ( 'NONE',  ( -5.682149050294907483E-17, 1.000000000000000000, -0.000000000000000000 ) ) ;
#293 = FACE_OUTER_BOUND ( 'NONE', #315, .T. ) ;
#294 = ORIENTED_EDGE ( 'NONE', *, *, #69, .F. ) ;
#295 = AXIS2_PLACEMENT_3D ( 'NONE', #177, #206, #27 ) ;
#296 =( GEOMETRIC_REPRESENTATION_CONTEXT ( 3 ) GLOBAL_UNCERTAINTY_ASSIGNED_CONTEXT ( ( #43 ) ) GLOBAL_UNIT_ASSIGNED_CONTEXT ( ( #309, #34, #114 ) ) REPRESENTATION_CONTEXT ( 'NONE', 'WORKASPACE' ) );
#297 = EDGE_LOOP ( 'NONE', ( #331, #107, #267, #9 ) ) ;
#298 = ORIENTED_EDGE ( 'NONE', *, *, #333, .F. ) ;
#299 =( NAMED_UNIT ( * ) PLANE_ANGLE_UNIT ( ) SI_UNIT ( $, .RADIAN. ) );
#300 = AXIS2_PLACEMENT_3D ( 'NONE', #74, #44, #159 ) ;
#301 = CARTESIAN_POINT ( 'NONE',  ( 4.898587196589412829E-16, 0.000000000000000000, 4.000000000000000000 ) ) ;
#302 = DIRECTION ( 'NONE',  ( -0.000000000000000000, -1.000000000000000000, -0.000000000000000000 ) ) ;
#303 = AXIS2_PLACEMENT_3D ( 'NONE', #183, #67, #260 ) ;
#304 = DIRECTION ( 'NONE',  ( -5.682149050294907483E-17, 1.000000000000000000, -0.000000000000000000 ) ) ;
#305 = CARTESIAN_POINT ( 'NONE',  ( 0.000000000000000000, 0.000000000000000000, 0.000000000000000000 ) ) ;
#306 = FILL_AREA_STYLE_COLOUR ( '', #251 ) ;
#307 = SURFACE_SIDE_STYLE ('',( #202 ) ) ;
#308 = CARTESIAN_POINT ( 'NONE',  ( 0.000000000000000000, 16.00000000000000000, -4.000000000000000000 ) ) ;
#309 =( LENGTH_UNIT ( ) NAMED_UNIT ( * ) SI_UNIT ( .MILLI., .METRE. ) );
#310 = ADVANCED_FACE ( 'NONE', ( #360 ), #178, .F. ) ;
#311 = DIRECTION ( 'NONE',  ( -1.000000000000000000, 0.000000000000000000, 0.000000000000000000 ) ) ;
#312 = PRESENTATION_LAYER_ASSIGNMENT (  '', '', ( #18 ) ) ;
#313 = PRESENTATION_STYLE_ASSIGNMENT (( #279 ) ) ;
#314 =( LENGTH_UNIT ( ) NAMED_UNIT ( * ) SI_UNIT ( .MILLI., .METRE. ) );
#315 = EDGE_LOOP ( 'NONE', ( #298, #286 ) ) ;
#316 = COLOUR_RGB ( '',1.000000000000000000, 0.000000000000000000, 0.000000000000000000 ) ;
#317 = STYLED_ITEM ( 'NONE', ( #39 ), #347 ) ;
#318 = EDGE_CURVE ( 'NONE', #217, #101, #146, .T. ) ;
#319 =( NAMED_UNIT ( * ) SI_UNIT ( $, .STERADIAN. ) SOLID_ANGLE_UNIT ( ) );
#320 = DIRECTION ( 'NONE',  ( -0.000000000000000000, -1.000000000000000000, -0.000000000000000000 ) ) ;
#321 = FACE_OUTER_BOUND ( 'NONE', #167, .T. ) ;
#322 = ADVANCED_FACE ( 'NONE', ( #58 ), #149, .T. ) ;
#323 =( LENGTH_UNIT ( ) NAMED_UNIT ( * ) SI_UNIT ( .MILLI., .METRE. ) );
#324 = DIRECTION ( 'NONE',  ( 0.000000000000000000, 0.000000000000000000, -1.000000000000000000 ) ) ;
#325 = ORIENTED_EDGE ( 'NONE', *, *, #17, .T. ) ;
#326 = VERTEX_POINT ( 'NONE', #2 ) ;
#327 = STYLED_ITEM ( 'NONE', ( #88 ), #33 ) ;
#328 = CARTESIAN_POINT ( 'NONE',  ( 3.184081677783117402E-15, 63.00000000000000000, 0.000000000000000000 ) ) ;
#329 = DIRECTION ( 'NONE',  ( 0.000000000000000000, -0.000000000000000000, 1.000000000000000000 ) ) ;
#330 = EDGE_LOOP ( 'NONE', ( #325, #83, #194, #46 ) ) ;
#331 = ORIENTED_EDGE ( 'NONE', *, *, #133, .F. ) ;
#332 = CARTESIAN_POINT ( 'NONE',  ( 0.000000000000000000, 0.000000000000000000, -3.000000000000000000 ) ) ;
#333 = EDGE_CURVE ( 'NONE', #68, #173, #245, .T. ) ;
#334 = SURFACE_STYLE_FILL_AREA ( #369 ) ;
#335 = CYLINDRICAL_SURFACE ( 'NONE', #90, 4.000000000000000000 ) ;
#336 = LINE ( 'NONE', #64, #42 ) ;
#337 = DIRECTION ( 'NONE',  ( -5.682149050294907483E-17, 1.000000000000000000, -0.000000000000000000 ) ) ;
#338 =( LENGTH_UNIT ( ) NAMED_UNIT ( * ) SI_UNIT ( .MILLI., .METRE. ) );
#339 = EDGE_CURVE ( 'NONE', #16, #326, #135, .T. ) ;
#340 =( GEOMETRIC_REPRESENTATION_CONTEXT ( 3 ) GLOBAL_UNCERTAINTY_ASSIGNED_CONTEXT ( ( #7 ) ) GLOBAL_UNIT_ASSIGNED_CONTEXT ( ( #323, #65, #243 ) ) REPRESENTATION_CONTEXT ( 'NONE', 'WORKASPACE' ) );
#341 = DIRECTION ( 'NONE',  ( 0.000000000000000000, 0.000000000000000000, -1.000000000000000000 ) ) ;
#342 = FILL_AREA_STYLE ('',( #130 ) ) ;
#343 = CARTESIAN_POINT ( 'NONE',  ( 0.000000000000000000, 1.000000000000000000, 0.000000000000000000 ) ) ;
#344 = AXIS2_PLACEMENT_3D ( 'NONE', #365, #302, #176 ) ;
#345 = ORIENTED_EDGE ( 'NONE', *, *, #367, .F. ) ;
#346 = SURFACE_SIDE_STYLE ('',( #188 ) ) ;
#347 = ADVANCED_FACE ( 'NONE', ( #26 ), #335, .T. ) ;
#348 = AXIS2_PLACEMENT_3D ( 'NONE', #117, #337, #89 ) ;
#349 = MECHANICAL_DESIGN_GEOMETRIC_PRESENTATION_REPRESENTATION (  '', ( #209 ), #104 ) ;
#350 = CARTESIAN_POINT ( 'NONE',  ( 0.000000000000000000, 1.000000000000000000, 0.000000000000000000 ) ) ;
#351 = VECTOR ( 'NONE', #261, 1000.000000000000000 ) ;
#352 = AXIS2_PLACEMENT_3D ( 'NONE', #343, #11, #213 ) ;
#353 = EDGE_CURVE ( 'NONE', #68, #16, #215, .T. ) ;
#354 = SURFACE_STYLE_USAGE ( .BOTH. , #246 ) ;
#355 = VERTEX_POINT ( 'NONE', #166 ) ;
#356 = PRESENTATION_LAYER_ASSIGNMENT (  '', '', ( #209 ) ) ;
#357 = ORIENTED_EDGE ( 'NONE', *, *, #284, .T. ) ;
#358 = MECHANICAL_DESIGN_GEOMETRIC_PRESENTATION_REPRESENTATION (  '', ( #18 ), #283 ) ;
#359 = CARTESIAN_POINT ( 'NONE',  ( 4.000000000000000000, 63.00000000000000000, 4.898587196589407898E-16 ) ) ;
#360 = FACE_OUTER_BOUND ( 'NONE', #48, .T. ) ;
#361 = DIRECTION ( 'NONE',  ( -0.000000000000000000, -1.000000000000000000, -0.000000000000000000 ) ) ;
#362 = CIRCLE ( 'NONE', #134, 3.000000000000000000 ) ;
#363 = COLOUR_RGB ( '',0.7921568627450980005, 0.8196078431372548767, 0.9333333333333333481 ) ;
#364 = CARTESIAN_POINT ( 'NONE',  ( 0.000000000000000000, 16.00000000000000000, 0.000000000000000000 ) ) ;
#365 = CARTESIAN_POINT ( 'NONE',  ( 0.000000000000000000, 1.000000000000000000, 0.000000000000000000 ) ) ;
#366 = STYLED_ITEM ( 'NONE', ( #187 ), #218 ) ;
#367 = EDGE_CURVE ( 'NONE', #139, #355, #199, .T. ) ;
#368 = PRESENTATION_LAYER_ASSIGNMENT (  '', '', ( #366 ) ) ;
#369 = FILL_AREA_STYLE ('',( #306 ) ) ;
#370 = DIRECTION ( 'NONE',  ( -1.000000000000000000, 0.000000000000000000, 0.000000000000000000 ) ) ;
ENDSEC;
END-ISO-10303-21;
