ISO-10303-21;
HEADER;
FILE_DESCRIPTION (( 'STEP AP214' ),
    '1' );
FILE_NAME ('03107.STEP',
    '2023-06-22T14:56:07',
    ( '' ),
    ( '' ),
    'SwSTEP 2.0',
    'SolidWorks 2023',
    '' );
FILE_SCHEMA (( 'AUTOMOTIVE_DESIGN' ));
ENDSEC;

DATA;
#1 = ADVANCED_FACE ( 'NONE', ( #279 ), #154, .T. ) ;
#2 =( LENGTH_UNIT ( ) NAMED_UNIT ( * ) SI_UNIT ( $, .METRE. ) );
#3 = VECTOR ( 'NONE', #149, 39.37007874015748143 ) ;
#4 = PRESENTATION_STYLE_ASSIGNMENT (( #171 ) ) ;
#5 = DIRECTION ( 'NONE',  ( -1.000000000000000000, 0.000000000000000000, 0.000000000000000000 ) ) ;
#6 = ADVANCED_FACE ( 'NONE', ( #59 ), #300, .T. ) ;
#7 = SURFACE_SIDE_STYLE ('',( #221 ) ) ;
#8 = DIRECTION ( 'NONE',  ( -1.000000000000000000, -3.160378836509298460E-17, 0.000000000000000000 ) ) ;
#9 =( NAMED_UNIT ( * ) PLANE_ANGLE_UNIT ( ) SI_UNIT ( $, .RADIAN. ) );
#10 = PRODUCT_RELATED_PRODUCT_CATEGORY ( 'part', '', ( #288 ) ) ;
#11 =( GEOMETRIC_REPRESENTATION_CONTEXT ( 3 ) GLOBAL_UNCERTAINTY_ASSIGNED_CONTEXT ( ( #166 ) ) GLOBAL_UNIT_ASSIGNED_CONTEXT ( ( #261, #209, #91 ) ) REPRESENTATION_CONTEXT ( 'NONE', 'WORKASPACE' ) );
#12 = AXIS2_PLACEMENT_3D ( 'NONE', #152, #169, #270 ) ;
#13 = LENGTH_MEASURE_WITH_UNIT ( LENGTH_MEASURE( 0.02539999999999999897 ), #85 );
#14 = ORIENTED_EDGE ( 'NONE', *, *, #134, .T. ) ;
#15 = FILL_AREA_STYLE ('',( #39 ) ) ;
#16 = ADVANCED_FACE ( 'NONE', ( #252 ), #48, .T. ) ;
#17 = EDGE_LOOP ( 'NONE', ( #308, #167, #184, #153 ) ) ;
#18 =( GEOMETRIC_REPRESENTATION_CONTEXT ( 3 ) GLOBAL_UNCERTAINTY_ASSIGNED_CONTEXT ( ( #162 ) ) GLOBAL_UNIT_ASSIGNED_CONTEXT ( ( #135, #185, #137 ) ) REPRESENTATION_CONTEXT ( 'NONE', 'WORKASPACE' ) );
#19 = CARTESIAN_POINT ( 'NONE',  ( -6.123233995736766036E-17, 2.500000000000000000, 0.000000000000000000 ) ) ;
#20 = DIRECTION ( 'NONE',  ( -3.160378836509298460E-17, 1.000000000000000000, -0.000000000000000000 ) ) ;
#21 = CARTESIAN_POINT ( 'NONE',  ( 1.148106374200643401E-17, 0.000000000000000000, 0.09374999999999998612 ) ) ;
#22 =( CONVERSION_BASED_UNIT ( 'INCH', #183 ) LENGTH_UNIT ( ) NAMED_UNIT ( #72 ) );
#23 = FILL_AREA_STYLE ('',( #74 ) ) ;
#24 =( NAMED_UNIT ( * ) SI_UNIT ( $, .STERADIAN. ) SOLID_ANGLE_UNIT ( ) );
#25 = LINE ( 'NONE', #21, #150 ) ;
#26 = APPLICATION_CONTEXT ( 'automotive_design' ) ;
#27 =( NAMED_UNIT ( * ) PLANE_ANGLE_UNIT ( ) SI_UNIT ( $, .RADIAN. ) );
#28 = PRESENTATION_LAYER_ASSIGNMENT (  '', '', ( #76 ) ) ;
#29 = ORIENTED_EDGE ( 'NONE', *, *, #194, .T. ) ;
#30 = CARTESIAN_POINT ( 'NONE',  ( 0.000000000000000000, 0.000000000000000000, 0.000000000000000000 ) ) ;
#31 = SURFACE_SIDE_STYLE ('',( #290 ) ) ;
#32 = DIRECTION ( 'NONE',  ( -0.000000000000000000, -1.000000000000000000, -0.000000000000000000 ) ) ;
#33 = AXIS2_PLACEMENT_3D ( 'NONE', #19, #89, #231 ) ;
#34 = DIRECTION ( 'NONE',  ( -0.000000000000000000, -1.000000000000000000, -0.000000000000000000 ) ) ;
#35 = ORIENTED_EDGE ( 'NONE', *, *, #180, .T. ) ;
#36 = CARTESIAN_POINT ( 'NONE',  ( 0.09374999999999998612, 2.500000000000000000, 0.000000000000000000 ) ) ;
#37 = ORIENTED_EDGE ( 'NONE', *, *, #285, .F. ) ;
#38 = STYLED_ITEM ( 'NONE', ( #4 ), #258 ) ;
#39 = FILL_AREA_STYLE_COLOUR ( '', #224 ) ;
#40 = APPLICATION_CONTEXT ( 'automotive_design' ) ;
#41 = EDGE_LOOP ( 'NONE', ( #245, #29, #226, #151 ) ) ;
#42 =( LENGTH_UNIT ( ) NAMED_UNIT ( * ) SI_UNIT ( $, .METRE. ) );
#43 = CARTESIAN_POINT ( 'NONE',  ( 0.000000000000000000, 0.000000000000000000, 0.000000000000000000 ) ) ;
#44 = DIMENSIONAL_EXPONENTS ( 1.000000000000000000, 0.000000000000000000, 0.000000000000000000, 0.000000000000000000, 0.000000000000000000, 0.000000000000000000, 0.000000000000000000 ) ;
#45 = CARTESIAN_POINT ( 'NONE',  ( 0.000000000000000000, 0.000000000000000000, -0.09375000000000001388 ) ) ;
#46 = DIRECTION ( 'NONE',  ( -1.000000000000000000, 0.000000000000000000, 0.000000000000000000 ) ) ;
#47 = ADVANCED_BREP_SHAPE_REPRESENTATION ( '03107', ( #57, #55, #96 ), #18 ) ;
#48 = CYLINDRICAL_SURFACE ( 'NONE', #86, 0.09375000000000002776 ) ;
#49 = DIRECTION ( 'NONE',  ( -0.000000000000000000, -1.000000000000000000, -0.000000000000000000 ) ) ;
#50 = DIRECTION ( 'NONE',  ( 0.000000000000000000, 0.000000000000000000, 1.000000000000000000 ) ) ;
#51 = STYLED_ITEM ( 'NONE', ( #115 ), #291 ) ;
#52 = LINE ( 'NONE', #140, #230 ) ;
#53 = CARTESIAN_POINT ( 'NONE',  ( 4.681872370432437241E-35, 0.5625000000000000000, 0.000000000000000000 ) ) ;
#54 = FACE_OUTER_BOUND ( 'NONE', #125, .T. ) ;
#55 = MANIFOLD_SOLID_BREP ( 'Revolve - Tool Body (Straight Shanked)', #147 ) ;
#56 = ORIENTED_EDGE ( 'NONE', *, *, #307, .T. ) ;
#57 = MANIFOLD_SOLID_BREP ( 'Revolve - Cutting Edge', #102 ) ;
#58 = AXIS2_PLACEMENT_3D ( 'NONE', #53, #220, #8 ) ;
#59 = FACE_OUTER_BOUND ( 'NONE', #17, .T. ) ;
#60 = UNCERTAINTY_MEASURE_WITH_UNIT (LENGTH_MEASURE( 1.000000000000000082E-05 ), #192, 'distance_accuracy_value', 'NONE');
#61 = CIRCLE ( 'NONE', #33, 0.09375000000000005551 ) ;
#62 = VERTEX_POINT ( 'NONE', #97 ) ;
#63 = PLANE ( 'NONE',  #260 ) ;
#64 = DIRECTION ( 'NONE',  ( -1.000000000000000000, 0.000000000000000000, 0.000000000000000000 ) ) ;
#65 =( NAMED_UNIT ( * ) SI_UNIT ( $, .STERADIAN. ) SOLID_ANGLE_UNIT ( ) );
#66 = SURFACE_SIDE_STYLE ('',( #111 ) ) ;
#67 = PRODUCT_DEFINITION_SHAPE ( 'NONE', 'NONE',  #197 ) ;
#68 =( NAMED_UNIT ( * ) SI_UNIT ( $, .STERADIAN. ) SOLID_ANGLE_UNIT ( ) );
#69 = EDGE_CURVE ( 'NONE', #239, #244, #25, .T. ) ;
#70 = LENGTH_MEASURE_WITH_UNIT ( LENGTH_MEASURE( 0.02539999999999999897 ), #234 );
#71 = CIRCLE ( 'NONE', #143, 0.09375000000000001388 ) ;
#72 = DIMENSIONAL_EXPONENTS ( 1.000000000000000000, 0.000000000000000000, 0.000000000000000000, 0.000000000000000000, 0.000000000000000000, 0.000000000000000000, 0.000000000000000000 ) ;
#73 = SURFACE_SIDE_STYLE ('',( #284 ) ) ;
#74 = FILL_AREA_STYLE_COLOUR ( '', #259 ) ;
#75 = SURFACE_STYLE_USAGE ( .BOTH. , #233 ) ;
#76 = STYLED_ITEM ( 'NONE', ( #213 ), #57 ) ;
#77 = COLOUR_RGB ( '',1.000000000000000000, 0.000000000000000000, 0.000000000000000000 ) ;
#78 = DIRECTION ( 'NONE',  ( 0.000000000000000000, 0.000000000000000000, -1.000000000000000000 ) ) ;
#79 = DIRECTION ( 'NONE',  ( -0.000000000000000000, -1.000000000000000000, -0.000000000000000000 ) ) ;
#80 = AXIS2_PLACEMENT_3D ( 'NONE', #173, #32, #123 ) ;
#81 = FILL_AREA_STYLE ('',( #265 ) ) ;
#82 = CARTESIAN_POINT ( 'NONE',  ( -0.09375000000000009714, 2.500000000000000000, 0.000000000000000000 ) ) ;
#83 = PRESENTATION_LAYER_ASSIGNMENT (  '', '', ( #211 ) ) ;
#84 = VERTEX_POINT ( 'NONE', #262 ) ;
#85 =( LENGTH_UNIT ( ) NAMED_UNIT ( * ) SI_UNIT ( $, .METRE. ) );
#86 = AXIS2_PLACEMENT_3D ( 'NONE', #139, #20, #301 ) ;
#87 = COLOUR_RGB ( '',1.000000000000000000, 0.000000000000000000, 0.000000000000000000 ) ;
#88 = ORIENTED_EDGE ( 'NONE', *, *, #299, .F. ) ;
#89 = DIRECTION ( 'NONE',  ( -3.160378836509298460E-17, 1.000000000000000000, -0.000000000000000000 ) ) ;
#90 = DIMENSIONAL_EXPONENTS ( 1.000000000000000000, 0.000000000000000000, 0.000000000000000000, 0.000000000000000000, 0.000000000000000000, 0.000000000000000000, 0.000000000000000000 ) ;
#91 =( NAMED_UNIT ( * ) SI_UNIT ( $, .STERADIAN. ) SOLID_ANGLE_UNIT ( ) );
#92 = AXIS2_PLACEMENT_3D ( 'NONE', #158, #156, #250 ) ;
#93 = CIRCLE ( 'NONE', #12, 0.09374999999999998612 ) ;
#94 = FILL_AREA_STYLE_COLOUR ( '', #266 ) ;
#95 = CIRCLE ( 'NONE', #268, 0.09374999999999998612 ) ;
#96 = AXIS2_PLACEMENT_3D ( 'NONE', #257, #50, #141 ) ;
#97 = CARTESIAN_POINT ( 'NONE',  ( 0.09374999999999998612, 0.5625000000000001110, 1.148106374200644171E-17 ) ) ;
#98 = CARTESIAN_POINT ( 'NONE',  ( 0.000000000000000000, 0.5625000000000001110, 0.000000000000000000 ) ) ;
#99 = ORIENTED_EDGE ( 'NONE', *, *, #170, .F. ) ;
#100 = DIRECTION ( 'NONE',  ( 3.160378836509298460E-17, -1.000000000000000000, 0.000000000000000000 ) ) ;
#101 = LENGTH_MEASURE_WITH_UNIT ( LENGTH_MEASURE( 0.02539999999999999897 ), #2 );
#102 = CLOSED_SHELL ( 'NONE', ( #6, #291, #258, #263 ) ) ;
#103 = AXIS2_PLACEMENT_3D ( 'NONE', #236, #304, #145 ) ;
#104 = FACE_OUTER_BOUND ( 'NONE', #276, .T. ) ;
#105 = FACE_OUTER_BOUND ( 'NONE', #132, .T. ) ;
#106 = DIRECTION ( 'NONE',  ( 1.000000000000000000, 3.160378836509298460E-17, 0.000000000000000000 ) ) ;
#107 = PRESENTATION_STYLE_ASSIGNMENT (( #223 ) ) ;
#108 = DIRECTION ( 'NONE',  ( -0.000000000000000000, -1.000000000000000000, -0.000000000000000000 ) ) ;
#109 = CIRCLE ( 'NONE', #278, 0.09374999999999998612 ) ;
#110 =( LENGTH_UNIT ( ) NAMED_UNIT ( * ) SI_UNIT ( $, .METRE. ) );
#111 = SURFACE_STYLE_FILL_AREA ( #175 ) ;
#112 = EDGE_LOOP ( 'NONE', ( #227, #14, #88, #176 ) ) ;
#113 = CIRCLE ( 'NONE', #232, 0.09375000000000005551 ) ;
#114 = VERTEX_POINT ( 'NONE', #45 ) ;
#115 = PRESENTATION_STYLE_ASSIGNMENT (( #75 ) ) ;
#116 = PRESENTATION_STYLE_ASSIGNMENT (( #165 ) ) ;
#117 = STYLED_ITEM ( 'NONE', ( #107 ), #6 ) ;
#118 = COLOUR_RGB ( '',1.000000000000000000, 0.000000000000000000, 0.000000000000000000 ) ;
#119 = PRODUCT_CONTEXT ( 'NONE', #26, 'mechanical' ) ;
#120 = FILL_AREA_STYLE ('',( #94 ) ) ;
#121 = DIRECTION ( 'NONE',  ( -0.000000000000000000, -1.000000000000000000, -0.000000000000000000 ) ) ;
#122 = APPLICATION_PROTOCOL_DEFINITION ( 'draft international standard', 'automotive_design', 1998, #40 ) ;
#123 = DIRECTION ( 'NONE',  ( 0.000000000000000000, 0.000000000000000000, -1.000000000000000000 ) ) ;
#124 = SURFACE_STYLE_FILL_AREA ( #157 ) ;
#125 = EDGE_LOOP ( 'NONE', ( #37, #264 ) ) ;
#126 = PLANE ( 'NONE',  #58 ) ;
#127 = EDGE_LOOP ( 'NONE', ( #208, #296, #35, #99 ) ) ;
#128 = MECHANICAL_DESIGN_GEOMETRIC_PRESENTATION_REPRESENTATION (  '', ( #76 ), #286 ) ;
#129 = PRESENTATION_STYLE_ASSIGNMENT (( #203 ) ) ;
#130 = PRESENTATION_LAYER_ASSIGNMENT (  '', '', ( #38 ) ) ;
#131 = ORIENTED_EDGE ( 'NONE', *, *, #170, .T. ) ;
#132 = EDGE_LOOP ( 'NONE', ( #146, #204 ) ) ;
#133 =( CONVERSION_BASED_UNIT ( 'INCH', #248 ) LENGTH_UNIT ( ) NAMED_UNIT ( #44 ) );
#134 = EDGE_CURVE ( 'NONE', #62, #84, #52, .T. ) ;
#135 =( CONVERSION_BASED_UNIT ( 'INCH', #280 ) LENGTH_UNIT ( ) NAMED_UNIT ( #90 ) );
#136 = AXIS2_PLACEMENT_3D ( 'NONE', #174, #283, #64 ) ;
#137 =( NAMED_UNIT ( * ) SI_UNIT ( $, .STERADIAN. ) SOLID_ANGLE_UNIT ( ) );
#138 = PRODUCT_DEFINITION_CONTEXT ( 'detailed design', #40, 'design' ) ;
#139 = CARTESIAN_POINT ( 'NONE',  ( -6.123233995736766036E-17, 2.500000000000000000, 0.000000000000000000 ) ) ;
#140 = CARTESIAN_POINT ( 'NONE',  ( 0.09374999999999995837, 2.500000000000000000, 1.148106374200644017E-17 ) ) ;
#141 = DIRECTION ( 'NONE',  ( 1.000000000000000000, 0.000000000000000000, 0.000000000000000000 ) ) ;
#142 = SURFACE_STYLE_FILL_AREA ( #23 ) ;
#143 = AXIS2_PLACEMENT_3D ( 'NONE', #195, #287, #78 ) ;
#144 = DIRECTION ( 'NONE',  ( 0.000000000000000000, -0.000000000000000000, 1.000000000000000000 ) ) ;
#145 = DIRECTION ( 'NONE',  ( 0.000000000000000000, 0.000000000000000000, -1.000000000000000000 ) ) ;
#146 = ORIENTED_EDGE ( 'NONE', *, *, #193, .F. ) ;
#147 = CLOSED_SHELL ( 'NONE', ( #1, #228, #16, #216 ) ) ;
#148 = DIRECTION ( 'NONE',  ( -3.160378836509298460E-17, 1.000000000000000000, -0.000000000000000000 ) ) ;
#149 = DIRECTION ( 'NONE',  ( -3.160378836509298460E-17, 1.000000000000000000, -0.000000000000000000 ) ) ;
#150 = VECTOR ( 'NONE', #49, 39.37007874015748143 ) ;
#151 = ORIENTED_EDGE ( 'NONE', *, *, #307, .F. ) ;
#152 = CARTESIAN_POINT ( 'NONE',  ( 0.000000000000000000, 0.5625000000000001110, 0.000000000000000000 ) ) ;
#153 = ORIENTED_EDGE ( 'NONE', *, *, #180, .F. ) ;
#154 = CYLINDRICAL_SURFACE ( 'NONE', #136, 0.09375000000000002776 ) ;
#155 =( GEOMETRIC_REPRESENTATION_CONTEXT ( 3 ) GLOBAL_UNCERTAINTY_ASSIGNED_CONTEXT ( ( #251 ) ) GLOBAL_UNIT_ASSIGNED_CONTEXT ( ( #181, #9, #187 ) ) REPRESENTATION_CONTEXT ( 'NONE', 'WORKASPACE' ) );
#156 = DIRECTION ( 'NONE',  ( -0.000000000000000000, -1.000000000000000000, -0.000000000000000000 ) ) ;
#157 = FILL_AREA_STYLE ('',( #178 ) ) ;
#158 = CARTESIAN_POINT ( 'NONE',  ( 0.000000000000000000, 0.000000000000000000, 0.000000000000000000 ) ) ;
#159 = EDGE_CURVE ( 'NONE', #239, #182, #95, .T. ) ;
#160 = CARTESIAN_POINT ( 'NONE',  ( -6.123233995736766036E-17, 2.500000000000000000, 0.000000000000000000 ) ) ;
#161 = APPLICATION_PROTOCOL_DEFINITION ( 'draft international standard', 'automotive_design', 1998, #26 ) ;
#162 = UNCERTAINTY_MEASURE_WITH_UNIT (LENGTH_MEASURE( 1.000000000000000082E-05 ), #135, 'distance_accuracy_value', 'NONE');
#163 = SURFACE_SIDE_STYLE ('',( #142 ) ) ;
#164 =( NAMED_UNIT ( * ) PLANE_ANGLE_UNIT ( ) SI_UNIT ( $, .RADIAN. ) );
#165 = SURFACE_STYLE_USAGE ( .BOTH. , #163 ) ;
#166 = UNCERTAINTY_MEASURE_WITH_UNIT (LENGTH_MEASURE( 1.000000000000000082E-05 ), #261, 'distance_accuracy_value', 'NONE');
#167 = ORIENTED_EDGE ( 'NONE', *, *, #69, .T. ) ;
#168 = CARTESIAN_POINT ( 'NONE',  ( -0.09374999999999998612, 0.5625000000000001110, 0.000000000000000000 ) ) ;
#169 = DIRECTION ( 'NONE',  ( -3.160378836509298460E-17, 1.000000000000000000, -0.000000000000000000 ) ) ;
#170 = EDGE_CURVE ( 'NONE', #244, #114, #306, .T. ) ;
#171 = SURFACE_STYLE_USAGE ( .BOTH. , #31 ) ;
#172 = SHAPE_DEFINITION_REPRESENTATION ( #67, #47 ) ;
#173 = CARTESIAN_POINT ( 'NONE',  ( 0.000000000000000000, 0.5625000000000000000, 0.000000000000000000 ) ) ;
#174 = CARTESIAN_POINT ( 'NONE',  ( -6.123233995736766036E-17, 2.500000000000000000, 0.000000000000000000 ) ) ;
#175 = FILL_AREA_STYLE ('',( #273 ) ) ;
#176 = ORIENTED_EDGE ( 'NONE', *, *, #186, .F. ) ;
#177 = MECHANICAL_DESIGN_GEOMETRIC_PRESENTATION_REPRESENTATION (  '', ( #117 ), #217 ) ;
#178 = FILL_AREA_STYLE_COLOUR ( '', #77 ) ;
#179 = AXIS2_PLACEMENT_3D ( 'NONE', #36, #100, #106 ) ;
#180 = EDGE_CURVE ( 'NONE', #182, #114, #309, .T. ) ;
#181 =( CONVERSION_BASED_UNIT ( 'INCH', #13 ) LENGTH_UNIT ( ) NAMED_UNIT ( #303 ) );
#182 = VERTEX_POINT ( 'NONE', #293 ) ;
#183 = LENGTH_MEASURE_WITH_UNIT ( LENGTH_MEASURE( 0.02539999999999999897 ), #256 );
#184 = ORIENTED_EDGE ( 'NONE', *, *, #202, .F. ) ;
#185 =( NAMED_UNIT ( * ) PLANE_ANGLE_UNIT ( ) SI_UNIT ( $, .RADIAN. ) );
#186 = EDGE_CURVE ( 'NONE', #229, #272, #215, .T. ) ;
#187 =( NAMED_UNIT ( * ) SI_UNIT ( $, .STERADIAN. ) SOLID_ANGLE_UNIT ( ) );
#188 =( LENGTH_UNIT ( ) NAMED_UNIT ( * ) SI_UNIT ( $, .METRE. ) );
#189 = CARTESIAN_POINT ( 'NONE',  ( 0.000000000000000000, 0.5625000000000000000, 0.000000000000000000 ) ) ;
#190 = CIRCLE ( 'NONE', #80, 0.09374999999999998612 ) ;
#191 = CARTESIAN_POINT ( 'NONE',  ( 1.148106374200643555E-17, 0.000000000000000000, 0.09375000000000001388 ) ) ;
#192 =( CONVERSION_BASED_UNIT ( 'INCH', #101 ) LENGTH_UNIT ( ) NAMED_UNIT ( #297 ) );
#193 = EDGE_CURVE ( 'NONE', #182, #239, #190, .T. ) ;
#194 = EDGE_CURVE ( 'NONE', #62, #229, #93, .T. ) ;
#195 = CARTESIAN_POINT ( 'NONE',  ( 0.000000000000000000, 0.000000000000000000, 0.000000000000000000 ) ) ;
#196 = FACE_OUTER_BOUND ( 'NONE', #295, .T. ) ;
#197 = PRODUCT_DEFINITION ( 'UNKNOWN', '', #302, #138 ) ;
#198 = ORIENTED_EDGE ( 'NONE', *, *, #202, .T. ) ;
#199 = STYLED_ITEM ( 'NONE', ( #116 ), #55 ) ;
#200 = VECTOR ( 'NONE', #34, 39.37007874015748143 ) ;
#201 = ORIENTED_EDGE ( 'NONE', *, *, #299, .T. ) ;
#202 = EDGE_CURVE ( 'NONE', #114, #244, #71, .T. ) ;
#203 = SURFACE_STYLE_USAGE ( .BOTH. , #66 ) ;
#204 = ORIENTED_EDGE ( 'NONE', *, *, #159, .F. ) ;
#205 = AXIS2_PLACEMENT_3D ( 'NONE', #30, #121, #222 ) ;
#206 = UNCERTAINTY_MEASURE_WITH_UNIT (LENGTH_MEASURE( 1.000000000000000082E-05 ), #255, 'distance_accuracy_value', 'NONE');
#207 =( NAMED_UNIT ( * ) SI_UNIT ( $, .STERADIAN. ) SOLID_ANGLE_UNIT ( ) );
#208 = ORIENTED_EDGE ( 'NONE', *, *, #69, .F. ) ;
#209 =( NAMED_UNIT ( * ) PLANE_ANGLE_UNIT ( ) SI_UNIT ( $, .RADIAN. ) );
#210 = DIRECTION ( 'NONE',  ( -3.160378836509298460E-17, 1.000000000000000000, -0.000000000000000000 ) ) ;
#211 = STYLED_ITEM ( 'NONE', ( #129 ), #263 ) ;
#212 = CARTESIAN_POINT ( 'NONE',  ( 0.000000000000000000, 0.5625000000000000000, 0.000000000000000000 ) ) ;
#213 = PRESENTATION_STYLE_ASSIGNMENT (( #305 ) ) ;
#214 = AXIS2_PLACEMENT_3D ( 'NONE', #43, #108, #225 ) ;
#215 = LINE ( 'NONE', #82, #3 ) ;
#216 = ADVANCED_FACE ( 'NONE', ( #104 ), #267, .F. ) ;
#217 =( GEOMETRIC_REPRESENTATION_CONTEXT ( 3 ) GLOBAL_UNCERTAINTY_ASSIGNED_CONTEXT ( ( #275 ) ) GLOBAL_UNIT_ASSIGNED_CONTEXT ( ( #133, #274, #68 ) ) REPRESENTATION_CONTEXT ( 'NONE', 'WORKASPACE' ) );
#218 =( GEOMETRIC_REPRESENTATION_CONTEXT ( 3 ) GLOBAL_UNCERTAINTY_ASSIGNED_CONTEXT ( ( #240 ) ) GLOBAL_UNIT_ASSIGNED_CONTEXT ( ( #22, #164, #65 ) ) REPRESENTATION_CONTEXT ( 'NONE', 'WORKASPACE' ) );
#219 = CARTESIAN_POINT ( 'NONE',  ( 1.148106374200643401E-17, 0.5625000000000000000, 0.09374999999999998612 ) ) ;
#220 = DIRECTION ( 'NONE',  ( -3.160378836509298460E-17, 1.000000000000000000, 0.000000000000000000 ) ) ;
#221 = SURFACE_STYLE_FILL_AREA ( #15 ) ;
#222 = DIRECTION ( 'NONE',  ( 0.000000000000000000, 0.000000000000000000, -1.000000000000000000 ) ) ;
#223 = SURFACE_STYLE_USAGE ( .BOTH. , #7 ) ;
#224 = COLOUR_RGB ( '',1.000000000000000000, 0.000000000000000000, 0.000000000000000000 ) ;
#225 = DIRECTION ( 'NONE',  ( 0.000000000000000000, 0.000000000000000000, -1.000000000000000000 ) ) ;
#226 = ORIENTED_EDGE ( 'NONE', *, *, #186, .T. ) ;
#227 = ORIENTED_EDGE ( 'NONE', *, *, #285, .T. ) ;
#228 = ADVANCED_FACE ( 'NONE', ( #54 ), #126, .F. ) ;
#229 = VERTEX_POINT ( 'NONE', #168 ) ;
#230 = VECTOR ( 'NONE', #235, 39.37007874015748143 ) ;
#231 = DIRECTION ( 'NONE',  ( -1.000000000000000000, 0.000000000000000000, 0.000000000000000000 ) ) ;
#232 = AXIS2_PLACEMENT_3D ( 'NONE', #160, #210, #46 ) ;
#233 = SURFACE_SIDE_STYLE ('',( #124 ) ) ;
#234 =( LENGTH_UNIT ( ) NAMED_UNIT ( * ) SI_UNIT ( $, .METRE. ) );
#235 = DIRECTION ( 'NONE',  ( -3.160378836509298460E-17, 1.000000000000000000, -0.000000000000000000 ) ) ;
#236 = CARTESIAN_POINT ( 'NONE',  ( 0.000000000000000000, 0.000000000000000000, 0.000000000000000000 ) ) ;
#237 = LENGTH_MEASURE_WITH_UNIT ( LENGTH_MEASURE( 0.02539999999999999897 ), #188 );
#238 = CARTESIAN_POINT ( 'NONE',  ( -0.09375000000000012490, 2.500000000000000000, 0.000000000000000000 ) ) ;
#239 = VERTEX_POINT ( 'NONE', #219 ) ;
#240 = UNCERTAINTY_MEASURE_WITH_UNIT (LENGTH_MEASURE( 1.000000000000000082E-05 ), #22, 'distance_accuracy_value', 'NONE');
#241 = MECHANICAL_DESIGN_GEOMETRIC_PRESENTATION_REPRESENTATION (  '', ( #211 ), #155 ) ;
#242 = CARTESIAN_POINT ( 'NONE',  ( 0.000000000000000000, 0.000000000000000000, -0.09374999999999998612 ) ) ;
#243 = FACE_OUTER_BOUND ( 'NONE', #127, .T. ) ;
#244 = VERTEX_POINT ( 'NONE', #191 ) ;
#245 = ORIENTED_EDGE ( 'NONE', *, *, #134, .F. ) ;
#246 = MECHANICAL_DESIGN_GEOMETRIC_PRESENTATION_REPRESENTATION (  '', ( #51 ), #218 ) ;
#247 = CYLINDRICAL_SURFACE ( 'NONE', #214, 0.09374999999999998612 ) ;
#248 = LENGTH_MEASURE_WITH_UNIT ( LENGTH_MEASURE( 0.02539999999999999897 ), #110 );
#249 =( GEOMETRIC_REPRESENTATION_CONTEXT ( 3 ) GLOBAL_UNCERTAINTY_ASSIGNED_CONTEXT ( ( #60 ) ) GLOBAL_UNIT_ASSIGNED_CONTEXT ( ( #192, #271, #207 ) ) REPRESENTATION_CONTEXT ( 'NONE', 'WORKASPACE' ) );
#250 = DIRECTION ( 'NONE',  ( 0.000000000000000000, 0.000000000000000000, -1.000000000000000000 ) ) ;
#251 = UNCERTAINTY_MEASURE_WITH_UNIT (LENGTH_MEASURE( 1.000000000000000082E-05 ), #181, 'distance_accuracy_value', 'NONE');
#252 = FACE_OUTER_BOUND ( 'NONE', #41, .T. ) ;
#253 = DIRECTION ( 'NONE',  ( 0.000000000000000000, 1.000000000000000000, 0.000000000000000000 ) ) ;
#254 = DIMENSIONAL_EXPONENTS ( 1.000000000000000000, 0.000000000000000000, 0.000000000000000000, 0.000000000000000000, 0.000000000000000000, 0.000000000000000000, 0.000000000000000000 ) ;
#255 =( CONVERSION_BASED_UNIT ( 'INCH', #237 ) LENGTH_UNIT ( ) NAMED_UNIT ( #282 ) );
#256 =( LENGTH_UNIT ( ) NAMED_UNIT ( * ) SI_UNIT ( $, .METRE. ) );
#257 = CARTESIAN_POINT ( 'NONE',  ( 0.000000000000000000, 0.000000000000000000, 0.000000000000000000 ) ) ;
#258 = ADVANCED_FACE ( 'NONE', ( #243 ), #247, .T. ) ;
#259 = COLOUR_RGB ( '',0.7921568627450980005, 0.8196078431372548767, 0.9333333333333333481 ) ;
#260 = AXIS2_PLACEMENT_3D ( 'NONE', #212, #253, #144 ) ;
#261 =( CONVERSION_BASED_UNIT ( 'INCH', #70 ) LENGTH_UNIT ( ) NAMED_UNIT ( #254 ) );
#262 = CARTESIAN_POINT ( 'NONE',  ( 0.09374999999999998612, 2.500000000000000000, 1.148106374200644171E-17 ) ) ;
#263 = ADVANCED_FACE ( 'NONE', ( #196 ), #281, .T. ) ;
#264 = ORIENTED_EDGE ( 'NONE', *, *, #194, .F. ) ;
#265 = FILL_AREA_STYLE_COLOUR ( '', #118 ) ;
#266 = COLOUR_RGB ( '',0.7921568627450980005, 0.8196078431372548767, 0.9333333333333333481 ) ;
#267 = PLANE ( 'NONE',  #179 ) ;
#268 = AXIS2_PLACEMENT_3D ( 'NONE', #189, #79, #292 ) ;
#269 = MECHANICAL_DESIGN_GEOMETRIC_PRESENTATION_REPRESENTATION (  '', ( #38 ), #249 ) ;
#270 = DIRECTION ( 'NONE',  ( -1.000000000000000000, 0.000000000000000000, 0.000000000000000000 ) ) ;
#271 =( NAMED_UNIT ( * ) PLANE_ANGLE_UNIT ( ) SI_UNIT ( $, .RADIAN. ) );
#272 = VERTEX_POINT ( 'NONE', #238 ) ;
#273 = FILL_AREA_STYLE_COLOUR ( '', #87 ) ;
#274 =( NAMED_UNIT ( * ) PLANE_ANGLE_UNIT ( ) SI_UNIT ( $, .RADIAN. ) );
#275 = UNCERTAINTY_MEASURE_WITH_UNIT (LENGTH_MEASURE( 1.000000000000000082E-05 ), #133, 'distance_accuracy_value', 'NONE');
#276 = EDGE_LOOP ( 'NONE', ( #201, #56 ) ) ;
#277 = PRESENTATION_LAYER_ASSIGNMENT (  '', '', ( #117 ) ) ;
#278 = AXIS2_PLACEMENT_3D ( 'NONE', #98, #148, #5 ) ;
#279 = FACE_OUTER_BOUND ( 'NONE', #112, .T. ) ;
#280 = LENGTH_MEASURE_WITH_UNIT ( LENGTH_MEASURE( 0.02539999999999999897 ), #42 );
#281 = PLANE ( 'NONE',  #103 ) ;
#282 = DIMENSIONAL_EXPONENTS ( 1.000000000000000000, 0.000000000000000000, 0.000000000000000000, 0.000000000000000000, 0.000000000000000000, 0.000000000000000000, 0.000000000000000000 ) ;
#283 = DIRECTION ( 'NONE',  ( -3.160378836509298460E-17, 1.000000000000000000, -0.000000000000000000 ) ) ;
#284 = SURFACE_STYLE_FILL_AREA ( #120 ) ;
#285 = EDGE_CURVE ( 'NONE', #229, #62, #109, .T. ) ;
#286 =( GEOMETRIC_REPRESENTATION_CONTEXT ( 3 ) GLOBAL_UNCERTAINTY_ASSIGNED_CONTEXT ( ( #206 ) ) GLOBAL_UNIT_ASSIGNED_CONTEXT ( ( #255, #27, #24 ) ) REPRESENTATION_CONTEXT ( 'NONE', 'WORKASPACE' ) );
#287 = DIRECTION ( 'NONE',  ( -0.000000000000000000, -1.000000000000000000, -0.000000000000000000 ) ) ;
#288 = PRODUCT ( '03107', '03107', '', ( #119 ) ) ;
#289 = PRESENTATION_LAYER_ASSIGNMENT (  '', '', ( #51 ) ) ;
#290 = SURFACE_STYLE_FILL_AREA ( #81 ) ;
#291 = ADVANCED_FACE ( 'NONE', ( #105 ), #63, .T. ) ;
#292 = DIRECTION ( 'NONE',  ( 0.000000000000000000, 0.000000000000000000, -1.000000000000000000 ) ) ;
#293 = CARTESIAN_POINT ( 'NONE',  ( 0.000000000000000000, 0.5625000000000000000, -0.09374999999999998612 ) ) ;
#294 = PRESENTATION_LAYER_ASSIGNMENT (  '', '', ( #199 ) ) ;
#295 = EDGE_LOOP ( 'NONE', ( #198, #131 ) ) ;
#296 = ORIENTED_EDGE ( 'NONE', *, *, #159, .T. ) ;
#297 = DIMENSIONAL_EXPONENTS ( 1.000000000000000000, 0.000000000000000000, 0.000000000000000000, 0.000000000000000000, 0.000000000000000000, 0.000000000000000000, 0.000000000000000000 ) ;
#298 = MECHANICAL_DESIGN_GEOMETRIC_PRESENTATION_REPRESENTATION (  '', ( #199 ), #11 ) ;
#299 = EDGE_CURVE ( 'NONE', #272, #84, #113, .T. ) ;
#300 = CYLINDRICAL_SURFACE ( 'NONE', #92, 0.09374999999999998612 ) ;
#301 = DIRECTION ( 'NONE',  ( -1.000000000000000000, 0.000000000000000000, 0.000000000000000000 ) ) ;
#302 = PRODUCT_DEFINITION_FORMATION_WITH_SPECIFIED_SOURCE ( 'ANY', '', #288, .NOT_KNOWN. ) ;
#303 = DIMENSIONAL_EXPONENTS ( 1.000000000000000000, 0.000000000000000000, 0.000000000000000000, 0.000000000000000000, 0.000000000000000000, 0.000000000000000000, 0.000000000000000000 ) ;
#304 = DIRECTION ( 'NONE',  ( 0.000000000000000000, -1.000000000000000000, -0.000000000000000000 ) ) ;
#305 = SURFACE_STYLE_USAGE ( .BOTH. , #73 ) ;
#306 = CIRCLE ( 'NONE', #205, 0.09375000000000001388 ) ;
#307 = EDGE_CURVE ( 'NONE', #84, #272, #61, .T. ) ;
#308 = ORIENTED_EDGE ( 'NONE', *, *, #193, .T. ) ;
#309 = LINE ( 'NONE', #242, #200 ) ;
ENDSEC;
END-ISO-10303-21;
