ISO-10303-21;
HEADER;
FILE_DESCRIPTION (( 'STEP AP214' ),
    '1' );
FILE_NAME ('Micro_EMSM-100-3.STEP',
    '2022-03-15T14:39:32',
    ( '' ),
    ( '' ),
    'SwSTEP 2.0',
    'SolidWorks 2022',
    '' );
FILE_SCHEMA (( 'AUTOMOTIVE_DESIGN' ));
ENDSEC;

DATA;
#1 = DIRECTION ( 'NONE',  ( 0.000000000000000000, 0.000000000000000000, -1.000000000000000000 ) ) ;
#2 = CARTESIAN_POINT ( 'NONE',  ( -0.1968504999999998450, 0.000000000000000000, 0.9853683946618323475 ) ) ;
#3 = MANIFOLD_SOLID_BREP ( 'Cut-Revolve1', #118 ) ;
#4 = DIRECTION ( 'NONE',  ( 0.000000000000000000, 0.000000000000000000, 1.000000000000000000 ) ) ;
#5 = ORIENTED_EDGE ( 'NONE', *, *, #28, .T. ) ;
#6 = DIRECTION ( 'NONE',  ( 1.000000000000000000, 0.000000000000000000, 0.000000000000000000 ) ) ;
#7 = AXIS2_PLACEMENT_3D ( 'NONE', #235, #25, #20 ) ;
#8 = CARTESIAN_POINT ( 'NONE',  ( 0.1966536495000000273, 2.408312624008205478E-17, -2.408312624008205478E-17 ) ) ;
#9 = ADVANCED_FACE ( 'NONE', ( #158 ), #195, .T. ) ;
#10 = ORIENTED_EDGE ( 'NONE', *, *, #241, .T. ) ;
#11 = LENGTH_MEASURE_WITH_UNIT ( LENGTH_MEASURE( 0.02539999999999999897 ), #46 );
#12 = UNCERTAINTY_MEASURE_WITH_UNIT (LENGTH_MEASURE( 1.000000000000000082E-05 ), #238, 'distance_accuracy_value', 'NONE');
#13 = EDGE_LOOP ( 'NONE', ( #193, #174, #10, #144 ) ) ;
#14 = ORIENTED_EDGE ( 'NONE', *, *, #241, .F. ) ;
#15 = AXIS2_PLACEMENT_3D ( 'NONE', #276, #80, #159 ) ;
#16 = VERTEX_POINT ( 'NONE', #234 ) ;
#17 = SURFACE_SIDE_STYLE ('',( #221 ) ) ;
#18 = VERTEX_POINT ( 'NONE', #153 ) ;
#19 = LINE ( 'NONE', #198, #135 ) ;
#20 = DIRECTION ( 'NONE',  ( -1.000000000000000000, 0.000000000000000000, 1.224646799147353207E-16 ) ) ;
#21 = CONICAL_SURFACE ( 'NONE', #220, 0.1818505000000002481, 0.7853981633974312926 ) ;
#22 = APPLICATION_PROTOCOL_DEFINITION ( 'draft international standard', 'automotive_design', 1998, #47 ) ;
#23 = CARTESIAN_POINT ( 'NONE',  ( 0.1968504999999999838, 2.410723347355560646E-17, 2.834646000000000665 ) ) ;
#24 = EDGE_LOOP ( 'NONE', ( #270, #244, #246, #263 ) ) ;
#25 = DIRECTION ( 'NONE',  ( -1.224646799147353207E-16, -0.000000000000000000, -1.000000000000000000 ) ) ;
#26 = ORIENTED_EDGE ( 'NONE', *, *, #200, .T. ) ;
#27 = DIRECTION ( 'NONE',  ( -1.224646799147353207E-16, -0.000000000000000000, -1.000000000000000000 ) ) ;
#28 = EDGE_CURVE ( 'NONE', #130, #62, #179, .T. ) ;
#29 = AXIS2_PLACEMENT_3D ( 'NONE', #267, #96, #175 ) ;
#30 = DIRECTION ( 'NONE',  ( 1.000000000000000000, 0.000000000000000000, 0.000000000000000000 ) ) ;
#31 = VECTOR ( 'NONE', #49, 39.37007874015748854 ) ;
#32 = DIRECTION ( 'NONE',  ( 0.000000000000000000, 0.000000000000000000, -1.000000000000000000 ) ) ;
#33 = DIRECTION ( 'NONE',  ( 1.224646799147353207E-16, 0.000000000000000000, 1.000000000000000000 ) ) ;
#34 = APPLICATION_CONTEXT ( 'automotive_design' ) ;
#35 = ORIENTED_EDGE ( 'NONE', *, *, #145, .F. ) ;
#36 = STYLED_ITEM ( 'NONE', ( #197 ), #218 ) ;
#37 = VERTEX_POINT ( 'NONE', #236 ) ;
#38 =( LENGTH_UNIT ( ) NAMED_UNIT ( * ) SI_UNIT ( $, .METRE. ) );
#39 = DIMENSIONAL_EXPONENTS ( 1.000000000000000000, 0.000000000000000000, 0.000000000000000000, 0.000000000000000000, 0.000000000000000000, 0.000000000000000000, 0.000000000000000000 ) ;
#40 = EDGE_LOOP ( 'NONE', ( #217, #5 ) ) ;
#41 = EDGE_LOOP ( 'NONE', ( #85, #188, #59, #296 ) ) ;
#42 = VECTOR ( 'NONE', #107, 39.37007874015748143 ) ;
#43 = LINE ( 'NONE', #133, #282 ) ;
#44 = DIRECTION ( 'NONE',  ( -1.224646799147353207E-16, -0.000000000000000000, -1.000000000000000000 ) ) ;
#45 = ADVANCED_FACE ( 'NONE', ( #52 ), #186, .T. ) ;
#46 =( LENGTH_UNIT ( ) NAMED_UNIT ( * ) SI_UNIT ( $, .METRE. ) );
#47 = APPLICATION_CONTEXT ( 'automotive_design' ) ;
#48 = FILL_AREA_STYLE ('',( #70 ) ) ;
#49 = DIRECTION ( 'NONE',  ( -0.7071067811865354713, 0.000000000000000000, -0.7071067811865594521 ) ) ;
#50 = DIRECTION ( 'NONE',  ( 0.000000000000000000, 0.000000000000000000, -1.000000000000000000 ) ) ;
#51 = CONICAL_SURFACE ( 'NONE', #268, 0.1966536495000000273, 0.1745329251994339470 ) ;
#52 = FACE_OUTER_BOUND ( 'NONE', #86, .T. ) ;
#53 = CARTESIAN_POINT ( 'NONE',  ( 1.206728250503578783E-16, 0.000000000000000000, 0.9853683946618323475 ) ) ;
#54 = CARTESIAN_POINT ( 'NONE',  ( 0.1966536494999999996, 2.408312624008205170E-17, 3.791200677927629740E-33 ) ) ;
#55 = CARTESIAN_POINT ( 'NONE',  ( -0.1818505000000002481, 0.000000000000000000, 2.834646000000000665 ) ) ;
#56 = AXIS2_PLACEMENT_3D ( 'NONE', #277, #213, #258 ) ;
#57 = DIRECTION ( 'NONE',  ( 1.000000000000000000, 0.000000000000000000, -0.000000000000000000 ) ) ;
#58 = LENGTH_MEASURE_WITH_UNIT ( LENGTH_MEASURE( 0.02539999999999999897 ), #38 );
#59 = ORIENTED_EDGE ( 'NONE', *, *, #66, .T. ) ;
#60 = CONICAL_SURFACE ( 'NONE', #254, 0.1966536495000000273, 0.1745329251994339470 ) ;
#61 = VERTEX_POINT ( 'NONE', #2 ) ;
#62 = VERTEX_POINT ( 'NONE', #299 ) ;
#63 = PRODUCT_DEFINITION_SHAPE ( 'NONE', 'NONE',  #112 ) ;
#64 = MECHANICAL_DESIGN_GEOMETRIC_PRESENTATION_REPRESENTATION (  '', ( #36 ), #124 ) ;
#65 = COLOUR_RGB ( '',0.7921568627450980005, 0.8196078431372548767, 0.9333333333333333481 ) ;
#66 = EDGE_CURVE ( 'NONE', #16, #37, #209, .T. ) ;
#67 =( NAMED_UNIT ( * ) PLANE_ANGLE_UNIT ( ) SI_UNIT ( $, .RADIAN. ) );
#68 = FILL_AREA_STYLE_COLOUR ( '', #65 ) ;
#69 = EDGE_CURVE ( 'NONE', #37, #61, #147, .T. ) ;
#70 = FILL_AREA_STYLE_COLOUR ( '', #240 ) ;
#71 = EDGE_LOOP ( 'NONE', ( #94, #207, #269, #252 ) ) ;
#72 = LINE ( 'NONE', #273, #82 ) ;
#73 = FACE_OUTER_BOUND ( 'NONE', #215, .T. ) ;
#74 = DIRECTION ( 'NONE',  ( 1.000000000000000000, 0.000000000000000000, 0.000000000000000000 ) ) ;
#75 = CARTESIAN_POINT ( 'NONE',  ( 0.000000000000000000, 0.000000000000000000, 2.834646000000000665 ) ) ;
#76 = CARTESIAN_POINT ( 'NONE',  ( 0.000000000000000000, 0.000000000000000000, 2.834646000000000665 ) ) ;
#77 = ADVANCED_FACE ( 'NONE', ( #98 ), #185, .F. ) ;
#78 = CIRCLE ( 'NONE', #156, 0.1968504999999999838 ) ;
#79 = DIRECTION ( 'NONE',  ( 1.000000000000000000, 0.000000000000000000, 0.000000000000000000 ) ) ;
#80 = DIRECTION ( 'NONE',  ( -1.224646799147353207E-16, -0.000000000000000000, -1.000000000000000000 ) ) ;
#81 = CARTESIAN_POINT ( 'NONE',  ( 1.205361061354380629E-16, 0.000000000000000000, 0.9842519999999999047 ) ) ;
#82 = VECTOR ( 'NONE', #27, 39.37007874015748143 ) ;
#83 = ADVANCED_FACE ( 'NONE', ( #143 ), #243, .T. ) ;
#84 = PRESENTATION_LAYER_ASSIGNMENT (  '', '', ( #36 ) ) ;
#85 = ORIENTED_EDGE ( 'NONE', *, *, #297, .F. ) ;
#86 = EDGE_LOOP ( 'NONE', ( #26, #170, #251, #35 ) ) ;
#87 = FILL_AREA_STYLE ('',( #68 ) ) ;
#88 = CARTESIAN_POINT ( 'NONE',  ( 1.205361061354380629E-16, 0.000000000000000000, 0.9842519999999999047 ) ) ;
#89 = CIRCLE ( 'NONE', #279, 0.1818505000000002481 ) ;
#90 = CARTESIAN_POINT ( 'NONE',  ( -0.1818505000000002481, 0.000000000000000000, 2.834646000000000665 ) ) ;
#91 = PRODUCT ( 'Micro_EMSM-100-3', 'Micro_EMSM-100-3', '', ( #114 ) ) ;
#92 = ADVANCED_FACE ( 'NONE', ( #275 ), #60, .T. ) ;
#93 = SHAPE_DEFINITION_REPRESENTATION ( #63, #218 ) ;
#94 = ORIENTED_EDGE ( 'NONE', *, *, #201, .F. ) ;
#95 = VECTOR ( 'NONE', #271, 39.37007874015748143 ) ;
#96 = DIRECTION ( 'NONE',  ( -1.224646799147353207E-16, -0.000000000000000000, -1.000000000000000000 ) ) ;
#97 = DIRECTION ( 'NONE',  ( 0.000000000000000000, 0.000000000000000000, 1.000000000000000000 ) ) ;
#98 = FACE_OUTER_BOUND ( 'NONE', #40, .T. ) ;
#99 = AXIS2_PLACEMENT_3D ( 'NONE', #237, #140, #278 ) ;
#100 = UNCERTAINTY_MEASURE_WITH_UNIT (LENGTH_MEASURE( 1.000000000000000082E-05 ), #205, 'distance_accuracy_value', 'NONE');
#101 = DIRECTION ( 'NONE',  ( -1.000000000000000000, 0.000000000000000000, 0.000000000000000000 ) ) ;
#102 = DIRECTION ( 'NONE',  ( -0.000000000000000000, -0.000000000000000000, -1.000000000000000000 ) ) ;
#103 = CYLINDRICAL_SURFACE ( 'NONE', #56, 0.1966536495000000273 ) ;
#104 = ORIENTED_EDGE ( 'NONE', *, *, #204, .F. ) ;
#105 =( GEOMETRIC_REPRESENTATION_CONTEXT ( 3 ) GLOBAL_UNCERTAINTY_ASSIGNED_CONTEXT ( ( #12 ) ) GLOBAL_UNIT_ASSIGNED_CONTEXT ( ( #238, #67, #137 ) ) REPRESENTATION_CONTEXT ( 'NONE', 'WORKASPACE' ) );
#106 = AXIS2_PLACEMENT_3D ( 'NONE', #298, #97, #255 ) ;
#107 = DIRECTION ( 'NONE',  ( -1.224646799147353207E-16, -0.000000000000000000, -1.000000000000000000 ) ) ;
#108 = AXIS2_PLACEMENT_3D ( 'NONE', #211, #102, #164 ) ;
#109 = ORIENTED_EDGE ( 'NONE', *, *, #134, .T. ) ;
#110 = CARTESIAN_POINT ( 'NONE',  ( -0.1966536494999999163, 2.409517985681882908E-17, 0.9842519999999999047 ) ) ;
#111 = ORIENTED_EDGE ( 'NONE', *, *, #225, .F. ) ;
#112 = PRODUCT_DEFINITION ( 'UNKNOWN', '', #181, #294 ) ;
#113 = CARTESIAN_POINT ( 'NONE',  ( -0.1968504999999999838, 0.000000000000000000, 2.819646000000000097 ) ) ;
#114 = PRODUCT_CONTEXT ( 'NONE', #47, 'mechanical' ) ;
#115 = EDGE_LOOP ( 'NONE', ( #202, #109, #151, #14 ) ) ;
#116 = VERTEX_POINT ( 'NONE', #160 ) ;
#117 = VERTEX_POINT ( 'NONE', #55 ) ;
#118 = CLOSED_SHELL ( 'NONE', ( #83, #121, #167, #45, #125, #9, #180, #92, #184, #77 ) ) ;
#119 = CARTESIAN_POINT ( 'NONE',  ( 0.000000000000000000, 0.000000000000000000, 2.819646000000000097 ) ) ;
#120 = AXIS2_PLACEMENT_3D ( 'NONE', #75, #154, #139 ) ;
#121 = ADVANCED_FACE ( 'NONE', ( #127 ), #51, .T. ) ;
#122 = CARTESIAN_POINT ( 'NONE',  ( 0.1966536495000001661, 0.000000000000000000, 0.9842519999999999047 ) ) ;
#123 = STYLED_ITEM ( 'NONE', ( #248 ), #3 ) ;
#124 =( GEOMETRIC_REPRESENTATION_CONTEXT ( 3 ) GLOBAL_UNCERTAINTY_ASSIGNED_CONTEXT ( ( #100 ) ) GLOBAL_UNIT_ASSIGNED_CONTEXT ( ( #205, #230, #272 ) ) REPRESENTATION_CONTEXT ( 'NONE', 'WORKASPACE' ) );
#125 = ADVANCED_FACE ( 'NONE', ( #157 ), #176, .T. ) ;
#126 = FACE_OUTER_BOUND ( 'NONE', #171, .T. ) ;
#127 = FACE_OUTER_BOUND ( 'NONE', #71, .T. ) ;
#128 = EDGE_CURVE ( 'NONE', #62, #130, #163, .T. ) ;
#129 = ORIENTED_EDGE ( 'NONE', *, *, #204, .T. ) ;
#130 = VERTEX_POINT ( 'NONE', #54 ) ;
#131 = AXIS2_PLACEMENT_3D ( 'NONE', #242, #32, #166 ) ;
#132 = SURFACE_STYLE_USAGE ( .BOTH. , #284 ) ;
#133 = CARTESIAN_POINT ( 'NONE',  ( 0.1818505000000002481, 2.227026327483460228E-17, 2.834646000000000665 ) ) ;
#134 = EDGE_CURVE ( 'NONE', #16, #130, #216, .T. ) ;
#135 = VECTOR ( 'NONE', #288, 39.37007874015748143 ) ;
#136 = LINE ( 'NONE', #23, #95 ) ;
#137 =( NAMED_UNIT ( * ) SI_UNIT ( $, .STERADIAN. ) SOLID_ANGLE_UNIT ( ) );
#138 = DIRECTION ( 'NONE',  ( 0.000000000000000000, 0.000000000000000000, 1.000000000000000000 ) ) ;
#139 = DIRECTION ( 'NONE',  ( 1.000000000000000000, 0.000000000000000000, -0.000000000000000000 ) ) ;
#140 = DIRECTION ( 'NONE',  ( -1.224646799147353207E-16, -0.000000000000000000, -1.000000000000000000 ) ) ;
#141 = CIRCLE ( 'NONE', #289, 0.1966536495000000273 ) ;
#142 = DIRECTION ( 'NONE',  ( 1.000000000000000000, 0.000000000000000000, 0.000000000000000000 ) ) ;
#143 = FACE_OUTER_BOUND ( 'NONE', #115, .T. ) ;
#144 = ORIENTED_EDGE ( 'NONE', *, *, #28, .F. ) ;
#145 = EDGE_CURVE ( 'NONE', #226, #61, #290, .T. ) ;
#146 = PRESENTATION_LAYER_ASSIGNMENT (  '', '', ( #123 ) ) ;
#147 = CIRCLE ( 'NONE', #229, 0.1968504999999999838 ) ;
#148 = EDGE_CURVE ( 'NONE', #116, #37, #136, .T. ) ;
#149 = CIRCLE ( 'NONE', #29, 0.1968504999999999838 ) ;
#150 = DIRECTION ( 'NONE',  ( -1.000000000000000000, 0.000000000000000000, 0.000000000000000000 ) ) ;
#151 = ORIENTED_EDGE ( 'NONE', *, *, #128, .F. ) ;
#152 = DIRECTION ( 'NONE',  ( 1.000000000000000000, 0.000000000000000000, 0.000000000000000000 ) ) ;
#153 = CARTESIAN_POINT ( 'NONE',  ( 0.1818505000000002481, 2.318874837419510283E-17, 2.834646000000000665 ) ) ;
#154 = DIRECTION ( 'NONE',  ( 0.000000000000000000, 0.000000000000000000, 1.000000000000000000 ) ) ;
#155 = DIRECTION ( 'NONE',  ( 0.1736481776669314414, 0.000000000000000000, 0.9848077530122077983 ) ) ;
#156 = AXIS2_PLACEMENT_3D ( 'NONE', #119, #208, #74 ) ;
#157 = FACE_OUTER_BOUND ( 'NONE', #24, .T. ) ;
#158 = FACE_OUTER_BOUND ( 'NONE', #231, .T. ) ;
#159 = DIRECTION ( 'NONE',  ( -1.000000000000000000, 0.000000000000000000, 1.224646799147353207E-16 ) ) ;
#160 = CARTESIAN_POINT ( 'NONE',  ( 0.1968504999999999838, 2.410723347355560646E-17, 2.819646000000000097 ) ) ;
#161 = CARTESIAN_POINT ( 'NONE',  ( 0.000000000000000000, 0.000000000000000000, 2.834646000000000665 ) ) ;
#162 = DIMENSIONAL_EXPONENTS ( 1.000000000000000000, 0.000000000000000000, 0.000000000000000000, 0.000000000000000000, 0.000000000000000000, 0.000000000000000000, 0.000000000000000000 ) ;
#163 = CIRCLE ( 'NONE', #15, 0.1966536494999999996 ) ;
#164 = DIRECTION ( 'NONE',  ( -1.000000000000000000, 0.000000000000000000, 0.000000000000000000 ) ) ;
#165 = VERTEX_POINT ( 'NONE', #110 ) ;
#166 = DIRECTION ( 'NONE',  ( 1.000000000000000000, 0.000000000000000000, 0.000000000000000000 ) ) ;
#167 = ADVANCED_FACE ( 'NONE', ( #73 ), #260, .T. ) ;
#168 = ORIENTED_EDGE ( 'NONE', *, *, #189, .F. ) ;
#169 = SURFACE_STYLE_FILL_AREA ( #87 ) ;
#170 = ORIENTED_EDGE ( 'NONE', *, *, #148, .T. ) ;
#171 = EDGE_LOOP ( 'NONE', ( #187, #111, #129, #281 ) ) ;
#172 = DIRECTION ( 'NONE',  ( -1.224646799147353207E-16, -0.000000000000000000, -1.000000000000000000 ) ) ;
#173 = VECTOR ( 'NONE', #155, 39.37007874015748143 ) ;
#174 = ORIENTED_EDGE ( 'NONE', *, *, #177, .T. ) ;
#175 = DIRECTION ( 'NONE',  ( 1.000000000000000000, 0.000000000000000000, 0.000000000000000000 ) ) ;
#176 = CYLINDRICAL_SURFACE ( 'NONE', #247, 0.1968504999999999838 ) ;
#177 = EDGE_CURVE ( 'NONE', #16, #165, #141, .T. ) ;
#178 = DIRECTION ( 'NONE',  ( 0.000000000000000000, 0.000000000000000000, 1.000000000000000000 ) ) ;
#179 = CIRCLE ( 'NONE', #7, 0.1966536494999999996 ) ;
#180 = ADVANCED_FACE ( 'NONE', ( #126 ), #21, .T. ) ;
#181 = PRODUCT_DEFINITION_FORMATION_WITH_SPECIFIED_SOURCE ( 'ANY', '', #91, .NOT_KNOWN. ) ;
#182 = DIRECTION ( 'NONE',  ( -1.000000000000000000, 0.000000000000000000, 0.000000000000000000 ) ) ;
#183 = FACE_OUTER_BOUND ( 'NONE', #13, .T. ) ;
#184 = ADVANCED_FACE ( 'NONE', ( #183 ), #103, .T. ) ;
#185 = PLANE ( 'NONE',  #250 ) ;
#186 = CYLINDRICAL_SURFACE ( 'NONE', #108, 0.1968504999999999838 ) ;
#187 = ORIENTED_EDGE ( 'NONE', *, *, #265, .F. ) ;
#188 = ORIENTED_EDGE ( 'NONE', *, *, #177, .F. ) ;
#189 = EDGE_CURVE ( 'NONE', #18, #117, #89, .T. ) ;
#190 = UNCERTAINTY_MEASURE_WITH_UNIT (LENGTH_MEASURE( 1.000000000000000082E-05 ), #287, 'distance_accuracy_value', 'NONE');
#191 =( NAMED_UNIT ( * ) SI_UNIT ( $, .STERADIAN. ) SOLID_ANGLE_UNIT ( ) );
#192 = MECHANICAL_DESIGN_GEOMETRIC_PRESENTATION_REPRESENTATION (  '', ( #123 ), #105 ) ;
#193 = ORIENTED_EDGE ( 'NONE', *, *, #134, .F. ) ;
#194 = CIRCLE ( 'NONE', #131, 0.1968504999999999838 ) ;
#195 = PLANE ( 'NONE',  #120 ) ;
#196 = DIRECTION ( 'NONE',  ( -1.000000000000000000, 0.000000000000000000, 0.000000000000000000 ) ) ;
#197 = PRESENTATION_STYLE_ASSIGNMENT (( #132 ) ) ;
#198 = CARTESIAN_POINT ( 'NONE',  ( -0.1966536494999999163, 2.408312624008205478E-17, 0.9842519999999999047 ) ) ;
#199 = VECTOR ( 'NONE', #293, 39.37007874015748143 ) ;
#200 = EDGE_CURVE ( 'NONE', #226, #116, #194, .T. ) ;
#201 = EDGE_CURVE ( 'NONE', #165, #16, #264, .T. ) ;
#202 = ORIENTED_EDGE ( 'NONE', *, *, #201, .T. ) ;
#203 = CARTESIAN_POINT ( 'NONE',  ( 0.000000000000000000, 0.000000000000000000, 2.834646000000000665 ) ) ;
#204 = EDGE_CURVE ( 'NONE', #117, #226, #232, .T. ) ;
#205 =( CONVERSION_BASED_UNIT ( 'INCH', #58 ) LENGTH_UNIT ( ) NAMED_UNIT ( #39 ) );
#206 = CIRCLE ( 'NONE', #266, 0.1818505000000002481 ) ;
#207 = ORIENTED_EDGE ( 'NONE', *, *, #297, .T. ) ;
#208 = DIRECTION ( 'NONE',  ( 0.000000000000000000, 0.000000000000000000, -1.000000000000000000 ) ) ;
#209 = LINE ( 'NONE', #122, #173 ) ;
#210 =( LENGTH_UNIT ( ) NAMED_UNIT ( * ) SI_UNIT ( $, .METRE. ) );
#211 = CARTESIAN_POINT ( 'NONE',  ( 0.000000000000000000, 0.000000000000000000, 2.834646000000000665 ) ) ;
#212 =( GEOMETRIC_REPRESENTATION_CONTEXT ( 3 ) GLOBAL_UNCERTAINTY_ASSIGNED_CONTEXT ( ( #190 ) ) GLOBAL_UNIT_ASSIGNED_CONTEXT ( ( #287, #222, #191 ) ) REPRESENTATION_CONTEXT ( 'NONE', 'WORKASPACE' ) );
#213 = DIRECTION ( 'NONE',  ( -1.224646799147353207E-16, -0.000000000000000000, -1.000000000000000000 ) ) ;
#214 = CARTESIAN_POINT ( 'NONE',  ( 1.205361061354380629E-16, 0.000000000000000000, 0.9842519999999999047 ) ) ;
#215 = EDGE_LOOP ( 'NONE', ( #168, #285, #219, #104 ) ) ;
#216 = LINE ( 'NONE', #8, #42 ) ;
#217 = ORIENTED_EDGE ( 'NONE', *, *, #128, .T. ) ;
#218 = ADVANCED_BREP_SHAPE_REPRESENTATION ( 'Micro_EMSM-100-3', ( #3, #106 ), #212 ) ;
#219 = ORIENTED_EDGE ( 'NONE', *, *, #200, .F. ) ;
#220 = AXIS2_PLACEMENT_3D ( 'NONE', #161, #1, #101 ) ;
#221 = SURFACE_STYLE_FILL_AREA ( #48 ) ;
#222 =( NAMED_UNIT ( * ) PLANE_ANGLE_UNIT ( ) SI_UNIT ( $, .RADIAN. ) );
#223 = DIRECTION ( 'NONE',  ( 0.7071067811865354713, 8.659560562354783714E-17, -0.7071067811865594521 ) ) ;
#224 = CARTESIAN_POINT ( 'NONE',  ( 0.000000000000000000, 0.000000000000000000, 2.834646000000000665 ) ) ;
#225 = EDGE_CURVE ( 'NONE', #117, #18, #206, .T. ) ;
#226 = VERTEX_POINT ( 'NONE', #113 ) ;
#227 = DIRECTION ( 'NONE',  ( -1.000000000000000000, 0.000000000000000000, 0.000000000000000000 ) ) ;
#228 = PRODUCT_RELATED_PRODUCT_CATEGORY ( 'part', '', ( #91 ) ) ;
#229 = AXIS2_PLACEMENT_3D ( 'NONE', #53, #239, #30 ) ;
#230 =( NAMED_UNIT ( * ) PLANE_ANGLE_UNIT ( ) SI_UNIT ( $, .RADIAN. ) );
#231 = EDGE_LOOP ( 'NONE', ( #283, #292 ) ) ;
#232 = LINE ( 'NONE', #90, #31 ) ;
#233 = AXIS2_PLACEMENT_3D ( 'NONE', #224, #50, #196 ) ;
#234 = CARTESIAN_POINT ( 'NONE',  ( 0.1966536495000001661, 0.000000000000000000, 0.9842519999999999047 ) ) ;
#235 = CARTESIAN_POINT ( 'NONE',  ( 2.949332346337811403E-33, 0.000000000000000000, 2.408312624008205170E-17 ) ) ;
#236 = CARTESIAN_POINT ( 'NONE',  ( 0.1968505000000001226, 2.410723347355561878E-17, 0.9853683946618323475 ) ) ;
#237 = CARTESIAN_POINT ( 'NONE',  ( 0.000000000000000000, 0.000000000000000000, 0.000000000000000000 ) ) ;
#238 =( CONVERSION_BASED_UNIT ( 'INCH', #257 ) LENGTH_UNIT ( ) NAMED_UNIT ( #280 ) );
#239 = DIRECTION ( 'NONE',  ( -1.224646799147353207E-16, -0.000000000000000000, -1.000000000000000000 ) ) ;
#240 = COLOUR_RGB ( '',0.7921568627450980005, 0.8196078431372548767, 0.9333333333333333481 ) ;
#241 = EDGE_CURVE ( 'NONE', #165, #62, #72, .T. ) ;
#242 = CARTESIAN_POINT ( 'NONE',  ( 0.000000000000000000, 0.000000000000000000, 2.819646000000000097 ) ) ;
#243 = CYLINDRICAL_SURFACE ( 'NONE', #99, 0.1966536495000000273 ) ;
#244 = ORIENTED_EDGE ( 'NONE', *, *, #245, .T. ) ;
#245 = EDGE_CURVE ( 'NONE', #116, #226, #78, .T. ) ;
#246 = ORIENTED_EDGE ( 'NONE', *, *, #145, .T. ) ;
#247 = AXIS2_PLACEMENT_3D ( 'NONE', #76, #256, #182 ) ;
#248 = PRESENTATION_STYLE_ASSIGNMENT (( #286 ) ) ;
#249 = CARTESIAN_POINT ( 'NONE',  ( -0.1968504999999999838, 0.000000000000000000, 2.834646000000000665 ) ) ;
#250 = AXIS2_PLACEMENT_3D ( 'NONE', #262, #178, #57 ) ;
#251 = ORIENTED_EDGE ( 'NONE', *, *, #259, .F. ) ;
#252 = ORIENTED_EDGE ( 'NONE', *, *, #66, .F. ) ;
#253 = CARTESIAN_POINT ( 'NONE',  ( 1.205361061354380629E-16, 0.000000000000000000, 0.9842519999999999047 ) ) ;
#254 = AXIS2_PLACEMENT_3D ( 'NONE', #81, #33, #79 ) ;
#255 = DIRECTION ( 'NONE',  ( 1.000000000000000000, 0.000000000000000000, 0.000000000000000000 ) ) ;
#256 = DIRECTION ( 'NONE',  ( -0.000000000000000000, -0.000000000000000000, -1.000000000000000000 ) ) ;
#257 = LENGTH_MEASURE_WITH_UNIT ( LENGTH_MEASURE( 0.02539999999999999897 ), #210 );
#258 = DIRECTION ( 'NONE',  ( -1.000000000000000000, 0.000000000000000000, 1.224646799147353207E-16 ) ) ;
#259 = EDGE_CURVE ( 'NONE', #61, #37, #149, .T. ) ;
#260 = CONICAL_SURFACE ( 'NONE', #233, 0.1818505000000002481, 0.7853981633974312926 ) ;
#261 = CARTESIAN_POINT ( 'NONE',  ( 0.000000000000000000, 0.000000000000000000, 2.834646000000000665 ) ) ;
#262 = CARTESIAN_POINT ( 'NONE',  ( 0.000000000000000000, 0.000000000000000000, 0.000000000000000000 ) ) ;
#263 = ORIENTED_EDGE ( 'NONE', *, *, #69, .F. ) ;
#264 = CIRCLE ( 'NONE', #295, 0.1966536495000000273 ) ;
#265 = EDGE_CURVE ( 'NONE', #18, #116, #43, .T. ) ;
#266 = AXIS2_PLACEMENT_3D ( 'NONE', #203, #138, #152 ) ;
#267 = CARTESIAN_POINT ( 'NONE',  ( 1.206728250503578783E-16, 0.000000000000000000, 0.9853683946618323475 ) ) ;
#268 = AXIS2_PLACEMENT_3D ( 'NONE', #214, #274, #6 ) ;
#269 = ORIENTED_EDGE ( 'NONE', *, *, #259, .T. ) ;
#270 = ORIENTED_EDGE ( 'NONE', *, *, #148, .F. ) ;
#271 = DIRECTION ( 'NONE',  ( -0.000000000000000000, -0.000000000000000000, -1.000000000000000000 ) ) ;
#272 =( NAMED_UNIT ( * ) SI_UNIT ( $, .STERADIAN. ) SOLID_ANGLE_UNIT ( ) );
#273 = CARTESIAN_POINT ( 'NONE',  ( -0.1966536495000000273, 0.000000000000000000, 2.408312624008205478E-17 ) ) ;
#274 = DIRECTION ( 'NONE',  ( 1.224646799147353207E-16, 0.000000000000000000, 1.000000000000000000 ) ) ;
#275 = FACE_OUTER_BOUND ( 'NONE', #41, .T. ) ;
#276 = CARTESIAN_POINT ( 'NONE',  ( 2.949332346337811403E-33, 0.000000000000000000, 2.408312624008205170E-17 ) ) ;
#277 = CARTESIAN_POINT ( 'NONE',  ( 0.000000000000000000, 0.000000000000000000, 0.000000000000000000 ) ) ;
#278 = DIRECTION ( 'NONE',  ( -1.000000000000000000, 0.000000000000000000, 1.224646799147353207E-16 ) ) ;
#279 = AXIS2_PLACEMENT_3D ( 'NONE', #261, #4, #142 ) ;
#280 = DIMENSIONAL_EXPONENTS ( 1.000000000000000000, 0.000000000000000000, 0.000000000000000000, 0.000000000000000000, 0.000000000000000000, 0.000000000000000000, 0.000000000000000000 ) ;
#281 = ORIENTED_EDGE ( 'NONE', *, *, #245, .F. ) ;
#282 = VECTOR ( 'NONE', #223, 39.37007874015748854 ) ;
#283 = ORIENTED_EDGE ( 'NONE', *, *, #225, .T. ) ;
#284 = SURFACE_SIDE_STYLE ('',( #169 ) ) ;
#285 = ORIENTED_EDGE ( 'NONE', *, *, #265, .T. ) ;
#286 = SURFACE_STYLE_USAGE ( .BOTH. , #17 ) ;
#287 =( CONVERSION_BASED_UNIT ( 'INCH', #11 ) LENGTH_UNIT ( ) NAMED_UNIT ( #162 ) );
#288 = DIRECTION ( 'NONE',  ( -0.1736481776669312194, 2.126576849575783625E-17, 0.9848077530122077983 ) ) ;
#289 = AXIS2_PLACEMENT_3D ( 'NONE', #88, #172, #150 ) ;
#290 = LINE ( 'NONE', #249, #199 ) ;
#291 = APPLICATION_PROTOCOL_DEFINITION ( 'draft international standard', 'automotive_design', 1998, #34 ) ;
#292 = ORIENTED_EDGE ( 'NONE', *, *, #189, .T. ) ;
#293 = DIRECTION ( 'NONE',  ( -0.000000000000000000, -0.000000000000000000, -1.000000000000000000 ) ) ;
#294 = PRODUCT_DEFINITION_CONTEXT ( 'detailed design', #34, 'design' ) ;
#295 = AXIS2_PLACEMENT_3D ( 'NONE', #253, #44, #227 ) ;
#296 = ORIENTED_EDGE ( 'NONE', *, *, #69, .T. ) ;
#297 = EDGE_CURVE ( 'NONE', #165, #61, #19, .T. ) ;
#298 = CARTESIAN_POINT ( 'NONE',  ( 0.000000000000000000, 0.000000000000000000, 0.000000000000000000 ) ) ;
#299 = CARTESIAN_POINT ( 'NONE',  ( -0.1966536494999999996, 0.000000000000000000, 4.816625248016410340E-17 ) ) ;
ENDSEC;
END-ISO-10303-21;
