ISO-10303-21;
HEADER;
FILE_DESCRIPTION (( 'STEP AP214' ),
    '1' );
FILE_NAME ('00660.STEP',
    '2023-06-22T14:13:27',
    ( '' ),
    ( '' ),
    'SwSTEP 2.0',
    'SolidWorks 2023',
    '' );
FILE_SCHEMA (( 'AUTOMOTIVE_DESIGN' ));
ENDSEC;

DATA;
#1 = CIRCLE ( 'NONE', #183, 0.3750000000000000555 ) ;
#2 =( LENGTH_UNIT ( ) NAMED_UNIT ( * ) SI_UNIT ( $, .METRE. ) );
#3 = ADVANCED_FACE ( 'NONE', ( #279 ), #92, .F. ) ;
#4 = ORIENTED_EDGE ( 'NONE', *, *, #95, .F. ) ;
#5 = CARTESIAN_POINT ( 'NONE',  ( 4.592425496802575451E-17, 1.625000000000000000, 0.3750000000000000555 ) ) ;
#6 = CLOSED_SHELL ( 'NONE', ( #93, #166, #42, #266 ) ) ;
#7 = AXIS2_PLACEMENT_3D ( 'NONE', #147, #91, #190 ) ;
#8 = ORIENTED_EDGE ( 'NONE', *, *, #98, .T. ) ;
#9 =( NAMED_UNIT ( * ) PLANE_ANGLE_UNIT ( ) SI_UNIT ( $, .RADIAN. ) );
#10 =( NAMED_UNIT ( * ) SI_UNIT ( $, .STERADIAN. ) SOLID_ANGLE_UNIT ( ) );
#11 = ORIENTED_EDGE ( 'NONE', *, *, #48, .T. ) ;
#12 = EDGE_CURVE ( 'NONE', #59, #132, #156, .T. ) ;
#13 = CLOSED_SHELL ( 'NONE', ( #277, #3, #38, #261 ) ) ;
#14 = CIRCLE ( 'NONE', #7, 0.3750000000000000555 ) ;
#15 = VECTOR ( 'NONE', #115, 39.37007874015748143 ) ;
#16 = PRODUCT_DEFINITION_FORMATION_WITH_SPECIFIED_SOURCE ( 'ANY', '', #276, .NOT_KNOWN. ) ;
#17 = SURFACE_STYLE_USAGE ( .BOTH. , #82 ) ;
#18 = LENGTH_MEASURE_WITH_UNIT ( LENGTH_MEASURE( 0.02539999999999999897 ), #185 );
#19 = UNCERTAINTY_MEASURE_WITH_UNIT (LENGTH_MEASURE( 1.000000000000000082E-05 ), #275, 'distance_accuracy_value', 'NONE');
#20 = EDGE_LOOP ( 'NONE', ( #224, #11 ) ) ;
#21 = AXIS2_PLACEMENT_3D ( 'NONE', #217, #97, #236 ) ;
#22 = CARTESIAN_POINT ( 'NONE',  ( 0.000000000000000000, 0.000000000000000000, 0.000000000000000000 ) ) ;
#23 =( NAMED_UNIT ( * ) SI_UNIT ( $, .STERADIAN. ) SOLID_ANGLE_UNIT ( ) );
#24 = APPLICATION_PROTOCOL_DEFINITION ( 'draft international standard', 'automotive_design', 1998, #111 ) ;
#25 =( CONVERSION_BASED_UNIT ( 'INCH', #188 ) LENGTH_UNIT ( ) NAMED_UNIT ( #213 ) );
#26 = CARTESIAN_POINT ( 'NONE',  ( 2.449293598294707400E-16, 4.000000000000000000, 0.000000000000000000 ) ) ;
#27 = DIRECTION ( 'NONE',  ( 1.031281515071456169E-16, 1.000000000000000000, -0.000000000000000000 ) ) ;
#28 = COLOUR_RGB ( '',1.000000000000000000, 0.000000000000000000, 0.000000000000000000 ) ;
#29 = ORIENTED_EDGE ( 'NONE', *, *, #293, .T. ) ;
#30 = FACE_OUTER_BOUND ( 'NONE', #158, .T. ) ;
#31 = ORIENTED_EDGE ( 'NONE', *, *, #290, .F. ) ;
#32 = MECHANICAL_DESIGN_GEOMETRIC_PRESENTATION_REPRESENTATION (  '', ( #250 ), #251 ) ;
#33 =( NAMED_UNIT ( * ) SI_UNIT ( $, .STERADIAN. ) SOLID_ANGLE_UNIT ( ) );
#34 = VERTEX_POINT ( 'NONE', #237 ) ;
#35 = STYLED_ITEM ( 'NONE', ( #170 ), #166 ) ;
#36 = SURFACE_SIDE_STYLE ('',( #304 ) ) ;
#37 = CARTESIAN_POINT ( 'NONE',  ( 0.000000000000000000, 1.625000000000000000, 0.000000000000000000 ) ) ;
#38 = ADVANCED_FACE ( 'NONE', ( #282 ), #174, .T. ) ;
#39 = SURFACE_SIDE_STYLE ('',( #297 ) ) ;
#40 = PRESENTATION_LAYER_ASSIGNMENT (  '', '', ( #65 ) ) ;
#41 = DIRECTION ( 'NONE',  ( -0.000000000000000000, -1.000000000000000000, -0.000000000000000000 ) ) ;
#42 = ADVANCED_FACE ( 'NONE', ( #122 ), #58, .T. ) ;
#43 = DIRECTION ( 'NONE',  ( 0.000000000000000000, 0.000000000000000000, -1.000000000000000000 ) ) ;
#44 = AXIS2_PLACEMENT_3D ( 'NONE', #49, #89, #192 ) ;
#45 = AXIS2_PLACEMENT_3D ( 'NONE', #245, #155, #230 ) ;
#46 = AXIS2_PLACEMENT_3D ( 'NONE', #285, #214, #73 ) ;
#47 = DIRECTION ( 'NONE',  ( -1.000000000000000000, 0.000000000000000000, 0.000000000000000000 ) ) ;
#48 = EDGE_CURVE ( 'NONE', #132, #59, #195, .T. ) ;
#49 = CARTESIAN_POINT ( 'NONE',  ( 1.994140431240145858E-33, 1.625000000000000000, 0.000000000000000000 ) ) ;
#50 = FACE_OUTER_BOUND ( 'NONE', #246, .T. ) ;
#51 = EDGE_CURVE ( 'NONE', #268, #218, #221, .T. ) ;
#52 =( GEOMETRIC_REPRESENTATION_CONTEXT ( 3 ) GLOBAL_UNCERTAINTY_ASSIGNED_CONTEXT ( ( #71 ) ) GLOBAL_UNIT_ASSIGNED_CONTEXT ( ( #25, #66, #23 ) ) REPRESENTATION_CONTEXT ( 'NONE', 'WORKASPACE' ) );
#53 = ORIENTED_EDGE ( 'NONE', *, *, #51, .F. ) ;
#54 = CARTESIAN_POINT ( 'NONE',  ( -0.3749999999999995004, 4.000000000000000000, 0.000000000000000000 ) ) ;
#55 = PRODUCT_CONTEXT ( 'NONE', #111, 'mechanical' ) ;
#56 = ORIENTED_EDGE ( 'NONE', *, *, #227, .F. ) ;
#57 =( NAMED_UNIT ( * ) PLANE_ANGLE_UNIT ( ) SI_UNIT ( $, .RADIAN. ) );
#58 = CYLINDRICAL_SURFACE ( 'NONE', #280, 0.3750000000000000555 ) ;
#59 = VERTEX_POINT ( 'NONE', #54 ) ;
#60 = DIRECTION ( 'NONE',  ( -0.000000000000000000, -1.000000000000000000, -0.000000000000000000 ) ) ;
#61 = PLANE ( 'NONE',  #149 ) ;
#62 = CARTESIAN_POINT ( 'NONE',  ( -3.032960542342103792E-32, 1.625000000000000000, 0.000000000000000000 ) ) ;
#63 = FILL_AREA_STYLE_COLOUR ( '', #28 ) ;
#64 = AXIS2_PLACEMENT_3D ( 'NONE', #26, #74, #47 ) ;
#65 = STYLED_ITEM ( 'NONE', ( #289 ), #93 ) ;
#66 =( NAMED_UNIT ( * ) PLANE_ANGLE_UNIT ( ) SI_UNIT ( $, .RADIAN. ) );
#67 = UNCERTAINTY_MEASURE_WITH_UNIT (LENGTH_MEASURE( 1.000000000000000082E-05 ), #134, 'distance_accuracy_value', 'NONE');
#68 = FACE_OUTER_BOUND ( 'NONE', #151, .T. ) ;
#69 = DIRECTION ( 'NONE',  ( 0.000000000000000000, 0.000000000000000000, -1.000000000000000000 ) ) ;
#70 = DIRECTION ( 'NONE',  ( 1.000000000000000000, -1.031281515071456169E-16, 0.000000000000000000 ) ) ;
#71 = UNCERTAINTY_MEASURE_WITH_UNIT (LENGTH_MEASURE( 1.000000000000000082E-05 ), #25, 'distance_accuracy_value', 'NONE');
#72 = AXIS2_PLACEMENT_3D ( 'NONE', #22, #144, #240 ) ;
#73 = DIRECTION ( 'NONE',  ( 0.000000000000000000, 0.000000000000000000, -1.000000000000000000 ) ) ;
#74 = DIRECTION ( 'NONE',  ( 1.031281515071456046E-16, 1.000000000000000000, -0.000000000000000000 ) ) ;
#75 = CARTESIAN_POINT ( 'NONE',  ( 0.000000000000000000, 0.000000000000000000, 0.000000000000000000 ) ) ;
#76 = LENGTH_MEASURE_WITH_UNIT ( LENGTH_MEASURE( 0.02539999999999999897 ), #2 );
#77 =( LENGTH_UNIT ( ) NAMED_UNIT ( * ) SI_UNIT ( $, .METRE. ) );
#78 = VERTEX_POINT ( 'NONE', #5 ) ;
#79 = DIRECTION ( 'NONE',  ( -0.000000000000000000, -1.000000000000000000, -0.000000000000000000 ) ) ;
#80 = ORIENTED_EDGE ( 'NONE', *, *, #290, .T. ) ;
#81 = PRODUCT_DEFINITION_SHAPE ( 'NONE', 'NONE',  #116 ) ;
#82 = SURFACE_SIDE_STYLE ('',( #106 ) ) ;
#83 = CARTESIAN_POINT ( 'NONE',  ( 0.3750000000000000555, 4.000000000000000000, 4.592425496802573602E-17 ) ) ;
#84 = SURFACE_STYLE_USAGE ( .BOTH. , #294 ) ;
#85 = PRODUCT_DEFINITION_CONTEXT ( 'detailed design', #150, 'design' ) ;
#86 = SURFACE_STYLE_USAGE ( .BOTH. , #232 ) ;
#87 = MECHANICAL_DESIGN_GEOMETRIC_PRESENTATION_REPRESENTATION (  '', ( #157 ), #257 ) ;
#88 = DIRECTION ( 'NONE',  ( -0.000000000000000000, -1.000000000000000000, -0.000000000000000000 ) ) ;
#89 = DIRECTION ( 'NONE',  ( 1.031281515071456169E-16, 1.000000000000000000, -0.000000000000000000 ) ) ;
#90 = EDGE_CURVE ( 'NONE', #34, #59, #152, .T. ) ;
#91 = DIRECTION ( 'NONE',  ( 1.031281515071456046E-16, 1.000000000000000000, -0.000000000000000000 ) ) ;
#92 = PLANE ( 'NONE',  #44 ) ;
#93 = ADVANCED_FACE ( 'NONE', ( #30 ), #198, .T. ) ;
#94 = LINE ( 'NONE', #241, #179 ) ;
#95 = EDGE_CURVE ( 'NONE', #218, #268, #211, .T. ) ;
#96 = EDGE_LOOP ( 'NONE', ( #226, #56 ) ) ;
#97 = DIRECTION ( 'NONE',  ( 0.000000000000000000, 0.000000000000000000, 1.000000000000000000 ) ) ;
#98 = EDGE_CURVE ( 'NONE', #154, #218, #173, .T. ) ;
#99 =( CONVERSION_BASED_UNIT ( 'INCH', #225 ) LENGTH_UNIT ( ) NAMED_UNIT ( #308 ) );
#100 = PRESENTATION_LAYER_ASSIGNMENT (  '', '', ( #113 ) ) ;
#101 = ORIENTED_EDGE ( 'NONE', *, *, #90, .F. ) ;
#102 = PRESENTATION_STYLE_ASSIGNMENT (( #17 ) ) ;
#103 = MANIFOLD_SOLID_BREP ( 'Revolve - Cutting Edge', #6 ) ;
#104 = SURFACE_STYLE_FILL_AREA ( #205 ) ;
#105 = EDGE_LOOP ( 'NONE', ( #124, #199, #8, #53 ) ) ;
#106 = SURFACE_STYLE_FILL_AREA ( #202 ) ;
#107 = ORIENTED_EDGE ( 'NONE', *, *, #98, .F. ) ;
#108 = MANIFOLD_SOLID_BREP ( 'Revolve - Tool Body (Straight Shanked)', #13 ) ;
#109 = AXIS2_PLACEMENT_3D ( 'NONE', #189, #88, #43 ) ;
#110 = DIRECTION ( 'NONE',  ( 0.000000000000000000, 0.000000000000000000, -1.000000000000000000 ) ) ;
#111 = APPLICATION_CONTEXT ( 'automotive_design' ) ;
#112 =( CONVERSION_BASED_UNIT ( 'INCH', #278 ) LENGTH_UNIT ( ) NAMED_UNIT ( #171 ) );
#113 = STYLED_ITEM ( 'NONE', ( #298 ), #108 ) ;
#114 =( NAMED_UNIT ( * ) SI_UNIT ( $, .STERADIAN. ) SOLID_ANGLE_UNIT ( ) );
#115 = DIRECTION ( 'NONE',  ( -0.000000000000000000, -1.000000000000000000, -0.000000000000000000 ) ) ;
#116 = PRODUCT_DEFINITION ( 'UNKNOWN', '', #16, #85 ) ;
#117 = CARTESIAN_POINT ( 'NONE',  ( 4.592425496802575451E-17, 0.000000000000000000, 0.3750000000000000555 ) ) ;
#118 = DIMENSIONAL_EXPONENTS ( 1.000000000000000000, 0.000000000000000000, 0.000000000000000000, 0.000000000000000000, 0.000000000000000000, 0.000000000000000000, 0.000000000000000000 ) ;
#119 = PRESENTATION_STYLE_ASSIGNMENT (( #86 ) ) ;
#120 = DIRECTION ( 'NONE',  ( 0.000000000000000000, 0.000000000000000000, -1.000000000000000000 ) ) ;
#121 = DIRECTION ( 'NONE',  ( -1.000000000000000000, 0.000000000000000000, 0.000000000000000000 ) ) ;
#122 = FACE_OUTER_BOUND ( 'NONE', #105, .T. ) ;
#123 = AXIS2_PLACEMENT_3D ( 'NONE', #75, #146, #120 ) ;
#124 = ORIENTED_EDGE ( 'NONE', *, *, #207, .F. ) ;
#125 = SURFACE_SIDE_STYLE ('',( #265 ) ) ;
#126 = APPLICATION_PROTOCOL_DEFINITION ( 'draft international standard', 'automotive_design', 1998, #150 ) ;
#127 = ORIENTED_EDGE ( 'NONE', *, *, #12, .F. ) ;
#128 = MECHANICAL_DESIGN_GEOMETRIC_PRESENTATION_REPRESENTATION (  '', ( #35 ), #52 ) ;
#129 =( NAMED_UNIT ( * ) PLANE_ANGLE_UNIT ( ) SI_UNIT ( $, .RADIAN. ) );
#130 = ORIENTED_EDGE ( 'NONE', *, *, #95, .T. ) ;
#131 = CARTESIAN_POINT ( 'NONE',  ( -0.3749999999999996114, 4.000000000000000000, 0.000000000000000000 ) ) ;
#132 = VERTEX_POINT ( 'NONE', #83 ) ;
#133 = EDGE_LOOP ( 'NONE', ( #31, #160, #288, #222 ) ) ;
#134 =( CONVERSION_BASED_UNIT ( 'INCH', #219 ) LENGTH_UNIT ( ) NAMED_UNIT ( #145 ) );
#135 =( GEOMETRIC_REPRESENTATION_CONTEXT ( 3 ) GLOBAL_UNCERTAINTY_ASSIGNED_CONTEXT ( ( #260 ) ) GLOBAL_UNIT_ASSIGNED_CONTEXT ( ( #99, #57, #270 ) ) REPRESENTATION_CONTEXT ( 'NONE', 'WORKASPACE' ) );
#136 = DIMENSIONAL_EXPONENTS ( 1.000000000000000000, 0.000000000000000000, 0.000000000000000000, 0.000000000000000000, 0.000000000000000000, 0.000000000000000000, 0.000000000000000000 ) ;
#137 = FILL_AREA_STYLE_COLOUR ( '', #203 ) ;
#138 = CARTESIAN_POINT ( 'NONE',  ( 0.000000000000000000, 0.000000000000000000, -0.3750000000000000555 ) ) ;
#139 = CARTESIAN_POINT ( 'NONE',  ( 0.3750000000000000555, 4.000000000000000000, 0.000000000000000000 ) ) ;
#140 = FILL_AREA_STYLE ('',( #137 ) ) ;
#141 = DIMENSIONAL_EXPONENTS ( 1.000000000000000000, 0.000000000000000000, 0.000000000000000000, 0.000000000000000000, 0.000000000000000000, 0.000000000000000000, 0.000000000000000000 ) ;
#142 =( GEOMETRIC_REPRESENTATION_CONTEXT ( 3 ) GLOBAL_UNCERTAINTY_ASSIGNED_CONTEXT ( ( #287 ) ) GLOBAL_UNIT_ASSIGNED_CONTEXT ( ( #242, #143, #164 ) ) REPRESENTATION_CONTEXT ( 'NONE', 'WORKASPACE' ) );
#143 =( NAMED_UNIT ( * ) PLANE_ANGLE_UNIT ( ) SI_UNIT ( $, .RADIAN. ) );
#144 = DIRECTION ( 'NONE',  ( -0.000000000000000000, -1.000000000000000000, -0.000000000000000000 ) ) ;
#145 = DIMENSIONAL_EXPONENTS ( 1.000000000000000000, 0.000000000000000000, 0.000000000000000000, 0.000000000000000000, 0.000000000000000000, 0.000000000000000000, 0.000000000000000000 ) ;
#146 = DIRECTION ( 'NONE',  ( 0.000000000000000000, -1.000000000000000000, -0.000000000000000000 ) ) ;
#147 = CARTESIAN_POINT ( 'NONE',  ( -3.032960542342103792E-32, 1.625000000000000000, 0.000000000000000000 ) ) ;
#148 = UNCERTAINTY_MEASURE_WITH_UNIT (LENGTH_MEASURE( 1.000000000000000082E-05 ), #212, 'distance_accuracy_value', 'NONE');
#149 = AXIS2_PLACEMENT_3D ( 'NONE', #37, #307, #208 ) ;
#150 = APPLICATION_CONTEXT ( 'automotive_design' ) ;
#151 = EDGE_LOOP ( 'NONE', ( #130, #228 ) ) ;
#152 = LINE ( 'NONE', #131, #299 ) ;
#153 = VERTEX_POINT ( 'NONE', #181 ) ;
#154 = VERTEX_POINT ( 'NONE', #273 ) ;
#155 = DIRECTION ( 'NONE',  ( 1.031281515071456046E-16, 1.000000000000000000, -0.000000000000000000 ) ) ;
#156 = CIRCLE ( 'NONE', #191, 0.3749999999999997780 ) ;
#157 = STYLED_ITEM ( 'NONE', ( #206 ), #103 ) ;
#158 = EDGE_LOOP ( 'NONE', ( #244, #271, #4, #107 ) ) ;
#159 = EDGE_CURVE ( 'NONE', #153, #34, #1, .T. ) ;
#160 = ORIENTED_EDGE ( 'NONE', *, *, #159, .T. ) ;
#161 = DIRECTION ( 'NONE',  ( 1.031281515071456169E-16, 1.000000000000000000, -0.000000000000000000 ) ) ;
#162 = CARTESIAN_POINT ( 'NONE',  ( 0.000000000000000000, 0.000000000000000000, 0.000000000000000000 ) ) ;
#163 = CIRCLE ( 'NONE', #46, 0.3750000000000000555 ) ;
#164 =( NAMED_UNIT ( * ) SI_UNIT ( $, .STERADIAN. ) SOLID_ANGLE_UNIT ( ) );
#165 = UNCERTAINTY_MEASURE_WITH_UNIT (LENGTH_MEASURE( 1.000000000000000082E-05 ), #112, 'distance_accuracy_value', 'NONE');
#166 = ADVANCED_FACE ( 'NONE', ( #184 ), #61, .T. ) ;
#167 = FACE_OUTER_BOUND ( 'NONE', #20, .T. ) ;
#168 =( GEOMETRIC_REPRESENTATION_CONTEXT ( 3 ) GLOBAL_UNCERTAINTY_ASSIGNED_CONTEXT ( ( #67 ) ) GLOBAL_UNIT_ASSIGNED_CONTEXT ( ( #134, #9, #272 ) ) REPRESENTATION_CONTEXT ( 'NONE', 'WORKASPACE' ) );
#169 = AXIS2_PLACEMENT_3D ( 'NONE', #259, #309, #121 ) ;
#170 = PRESENTATION_STYLE_ASSIGNMENT (( #303 ) ) ;
#171 = DIMENSIONAL_EXPONENTS ( 1.000000000000000000, 0.000000000000000000, 0.000000000000000000, 0.000000000000000000, 0.000000000000000000, 0.000000000000000000, 0.000000000000000000 ) ;
#172 = DIRECTION ( 'NONE',  ( -1.031281515071456169E-16, -1.000000000000000000, 0.000000000000000000 ) ) ;
#173 = LINE ( 'NONE', #255, #15 ) ;
#174 = CYLINDRICAL_SURFACE ( 'NONE', #64, 0.3749999999999998890 ) ;
#175 =( LENGTH_UNIT ( ) NAMED_UNIT ( * ) SI_UNIT ( $, .METRE. ) );
#176 = COLOUR_RGB ( '',1.000000000000000000, 0.000000000000000000, 0.000000000000000000 ) ;
#177 = PRESENTATION_LAYER_ASSIGNMENT (  '', '', ( #157 ) ) ;
#178 = CARTESIAN_POINT ( 'NONE',  ( 4.592425496802575451E-17, 0.000000000000000000, 0.3750000000000000555 ) ) ;
#179 = VECTOR ( 'NONE', #27, 39.37007874015748143 ) ;
#180 = SURFACE_STYLE_USAGE ( .BOTH. , #125 ) ;
#181 = CARTESIAN_POINT ( 'NONE',  ( 0.3750000000000000555, 1.625000000000000000, 4.592425496802573602E-17 ) ) ;
#182 = MECHANICAL_DESIGN_GEOMETRIC_PRESENTATION_REPRESENTATION (  '', ( #274 ), #168 ) ;
#183 = AXIS2_PLACEMENT_3D ( 'NONE', #62, #248, #267 ) ;
#184 = FACE_OUTER_BOUND ( 'NONE', #96, .T. ) ;
#185 =( LENGTH_UNIT ( ) NAMED_UNIT ( * ) SI_UNIT ( $, .METRE. ) );
#186 = FILL_AREA_STYLE_COLOUR ( '', #300 ) ;
#187 = DIRECTION ( 'NONE',  ( -1.000000000000000000, 0.000000000000000000, 0.000000000000000000 ) ) ;
#188 = LENGTH_MEASURE_WITH_UNIT ( LENGTH_MEASURE( 0.02539999999999999897 ), #284 );
#189 = CARTESIAN_POINT ( 'NONE',  ( 0.000000000000000000, 1.625000000000000000, 0.000000000000000000 ) ) ;
#190 = DIRECTION ( 'NONE',  ( -1.000000000000000000, 0.000000000000000000, 0.000000000000000000 ) ) ;
#191 = AXIS2_PLACEMENT_3D ( 'NONE', #306, #239, #187 ) ;
#192 = DIRECTION ( 'NONE',  ( -1.000000000000000000, 1.031281515071456169E-16, 0.000000000000000000 ) ) ;
#193 = MECHANICAL_DESIGN_GEOMETRIC_PRESENTATION_REPRESENTATION (  '', ( #113 ), #243 ) ;
#194 = LENGTH_MEASURE_WITH_UNIT ( LENGTH_MEASURE( 0.02539999999999999897 ), #258 );
#195 = CIRCLE ( 'NONE', #45, 0.3749999999999997780 ) ;
#196 = AXIS2_PLACEMENT_3D ( 'NONE', #162, #252, #69 ) ;
#197 = DIRECTION ( 'NONE',  ( 0.000000000000000000, 0.000000000000000000, -1.000000000000000000 ) ) ;
#198 = CYLINDRICAL_SURFACE ( 'NONE', #72, 0.3750000000000000555 ) ;
#199 = ORIENTED_EDGE ( 'NONE', *, *, #227, .T. ) ;
#200 = FILL_AREA_STYLE_COLOUR ( '', #176 ) ;
#201 = ORIENTED_EDGE ( 'NONE', *, *, #293, .F. ) ;
#202 = FILL_AREA_STYLE ('',( #253 ) ) ;
#203 = COLOUR_RGB ( '',1.000000000000000000, 0.000000000000000000, 0.000000000000000000 ) ;
#204 =( NAMED_UNIT ( * ) PLANE_ANGLE_UNIT ( ) SI_UNIT ( $, .RADIAN. ) );
#205 = FILL_AREA_STYLE ('',( #186 ) ) ;
#206 = PRESENTATION_STYLE_ASSIGNMENT (( #235 ) ) ;
#207 = EDGE_CURVE ( 'NONE', #78, #268, #283, .T. ) ;
#208 = DIRECTION ( 'NONE',  ( 0.000000000000000000, -0.000000000000000000, 1.000000000000000000 ) ) ;
#209 = FILL_AREA_STYLE ('',( #249 ) ) ;
#210 = PLANE ( 'NONE',  #305 ) ;
#211 = CIRCLE ( 'NONE', #196, 0.3750000000000000555 ) ;
#212 =( CONVERSION_BASED_UNIT ( 'INCH', #76 ) LENGTH_UNIT ( ) NAMED_UNIT ( #118 ) );
#213 = DIMENSIONAL_EXPONENTS ( 1.000000000000000000, 0.000000000000000000, 0.000000000000000000, 0.000000000000000000, 0.000000000000000000, 0.000000000000000000, 0.000000000000000000 ) ;
#214 = DIRECTION ( 'NONE',  ( -0.000000000000000000, -1.000000000000000000, -0.000000000000000000 ) ) ;
#215 = PRESENTATION_LAYER_ASSIGNMENT (  '', '', ( #250 ) ) ;
#216 = PRODUCT_RELATED_PRODUCT_CATEGORY ( 'part', '', ( #276 ) ) ;
#217 = CARTESIAN_POINT ( 'NONE',  ( 0.000000000000000000, 0.000000000000000000, 0.000000000000000000 ) ) ;
#218 = VERTEX_POINT ( 'NONE', #138 ) ;
#219 = LENGTH_MEASURE_WITH_UNIT ( LENGTH_MEASURE( 0.02539999999999999897 ), #77 );
#220 = SHAPE_DEFINITION_REPRESENTATION ( #81, #263 ) ;
#221 = CIRCLE ( 'NONE', #256, 0.3750000000000000555 ) ;
#222 = ORIENTED_EDGE ( 'NONE', *, *, #48, .F. ) ;
#223 = MECHANICAL_DESIGN_GEOMETRIC_PRESENTATION_REPRESENTATION (  '', ( #65 ), #135 ) ;
#224 = ORIENTED_EDGE ( 'NONE', *, *, #12, .T. ) ;
#225 = LENGTH_MEASURE_WITH_UNIT ( LENGTH_MEASURE( 0.02539999999999999897 ), #264 );
#226 = ORIENTED_EDGE ( 'NONE', *, *, #302, .F. ) ;
#227 = EDGE_CURVE ( 'NONE', #78, #154, #295, .T. ) ;
#228 = ORIENTED_EDGE ( 'NONE', *, *, #51, .T. ) ;
#229 = PRESENTATION_LAYER_ASSIGNMENT (  '', '', ( #274 ) ) ;
#230 = DIRECTION ( 'NONE',  ( -1.000000000000000000, 0.000000000000000000, 0.000000000000000000 ) ) ;
#231 = VECTOR ( 'NONE', #41, 39.37007874015748143 ) ;
#232 = SURFACE_SIDE_STYLE ('',( #238 ) ) ;
#233 = COLOUR_RGB ( '',1.000000000000000000, 0.000000000000000000, 0.000000000000000000 ) ;
#234 = PRESENTATION_LAYER_ASSIGNMENT (  '', '', ( #35 ) ) ;
#235 = SURFACE_STYLE_USAGE ( .BOTH. , #39 ) ;
#236 = DIRECTION ( 'NONE',  ( 1.000000000000000000, 0.000000000000000000, 0.000000000000000000 ) ) ;
#237 = CARTESIAN_POINT ( 'NONE',  ( -0.3750000000000000555, 1.625000000000000000, 0.000000000000000000 ) ) ;
#238 = SURFACE_STYLE_FILL_AREA ( #140 ) ;
#239 = DIRECTION ( 'NONE',  ( 1.031281515071456046E-16, 1.000000000000000000, -0.000000000000000000 ) ) ;
#240 = DIRECTION ( 'NONE',  ( 0.000000000000000000, 0.000000000000000000, -1.000000000000000000 ) ) ;
#241 = CARTESIAN_POINT ( 'NONE',  ( 0.3750000000000001665, 4.000000000000000000, 4.592425496802572986E-17 ) ) ;
#242 =( CONVERSION_BASED_UNIT ( 'INCH', #194 ) LENGTH_UNIT ( ) NAMED_UNIT ( #141 ) );
#243 =( GEOMETRIC_REPRESENTATION_CONTEXT ( 3 ) GLOBAL_UNCERTAINTY_ASSIGNED_CONTEXT ( ( #19 ) ) GLOBAL_UNIT_ASSIGNED_CONTEXT ( ( #275, #129, #10 ) ) REPRESENTATION_CONTEXT ( 'NONE', 'WORKASPACE' ) );
#244 = ORIENTED_EDGE ( 'NONE', *, *, #302, .T. ) ;
#245 = CARTESIAN_POINT ( 'NONE',  ( 2.449293598294707400E-16, 4.000000000000000000, 0.000000000000000000 ) ) ;
#246 = EDGE_LOOP ( 'NONE', ( #29, #80, #127, #101 ) ) ;
#247 = EDGE_LOOP ( 'NONE', ( #201, #262 ) ) ;
#248 = DIRECTION ( 'NONE',  ( 1.031281515071456046E-16, 1.000000000000000000, -0.000000000000000000 ) ) ;
#249 = FILL_AREA_STYLE_COLOUR ( '', #269 ) ;
#250 = STYLED_ITEM ( 'NONE', ( #119 ), #266 ) ;
#251 =( GEOMETRIC_REPRESENTATION_CONTEXT ( 3 ) GLOBAL_UNCERTAINTY_ASSIGNED_CONTEXT ( ( #165 ) ) GLOBAL_UNIT_ASSIGNED_CONTEXT ( ( #112, #301, #114 ) ) REPRESENTATION_CONTEXT ( 'NONE', 'WORKASPACE' ) );
#252 = DIRECTION ( 'NONE',  ( -0.000000000000000000, -1.000000000000000000, -0.000000000000000000 ) ) ;
#253 = FILL_AREA_STYLE_COLOUR ( '', #233 ) ;
#254 = PLANE ( 'NONE',  #123 ) ;
#255 = CARTESIAN_POINT ( 'NONE',  ( 0.000000000000000000, 0.000000000000000000, -0.3750000000000000555 ) ) ;
#256 = AXIS2_PLACEMENT_3D ( 'NONE', #291, #79, #110 ) ;
#257 =( GEOMETRIC_REPRESENTATION_CONTEXT ( 3 ) GLOBAL_UNCERTAINTY_ASSIGNED_CONTEXT ( ( #148 ) ) GLOBAL_UNIT_ASSIGNED_CONTEXT ( ( #212, #204, #33 ) ) REPRESENTATION_CONTEXT ( 'NONE', 'WORKASPACE' ) );
#258 =( LENGTH_UNIT ( ) NAMED_UNIT ( * ) SI_UNIT ( $, .METRE. ) );
#259 = CARTESIAN_POINT ( 'NONE',  ( 2.449293598294707400E-16, 4.000000000000000000, 0.000000000000000000 ) ) ;
#260 = UNCERTAINTY_MEASURE_WITH_UNIT (LENGTH_MEASURE( 1.000000000000000082E-05 ), #99, 'distance_accuracy_value', 'NONE');
#261 = ADVANCED_FACE ( 'NONE', ( #167 ), #210, .F. ) ;
#262 = ORIENTED_EDGE ( 'NONE', *, *, #159, .F. ) ;
#263 = ADVANCED_BREP_SHAPE_REPRESENTATION ( '00660', ( #103, #108, #21 ), #142 ) ;
#264 =( LENGTH_UNIT ( ) NAMED_UNIT ( * ) SI_UNIT ( $, .METRE. ) );
#265 = SURFACE_STYLE_FILL_AREA ( #292 ) ;
#266 = ADVANCED_FACE ( 'NONE', ( #68 ), #254, .T. ) ;
#267 = DIRECTION ( 'NONE',  ( -1.000000000000000000, 0.000000000000000000, 0.000000000000000000 ) ) ;
#268 = VERTEX_POINT ( 'NONE', #178 ) ;
#269 = COLOUR_RGB ( '',0.7921568627450980005, 0.8196078431372548767, 0.9333333333333333481 ) ;
#270 =( NAMED_UNIT ( * ) SI_UNIT ( $, .STERADIAN. ) SOLID_ANGLE_UNIT ( ) );
#271 = ORIENTED_EDGE ( 'NONE', *, *, #207, .T. ) ;
#272 =( NAMED_UNIT ( * ) SI_UNIT ( $, .STERADIAN. ) SOLID_ANGLE_UNIT ( ) );
#273 = CARTESIAN_POINT ( 'NONE',  ( 0.000000000000000000, 1.625000000000000000, -0.3750000000000000555 ) ) ;
#274 = STYLED_ITEM ( 'NONE', ( #102 ), #42 ) ;
#275 =( CONVERSION_BASED_UNIT ( 'INCH', #18 ) LENGTH_UNIT ( ) NAMED_UNIT ( #136 ) );
#276 = PRODUCT ( '00660', '00660', '', ( #55 ) ) ;
#277 = ADVANCED_FACE ( 'NONE', ( #50 ), #286, .T. ) ;
#278 = LENGTH_MEASURE_WITH_UNIT ( LENGTH_MEASURE( 0.02539999999999999897 ), #175 );
#279 = FACE_OUTER_BOUND ( 'NONE', #247, .T. ) ;
#280 = AXIS2_PLACEMENT_3D ( 'NONE', #296, #60, #197 ) ;
#281 = FILL_AREA_STYLE ('',( #63 ) ) ;
#282 = FACE_OUTER_BOUND ( 'NONE', #133, .T. ) ;
#283 = LINE ( 'NONE', #117, #231 ) ;
#284 =( LENGTH_UNIT ( ) NAMED_UNIT ( * ) SI_UNIT ( $, .METRE. ) );
#285 = CARTESIAN_POINT ( 'NONE',  ( 0.000000000000000000, 1.625000000000000000, 0.000000000000000000 ) ) ;
#286 = CYLINDRICAL_SURFACE ( 'NONE', #169, 0.3749999999999998890 ) ;
#287 = UNCERTAINTY_MEASURE_WITH_UNIT (LENGTH_MEASURE( 1.000000000000000082E-05 ), #242, 'distance_accuracy_value', 'NONE');
#288 = ORIENTED_EDGE ( 'NONE', *, *, #90, .T. ) ;
#289 = PRESENTATION_STYLE_ASSIGNMENT (( #180 ) ) ;
#290 = EDGE_CURVE ( 'NONE', #153, #132, #94, .T. ) ;
#291 = CARTESIAN_POINT ( 'NONE',  ( 0.000000000000000000, 0.000000000000000000, 0.000000000000000000 ) ) ;
#292 = FILL_AREA_STYLE ('',( #200 ) ) ;
#293 = EDGE_CURVE ( 'NONE', #34, #153, #14, .T. ) ;
#294 = SURFACE_SIDE_STYLE ('',( #104 ) ) ;
#295 = CIRCLE ( 'NONE', #109, 0.3750000000000000555 ) ;
#296 = CARTESIAN_POINT ( 'NONE',  ( 0.000000000000000000, 0.000000000000000000, 0.000000000000000000 ) ) ;
#297 = SURFACE_STYLE_FILL_AREA ( #209 ) ;
#298 = PRESENTATION_STYLE_ASSIGNMENT (( #84 ) ) ;
#299 = VECTOR ( 'NONE', #161, 39.37007874015748143 ) ;
#300 = COLOUR_RGB ( '',0.7921568627450980005, 0.8196078431372548767, 0.9333333333333333481 ) ;
#301 =( NAMED_UNIT ( * ) PLANE_ANGLE_UNIT ( ) SI_UNIT ( $, .RADIAN. ) );
#302 = EDGE_CURVE ( 'NONE', #154, #78, #163, .T. ) ;
#303 = SURFACE_STYLE_USAGE ( .BOTH. , #36 ) ;
#304 = SURFACE_STYLE_FILL_AREA ( #281 ) ;
#305 = AXIS2_PLACEMENT_3D ( 'NONE', #139, #172, #70 ) ;
#306 = CARTESIAN_POINT ( 'NONE',  ( 2.449293598294707400E-16, 4.000000000000000000, 0.000000000000000000 ) ) ;
#307 = DIRECTION ( 'NONE',  ( 0.000000000000000000, 1.000000000000000000, 0.000000000000000000 ) ) ;
#308 = DIMENSIONAL_EXPONENTS ( 1.000000000000000000, 0.000000000000000000, 0.000000000000000000, 0.000000000000000000, 0.000000000000000000, 0.000000000000000000, 0.000000000000000000 ) ;
#309 = DIRECTION ( 'NONE',  ( 1.031281515071456046E-16, 1.000000000000000000, -0.000000000000000000 ) ) ;
ENDSEC;
END-ISO-10303-21;
