ISO-10303-21;
HEADER;
FILE_DESCRIPTION (( 'STEP AP214' ),
    '1' );
FILE_NAME ('83364.STEP',
    '2023-06-30T23:05:59',
    ( '' ),
    ( '' ),
    'SwSTEP 2.0',
    'SolidWorks 2023',
    '' );
FILE_SCHEMA (( 'AUTOMOTIVE_DESIGN' ));
ENDSEC;

DATA;
#1 = DIRECTION ( 'NONE',  ( -1.000000000000000000, 0.000000000000000000, 0.000000000000000000 ) ) ;
#2 = PRESENTATION_LAYER_ASSIGNMENT (  '', '', ( #138 ) ) ;
#3 = STYLED_ITEM ( 'NONE', ( #180 ), #128 ) ;
#4 = SURFACE_STYLE_USAGE ( .BOTH. , #175 ) ;
#5 = AXIS2_PLACEMENT_3D ( 'NONE', #150, #278, #331 ) ;
#6 = VERTEX_POINT ( 'NONE', #181 ) ;
#7 = LINE ( 'NONE', #353, #54 ) ;
#8 = CARTESIAN_POINT ( 'NONE',  ( 0.000000000000000000, 0.1562500000000000000, 0.000000000000000000 ) ) ;
#9 = CARTESIAN_POINT ( 'NONE',  ( 5.298903142431193783E-16, 0.4374999999999998890, 0.000000000000000000 ) ) ;
#10 = DIRECTION ( 'NONE',  ( 0.000000000000000000, 0.000000000000000000, -1.000000000000000000 ) ) ;
#11 = EDGE_LOOP ( 'NONE', ( #205, #102, #18, #266, #338 ) ) ;
#12 = ORIENTED_EDGE ( 'NONE', *, *, #216, .F. ) ;
#13 = PRODUCT_CONTEXT ( 'NONE', #365, 'mechanical' ) ;
#14 = FACE_OUTER_BOUND ( 'NONE', #135, .T. ) ;
#15 = PRESENTATION_LAYER_ASSIGNMENT (  '', '', ( #118 ) ) ;
#16 = DIRECTION ( 'NONE',  ( 1.224646799147353207E-16, -0.000000000000000000, 1.000000000000000000 ) ) ;
#17 = CARTESIAN_POINT ( 'NONE',  ( 0.000000000000000000, 0.1562500000000000000, 0.000000000000000000 ) ) ;
#18 = ORIENTED_EDGE ( 'NONE', *, *, #261, .T. ) ;
#19 = CARTESIAN_POINT ( 'NONE',  ( 0.000000000000000000, 0.4374999999999998890, 0.000000000000000000 ) ) ;
#20 = MANIFOLD_SOLID_BREP ( 'Revolve - Cutting Edge', #101 ) ;
#21 = CARTESIAN_POINT ( 'NONE',  ( -0.1562500000000000000, 0.1562500000000000000, 1.913510623667738539E-17 ) ) ;
#22 = AXIS2_PLACEMENT_3D ( 'NONE', #43, #243, #304 ) ;
#23 = CARTESIAN_POINT ( 'NONE',  ( 3.673940397442059375E-16, 2.000000000000000000, 0.000000000000000000 ) ) ;
#24 =( CONVERSION_BASED_UNIT ( 'INCH', #285 ) LENGTH_UNIT ( ) NAMED_UNIT ( #286 ) );
#25 = UNCERTAINTY_MEASURE_WITH_UNIT (LENGTH_MEASURE( 1.000000000000000082E-05 ), #120, 'distance_accuracy_value', 'NONE');
#26 = DIMENSIONAL_EXPONENTS ( 1.000000000000000000, 0.000000000000000000, 0.000000000000000000, 0.000000000000000000, 0.000000000000000000, 0.000000000000000000, 0.000000000000000000 ) ;
#27 = DIRECTION ( 'NONE',  ( 0.000000000000000000, 1.000000000000000000, 0.000000000000000000 ) ) ;
#28 =( NAMED_UNIT ( * ) SI_UNIT ( $, .STERADIAN. ) SOLID_ANGLE_UNIT ( ) );
#29 = UNCERTAINTY_MEASURE_WITH_UNIT (LENGTH_MEASURE( 1.000000000000000082E-05 ), #24, 'distance_accuracy_value', 'NONE');
#30 =( CONVERSION_BASED_UNIT ( 'INCH', #290 ) LENGTH_UNIT ( ) NAMED_UNIT ( #315 ) );
#31 = ADVANCED_FACE ( 'NONE', ( #204 ), #325, .T. ) ;
#32 = SURFACE_STYLE_USAGE ( .BOTH. , #292 ) ;
#33 = ADVANCED_BREP_SHAPE_REPRESENTATION ( '83364', ( #20, #269, #5 ), #303 ) ;
#34 = DIRECTION ( 'NONE',  ( -0.000000000000000000, -1.000000000000000000, -0.000000000000000000 ) ) ;
#35 = SURFACE_SIDE_STYLE ('',( #235 ) ) ;
#36 = VECTOR ( 'NONE', #136, 39.37007874015748143 ) ;
#37 = CARTESIAN_POINT ( 'NONE',  ( 0.000000000000000000, 0.1562500000000000000, 0.000000000000000000 ) ) ;
#38 = CARTESIAN_POINT ( 'NONE',  ( 0.000000000000000000, 0.4374999999999998890, 0.000000000000000000 ) ) ;
#39 = EDGE_LOOP ( 'NONE', ( #350, #184, #73, #112 ) ) ;
#40 = EDGE_CURVE ( 'NONE', #296, #253, #61, .T. ) ;
#41 = DIRECTION ( 'NONE',  ( 0.000000000000000000, 0.000000000000000000, -1.000000000000000000 ) ) ;
#42 = CIRCLE ( 'NONE', #99, 0.1562499999999999445 ) ;
#43 = CARTESIAN_POINT ( 'NONE',  ( 0.000000000000000000, 0.000000000000000000, 0.000000000000000000 ) ) ;
#44 = UNCERTAINTY_MEASURE_WITH_UNIT (LENGTH_MEASURE( 1.000000000000000082E-05 ), #95, 'distance_accuracy_value', 'NONE');
#45 = DIRECTION ( 'NONE',  ( -1.039976156793046169E-16, 1.000000000000000000, -0.000000000000000000 ) ) ;
#46 = DIRECTION ( 'NONE',  ( 0.000000000000000000, 0.000000000000000000, 1.000000000000000000 ) ) ;
#47 = DIRECTION ( 'NONE',  ( 1.000000000000000000, 0.000000000000000000, -1.224646799147353207E-16 ) ) ;
#48 = PRESENTATION_LAYER_ASSIGNMENT (  '', '', ( #139 ) ) ;
#49 = UNCERTAINTY_MEASURE_WITH_UNIT (LENGTH_MEASURE( 1.000000000000000082E-05 ), #115, 'distance_accuracy_value', 'NONE');
#50 = DIRECTION ( 'NONE',  ( 1.000000000000000000, 1.039976156793046169E-16, 0.000000000000000000 ) ) ;
#51 = EDGE_CURVE ( 'NONE', #327, #174, #342, .T. ) ;
#52 = SURFACE_SIDE_STYLE ('',( #71 ) ) ;
#53 = CIRCLE ( 'NONE', #348, 0.1562499999999999445 ) ;
#54 = VECTOR ( 'NONE', #297, 39.37007874015748143 ) ;
#55 = EDGE_CURVE ( 'NONE', #130, #179, #169, .T. ) ;
#56 = CARTESIAN_POINT ( 'NONE',  ( 0.000000000000000000, 0.000000000000000000, -0.1562499999999999445 ) ) ;
#57 = CARTESIAN_POINT ( 'NONE',  ( -0.1562499999999991951, 2.000000000000000000, 0.000000000000000000 ) ) ;
#58 = LINE ( 'NONE', #177, #230 ) ;
#59 = ORIENTED_EDGE ( 'NONE', *, *, #140, .F. ) ;
#60 = DIRECTION ( 'NONE',  ( 0.000000000000000000, 0.000000000000000000, -1.000000000000000000 ) ) ;
#61 = CIRCLE ( 'NONE', #197, 0.1562499999999999445 ) ;
#62 = ORIENTED_EDGE ( 'NONE', *, *, #216, .T. ) ;
#63 =( GEOMETRIC_REPRESENTATION_CONTEXT ( 3 ) GLOBAL_UNCERTAINTY_ASSIGNED_CONTEXT ( ( #362 ) ) GLOBAL_UNIT_ASSIGNED_CONTEXT ( ( #193, #347, #103 ) ) REPRESENTATION_CONTEXT ( 'NONE', 'WORKASPACE' ) );
#64 = EDGE_CURVE ( 'NONE', #327, #248, #58, .T. ) ;
#65 = DIRECTION ( 'NONE',  ( -1.039976156793046169E-16, 1.000000000000000000, -0.000000000000000000 ) ) ;
#66 =( GEOMETRIC_REPRESENTATION_CONTEXT ( 3 ) GLOBAL_UNCERTAINTY_ASSIGNED_CONTEXT ( ( #371 ) ) GLOBAL_UNIT_ASSIGNED_CONTEXT ( ( #110, #93, #232 ) ) REPRESENTATION_CONTEXT ( 'NONE', 'WORKASPACE' ) );
#67 = COLOUR_RGB ( '',0.7921568627450980005, 0.8196078431372548767, 0.9333333333333333481 ) ;
#68 = DIRECTION ( 'NONE',  ( 0.000000000000000000, 0.000000000000000000, -1.000000000000000000 ) ) ;
#69 = DIRECTION ( 'NONE',  ( -1.000000000000000000, 0.000000000000000000, 0.000000000000000000 ) ) ;
#70 = COLOUR_RGB ( '',1.000000000000000000, 0.000000000000000000, 0.000000000000000000 ) ;
#71 = SURFACE_STYLE_FILL_AREA ( #364 ) ;
#72 = PRODUCT_RELATED_PRODUCT_CATEGORY ( 'part', '', ( #221 ) ) ;
#73 = ORIENTED_EDGE ( 'NONE', *, *, #200, .F. ) ;
#74 = CARTESIAN_POINT ( 'NONE',  ( 3.673940397442059375E-16, 2.000000000000000000, 0.000000000000000000 ) ) ;
#75 = ORIENTED_EDGE ( 'NONE', *, *, #258, .F. ) ;
#76 =( LENGTH_UNIT ( ) NAMED_UNIT ( * ) SI_UNIT ( $, .METRE. ) );
#77 = AXIS2_PLACEMENT_3D ( 'NONE', #233, #270, #117 ) ;
#78 = DIRECTION ( 'NONE',  ( -1.000000000000000000, -1.039976156793046169E-16, 0.000000000000000000 ) ) ;
#79 = COLOUR_RGB ( '',1.000000000000000000, 0.000000000000000000, 0.000000000000000000 ) ;
#80 = AXIS2_PLACEMENT_3D ( 'NONE', #317, #27, #137 ) ;
#81 = FILL_AREA_STYLE ('',( #257 ) ) ;
#82 = PRESENTATION_STYLE_ASSIGNMENT (( #196 ) ) ;
#83 = FILL_AREA_STYLE ('',( #226 ) ) ;
#84 = AXIS2_PLACEMENT_3D ( 'NONE', #170, #65, #1 ) ;
#85 = PRESENTATION_LAYER_ASSIGNMENT (  '', '', ( #124 ) ) ;
#86 = AXIS2_PLACEMENT_3D ( 'NONE', #299, #46, #187 ) ;
#87 = DIRECTION ( 'NONE',  ( -1.039976156793046169E-16, 1.000000000000000000, -0.000000000000000000 ) ) ;
#88 = PRESENTATION_STYLE_ASSIGNMENT (( #4 ) ) ;
#89 = EDGE_LOOP ( 'NONE', ( #12, #215, #168, #171 ) ) ;
#90 = DIRECTION ( 'NONE',  ( -1.039976156793046169E-16, 1.000000000000000000, -0.000000000000000000 ) ) ;
#91 =( GEOMETRIC_REPRESENTATION_CONTEXT ( 3 ) GLOBAL_UNCERTAINTY_ASSIGNED_CONTEXT ( ( #25 ) ) GLOBAL_UNIT_ASSIGNED_CONTEXT ( ( #120, #240, #111 ) ) REPRESENTATION_CONTEXT ( 'NONE', 'WORKASPACE' ) );
#92 = FACE_OUTER_BOUND ( 'NONE', #11, .T. ) ;
#93 =( NAMED_UNIT ( * ) PLANE_ANGLE_UNIT ( ) SI_UNIT ( $, .RADIAN. ) );
#94 = EDGE_LOOP ( 'NONE', ( #242, #59 ) ) ;
#95 =( CONVERSION_BASED_UNIT ( 'INCH', #250 ) LENGTH_UNIT ( ) NAMED_UNIT ( #164 ) );
#96 =( CONVERSION_BASED_UNIT ( 'INCH', #332 ) LENGTH_UNIT ( ) NAMED_UNIT ( #131 ) );
#97 = CIRCLE ( 'NONE', #178, 0.1562499999999995559 ) ;
#98 = DIRECTION ( 'NONE',  ( -0.000000000000000000, -1.000000000000000000, -0.000000000000000000 ) ) ;
#99 = AXIS2_PLACEMENT_3D ( 'NONE', #37, #34, #237 ) ;
#100 = DIRECTION ( 'NONE',  ( 0.000000000000000000, 0.000000000000000000, -1.000000000000000000 ) ) ;
#101 = CLOSED_SHELL ( 'NONE', ( #31, #128, #267, #113, #361 ) ) ;
#102 = ORIENTED_EDGE ( 'NONE', *, *, #140, .T. ) ;
#103 =( NAMED_UNIT ( * ) SI_UNIT ( $, .STERADIAN. ) SOLID_ANGLE_UNIT ( ) );
#104 = DIMENSIONAL_EXPONENTS ( 1.000000000000000000, 0.000000000000000000, 0.000000000000000000, 0.000000000000000000, 0.000000000000000000, 0.000000000000000000, 0.000000000000000000 ) ;
#105 = MECHANICAL_DESIGN_GEOMETRIC_PRESENTATION_REPRESENTATION (  '', ( #118 ), #66 ) ;
#106 = CIRCLE ( 'NONE', #225, 0.1562500000000000000 ) ;
#107 = PRESENTATION_STYLE_ASSIGNMENT (( #32 ) ) ;
#108 = DIRECTION ( 'NONE',  ( -1.039976156793046169E-16, 1.000000000000000000, -0.000000000000000000 ) ) ;
#109 = SURFACE_SIDE_STYLE ('',( #134 ) ) ;
#110 =( CONVERSION_BASED_UNIT ( 'INCH', #173 ) LENGTH_UNIT ( ) NAMED_UNIT ( #194 ) );
#111 =( NAMED_UNIT ( * ) SI_UNIT ( $, .STERADIAN. ) SOLID_ANGLE_UNIT ( ) );
#112 = ORIENTED_EDGE ( 'NONE', *, *, #309, .F. ) ;
#113 = ADVANCED_FACE ( 'NONE', ( #92 ), #167, .T. ) ;
#114 = SPHERICAL_SURFACE ( 'NONE', #86, 0.1562500000000000000 ) ;
#115 =( CONVERSION_BASED_UNIT ( 'INCH', #295 ) LENGTH_UNIT ( ) NAMED_UNIT ( #104 ) );
#116 = CARTESIAN_POINT ( 'NONE',  ( 0.1562499999999999445, 0.4374999999999998890, 1.913510623667733608E-17 ) ) ;
#117 = DIRECTION ( 'NONE',  ( 1.000000000000000000, 0.000000000000000000, 0.000000000000000000 ) ) ;
#118 = STYLED_ITEM ( 'NONE', ( #145 ), #113 ) ;
#119 = EDGE_LOOP ( 'NONE', ( #282, #189, #354, #367, #207 ) ) ;
#120 =( CONVERSION_BASED_UNIT ( 'INCH', #262 ) LENGTH_UNIT ( ) NAMED_UNIT ( #26 ) );
#121 = DIRECTION ( 'NONE',  ( -0.000000000000000000, -1.000000000000000000, -0.000000000000000000 ) ) ;
#122 = EDGE_LOOP ( 'NONE', ( #157, #302 ) ) ;
#123 = APPLICATION_PROTOCOL_DEFINITION ( 'draft international standard', 'automotive_design', 1998, #357 ) ;
#124 = STYLED_ITEM ( 'NONE', ( #82 ), #267 ) ;
#125 = PRODUCT_DEFINITION_CONTEXT ( 'detailed design', #357, 'design' ) ;
#126 = CARTESIAN_POINT ( 'NONE',  ( 5.298903142431193783E-16, 0.4374999999999998890, 0.000000000000000000 ) ) ;
#127 = CIRCLE ( 'NONE', #271, 0.1562499999999999445 ) ;
#128 = ADVANCED_FACE ( 'NONE', ( #251 ), #337, .T. ) ;
#129 = PLANE ( 'NONE',  #254 ) ;
#130 = VERTEX_POINT ( 'NONE', #155 ) ;
#131 = DIMENSIONAL_EXPONENTS ( 1.000000000000000000, 0.000000000000000000, 0.000000000000000000, 0.000000000000000000, 0.000000000000000000, 0.000000000000000000, 0.000000000000000000 ) ;
#132 = AXIS2_PLACEMENT_3D ( 'NONE', #247, #98, #356 ) ;
#133 = EDGE_CURVE ( 'NONE', #211, #246, #53, .T. ) ;
#134 = SURFACE_STYLE_FILL_AREA ( #81 ) ;
#135 = EDGE_LOOP ( 'NONE', ( #324, #223 ) ) ;
#136 = DIRECTION ( 'NONE',  ( -0.000000000000000000, -1.000000000000000000, -0.000000000000000000 ) ) ;
#137 = DIRECTION ( 'NONE',  ( 0.000000000000000000, -0.000000000000000000, 1.000000000000000000 ) ) ;
#138 = STYLED_ITEM ( 'NONE', ( #107 ), #20 ) ;
#139 = STYLED_ITEM ( 'NONE', ( #88 ), #361 ) ;
#140 = EDGE_CURVE ( 'NONE', #179, #130, #161, .T. ) ;
#141 = DIRECTION ( 'NONE',  ( -0.000000000000000000, -1.000000000000000000, -0.000000000000000000 ) ) ;
#142 = ORIENTED_EDGE ( 'NONE', *, *, #51, .T. ) ;
#143 = FILL_AREA_STYLE ('',( #319 ) ) ;
#144 = FILL_AREA_STYLE ('',( #301 ) ) ;
#145 = PRESENTATION_STYLE_ASSIGNMENT (( #176 ) ) ;
#146 = ORIENTED_EDGE ( 'NONE', *, *, #149, .F. ) ;
#147 =( GEOMETRIC_REPRESENTATION_CONTEXT ( 3 ) GLOBAL_UNCERTAINTY_ASSIGNED_CONTEXT ( ( #49 ) ) GLOBAL_UNIT_ASSIGNED_CONTEXT ( ( #115, #241, #152 ) ) REPRESENTATION_CONTEXT ( 'NONE', 'WORKASPACE' ) );
#148 = PRESENTATION_LAYER_ASSIGNMENT (  '', '', ( #3 ) ) ;
#149 = EDGE_CURVE ( 'NONE', #253, #6, #214, .T. ) ;
#150 = CARTESIAN_POINT ( 'NONE',  ( 0.000000000000000000, 0.000000000000000000, 0.000000000000000000 ) ) ;
#151 = PRESENTATION_LAYER_ASSIGNMENT (  '', '', ( #310 ) ) ;
#152 =( NAMED_UNIT ( * ) SI_UNIT ( $, .STERADIAN. ) SOLID_ANGLE_UNIT ( ) );
#153 = FILL_AREA_STYLE_COLOUR ( '', #70 ) ;
#154 = CARTESIAN_POINT ( 'NONE',  ( 3.673940397442059375E-16, 2.000000000000000000, 0.000000000000000000 ) ) ;
#155 = CARTESIAN_POINT ( 'NONE',  ( 0.000000000000000000, 0.4374999999999998890, -0.1562499999999999445 ) ) ;
#156 = CARTESIAN_POINT ( 'NONE',  ( 1.913510623667738539E-17, 0.1562500000000000000, 0.1562499999999999445 ) ) ;
#157 = ORIENTED_EDGE ( 'NONE', *, *, #200, .T. ) ;
#158 = DIMENSIONAL_EXPONENTS ( 1.000000000000000000, 0.000000000000000000, 0.000000000000000000, 0.000000000000000000, 0.000000000000000000, 0.000000000000000000, 0.000000000000000000 ) ;
#159 = LINE ( 'NONE', #56, #36 ) ;
#160 = COLOUR_RGB ( '',0.7921568627450980005, 0.8196078431372548767, 0.9333333333333333481 ) ;
#161 = CIRCLE ( 'NONE', #276, 0.1562499999999999445 ) ;
#162 = CARTESIAN_POINT ( 'NONE',  ( 3.673940397442059375E-16, 2.000000000000000000, 0.000000000000000000 ) ) ;
#163 =( NAMED_UNIT ( * ) PLANE_ANGLE_UNIT ( ) SI_UNIT ( $, .RADIAN. ) );
#164 = DIMENSIONAL_EXPONENTS ( 1.000000000000000000, 0.000000000000000000, 0.000000000000000000, 0.000000000000000000, 0.000000000000000000, 0.000000000000000000, 0.000000000000000000 ) ;
#165 = SURFACE_STYLE_USAGE ( .BOTH. , #316 ) ;
#166 = DIRECTION ( 'NONE',  ( -1.000000000000000000, 0.000000000000000000, 0.000000000000000000 ) ) ;
#167 = CYLINDRICAL_SURFACE ( 'NONE', #132, 0.1562499999999999445 ) ;
#168 = ORIENTED_EDGE ( 'NONE', *, *, #40, .T. ) ;
#169 = CIRCLE ( 'NONE', #352, 0.1562499999999999445 ) ;
#170 = CARTESIAN_POINT ( 'NONE',  ( 5.298903142431193783E-16, 0.4374999999999998890, 0.000000000000000000 ) ) ;
#171 = ORIENTED_EDGE ( 'NONE', *, *, #149, .T. ) ;
#172 = SURFACE_STYLE_FILL_AREA ( #143 ) ;
#173 = LENGTH_MEASURE_WITH_UNIT ( LENGTH_MEASURE( 0.02539999999999999897 ), #298 );
#174 = VERTEX_POINT ( 'NONE', #306 ) ;
#175 = SURFACE_SIDE_STYLE ('',( #172 ) ) ;
#176 = SURFACE_STYLE_USAGE ( .BOTH. , #35 ) ;
#177 = CARTESIAN_POINT ( 'NONE',  ( 0.1562499999999998335, 2.000000000000000000, 1.913510623667732992E-17 ) ) ;
#178 = AXIS2_PLACEMENT_3D ( 'NONE', #154, #275, #190 ) ;
#179 = VERTEX_POINT ( 'NONE', #185 ) ;
#180 = PRESENTATION_STYLE_ASSIGNMENT (( #359 ) ) ;
#181 = CARTESIAN_POINT ( 'NONE',  ( -9.567553118338697316E-18, 0.000000000000000000, 0.000000000000000000 ) ) ;
#182 = ADVANCED_FACE ( 'NONE', ( #334 ), #249, .T. ) ;
#183 = DIRECTION ( 'NONE',  ( -1.000000000000000000, 0.000000000000000000, 0.000000000000000000 ) ) ;
#184 = ORIENTED_EDGE ( 'NONE', *, *, #64, .T. ) ;
#185 = CARTESIAN_POINT ( 'NONE',  ( 1.913510623667738539E-17, 0.4374999999999998890, 0.1562499999999999445 ) ) ;
#186 = COLOUR_RGB ( '',1.000000000000000000, 0.000000000000000000, 0.000000000000000000 ) ;
#187 = DIRECTION ( 'NONE',  ( 1.000000000000000000, 0.000000000000000000, 0.000000000000000000 ) ) ;
#188 = CARTESIAN_POINT ( 'NONE',  ( -1.913510623667739463E-17, 0.1562500000000000000, 0.000000000000000000 ) ) ;
#189 = ORIENTED_EDGE ( 'NONE', *, *, #349, .T. ) ;
#190 = DIRECTION ( 'NONE',  ( -1.000000000000000000, 0.000000000000000000, 0.000000000000000000 ) ) ;
#191 = CLOSED_SHELL ( 'NONE', ( #236, #222, #182, #195 ) ) ;
#192 = COLOUR_RGB ( '',1.000000000000000000, 0.000000000000000000, 0.000000000000000000 ) ;
#193 =( CONVERSION_BASED_UNIT ( 'INCH', #259 ) LENGTH_UNIT ( ) NAMED_UNIT ( #158 ) );
#194 = DIMENSIONAL_EXPONENTS ( 1.000000000000000000, 0.000000000000000000, 0.000000000000000000, 0.000000000000000000, 0.000000000000000000, 0.000000000000000000, 0.000000000000000000 ) ;
#195 = ADVANCED_FACE ( 'NONE', ( #311 ), #279, .F. ) ;
#196 = SURFACE_STYLE_USAGE ( .BOTH. , #109 ) ;
#197 = AXIS2_PLACEMENT_3D ( 'NONE', #8, #121, #60 ) ;
#198 = MECHANICAL_DESIGN_GEOMETRIC_PRESENTATION_REPRESENTATION (  '', ( #124 ), #63 ) ;
#199 = SURFACE_STYLE_FILL_AREA ( #83 ) ;
#200 = EDGE_CURVE ( 'NONE', #312, #248, #97, .T. ) ;
#201 = CIRCLE ( 'NONE', #336, 0.1562499999999993894 ) ;
#202 = CARTESIAN_POINT ( 'NONE',  ( -0.1562499999999990841, 2.000000000000000000, 0.000000000000000000 ) ) ;
#203 = DIRECTION ( 'NONE',  ( -0.000000000000000000, -1.000000000000000000, -0.000000000000000000 ) ) ;
#204 = FACE_OUTER_BOUND ( 'NONE', #218, .T. ) ;
#205 = ORIENTED_EDGE ( 'NONE', *, *, #349, .F. ) ;
#206 = CARTESIAN_POINT ( 'NONE',  ( 0.000000000000000000, 0.1562500000000000000, -0.1562499999999999445 ) ) ;
#207 = ORIENTED_EDGE ( 'NONE', *, *, #261, .F. ) ;
#208 = FACE_OUTER_BOUND ( 'NONE', #89, .T. ) ;
#209 = SURFACE_STYLE_USAGE ( .BOTH. , #322 ) ;
#210 =( LENGTH_UNIT ( ) NAMED_UNIT ( * ) SI_UNIT ( $, .METRE. ) );
#211 = VERTEX_POINT ( 'NONE', #156 ) ;
#212 = UNCERTAINTY_MEASURE_WITH_UNIT (LENGTH_MEASURE( 1.000000000000000082E-05 ), #30, 'distance_accuracy_value', 'NONE');
#213 = STYLED_ITEM ( 'NONE', ( #351 ), #31 ) ;
#214 = CIRCLE ( 'NONE', #294, 0.1562500000000000000 ) ;
#215 = ORIENTED_EDGE ( 'NONE', *, *, #321, .T. ) ;
#216 = EDGE_CURVE ( 'NONE', #246, #6, #106, .T. ) ;
#217 =( NAMED_UNIT ( * ) PLANE_ANGLE_UNIT ( ) SI_UNIT ( $, .RADIAN. ) );
#218 = EDGE_LOOP ( 'NONE', ( #234, #62, #146, #360 ) ) ;
#219 = DIRECTION ( 'NONE',  ( 0.000000000000000000, 0.000000000000000000, -1.000000000000000000 ) ) ;
#220 =( NAMED_UNIT ( * ) SI_UNIT ( $, .STERADIAN. ) SOLID_ANGLE_UNIT ( ) );
#221 = PRODUCT ( '83364', '83364', '', ( #13 ) ) ;
#222 = ADVANCED_FACE ( 'NONE', ( #14 ), #129, .F. ) ;
#223 = ORIENTED_EDGE ( 'NONE', *, *, #51, .F. ) ;
#224 = DIRECTION ( 'NONE',  ( -1.039976156793046169E-16, 1.000000000000000000, -0.000000000000000000 ) ) ;
#225 = AXIS2_PLACEMENT_3D ( 'NONE', #308, #16, #47 ) ;
#226 = FILL_AREA_STYLE_COLOUR ( '', #67 ) ;
#227 =( GEOMETRIC_REPRESENTATION_CONTEXT ( 3 ) GLOBAL_UNCERTAINTY_ASSIGNED_CONTEXT ( ( #212 ) ) GLOBAL_UNIT_ASSIGNED_CONTEXT ( ( #30, #289, #28 ) ) REPRESENTATION_CONTEXT ( 'NONE', 'WORKASPACE' ) );
#228 = PRODUCT_DEFINITION_SHAPE ( 'NONE', 'NONE',  #344 ) ;
#229 = CYLINDRICAL_SURFACE ( 'NONE', #366, 0.1562499999999994726 ) ;
#230 = VECTOR ( 'NONE', #238, 39.37007874015748143 ) ;
#231 = MECHANICAL_DESIGN_GEOMETRIC_PRESENTATION_REPRESENTATION (  '', ( #3 ), #329 ) ;
#232 =( NAMED_UNIT ( * ) SI_UNIT ( $, .STERADIAN. ) SOLID_ANGLE_UNIT ( ) );
#233 = CARTESIAN_POINT ( 'NONE',  ( -1.913510623667739463E-17, 0.1562500000000000000, 0.000000000000000000 ) ) ;
#234 = ORIENTED_EDGE ( 'NONE', *, *, #133, .T. ) ;
#235 = SURFACE_STYLE_FILL_AREA ( #144 ) ;
#236 = ADVANCED_FACE ( 'NONE', ( #368 ), #229, .T. ) ;
#237 = DIRECTION ( 'NONE',  ( 0.000000000000000000, 0.000000000000000000, -1.000000000000000000 ) ) ;
#238 = DIRECTION ( 'NONE',  ( -1.039976156793046169E-16, 1.000000000000000000, -0.000000000000000000 ) ) ;
#239 = ORIENTED_EDGE ( 'NONE', *, *, #309, .T. ) ;
#240 =( NAMED_UNIT ( * ) PLANE_ANGLE_UNIT ( ) SI_UNIT ( $, .RADIAN. ) );
#241 =( NAMED_UNIT ( * ) PLANE_ANGLE_UNIT ( ) SI_UNIT ( $, .RADIAN. ) );
#242 = ORIENTED_EDGE ( 'NONE', *, *, #55, .F. ) ;
#243 = DIRECTION ( 'NONE',  ( -0.000000000000000000, -1.000000000000000000, -0.000000000000000000 ) ) ;
#244 = DIRECTION ( 'NONE',  ( -0.000000000000000000, -1.000000000000000000, -0.000000000000000000 ) ) ;
#245 = AXIS2_PLACEMENT_3D ( 'NONE', #273, #272, #50 ) ;
#246 = VERTEX_POINT ( 'NONE', #21 ) ;
#247 = CARTESIAN_POINT ( 'NONE',  ( 0.000000000000000000, 0.000000000000000000, 0.000000000000000000 ) ) ;
#248 = VERTEX_POINT ( 'NONE', #255 ) ;
#249 = CYLINDRICAL_SURFACE ( 'NONE', #300, 0.1562499999999994726 ) ;
#250 = LENGTH_MEASURE_WITH_UNIT ( LENGTH_MEASURE( 0.02539999999999999897 ), #280 );
#251 = FACE_OUTER_BOUND ( 'NONE', #119, .T. ) ;
#252 =( GEOMETRIC_REPRESENTATION_CONTEXT ( 3 ) GLOBAL_UNCERTAINTY_ASSIGNED_CONTEXT ( ( #29 ) ) GLOBAL_UNIT_ASSIGNED_CONTEXT ( ( #24, #163, #346 ) ) REPRESENTATION_CONTEXT ( 'NONE', 'WORKASPACE' ) );
#253 = VERTEX_POINT ( 'NONE', #372 ) ;
#254 = AXIS2_PLACEMENT_3D ( 'NONE', #126, #284, #78 ) ;
#255 = CARTESIAN_POINT ( 'NONE',  ( 0.1562499999999999445, 2.000000000000000000, 1.913510623667733608E-17 ) ) ;
#256 = COLOUR_RGB ( '',1.000000000000000000, 0.000000000000000000, 0.000000000000000000 ) ;
#257 = FILL_AREA_STYLE_COLOUR ( '', #79 ) ;
#258 = EDGE_CURVE ( 'NONE', #248, #312, #314, .T. ) ;
#259 = LENGTH_MEASURE_WITH_UNIT ( LENGTH_MEASURE( 0.02539999999999999897 ), #345 );
#260 = DIRECTION ( 'NONE',  ( -1.000000000000000000, 0.000000000000000000, 0.000000000000000000 ) ) ;
#261 = EDGE_CURVE ( 'NONE', #130, #296, #159, .T. ) ;
#262 = LENGTH_MEASURE_WITH_UNIT ( LENGTH_MEASURE( 0.02539999999999999897 ), #210 );
#263 = MECHANICAL_DESIGN_GEOMETRIC_PRESENTATION_REPRESENTATION (  '', ( #213 ), #147 ) ;
#264 = FILL_AREA_STYLE ('',( #153 ) ) ;
#265 = VECTOR ( 'NONE', #90, 39.37007874015748143 ) ;
#266 = ORIENTED_EDGE ( 'NONE', *, *, #321, .F. ) ;
#267 = ADVANCED_FACE ( 'NONE', ( #341 ), #287, .T. ) ;
#268 = SURFACE_STYLE_FILL_AREA ( #264 ) ;
#269 = MANIFOLD_SOLID_BREP ( 'Revolve - Tool Body (Straight Shanked)', #191 ) ;
#270 = DIRECTION ( 'NONE',  ( 0.000000000000000000, 0.000000000000000000, 1.000000000000000000 ) ) ;
#271 = AXIS2_PLACEMENT_3D ( 'NONE', #323, #141, #41 ) ;
#272 = DIRECTION ( 'NONE',  ( 1.039976156793046169E-16, -1.000000000000000000, 0.000000000000000000 ) ) ;
#273 = CARTESIAN_POINT ( 'NONE',  ( 0.1562499999999999445, 2.000000000000000000, 0.000000000000000000 ) ) ;
#274 = FILL_AREA_STYLE_COLOUR ( '', #160 ) ;
#275 = DIRECTION ( 'NONE',  ( -1.039976156793046169E-16, 1.000000000000000000, -0.000000000000000000 ) ) ;
#276 = AXIS2_PLACEMENT_3D ( 'NONE', #19, #244, #68 ) ;
#277 = PRODUCT_DEFINITION_FORMATION_WITH_SPECIFIED_SOURCE ( 'ANY', '', #221, .NOT_KNOWN. ) ;
#278 = DIRECTION ( 'NONE',  ( 0.000000000000000000, 0.000000000000000000, 1.000000000000000000 ) ) ;
#279 = PLANE ( 'NONE',  #245 ) ;
#280 =( LENGTH_UNIT ( ) NAMED_UNIT ( * ) SI_UNIT ( $, .METRE. ) );
#281 = DIRECTION ( 'NONE',  ( -0.000000000000000000, -1.000000000000000000, -0.000000000000000000 ) ) ;
#282 = ORIENTED_EDGE ( 'NONE', *, *, #55, .T. ) ;
#283 = UNCERTAINTY_MEASURE_WITH_UNIT (LENGTH_MEASURE( 1.000000000000000082E-05 ), #96, 'distance_accuracy_value', 'NONE');
#284 = DIRECTION ( 'NONE',  ( -1.039976156793046169E-16, 1.000000000000000000, 0.000000000000000000 ) ) ;
#285 = LENGTH_MEASURE_WITH_UNIT ( LENGTH_MEASURE( 0.02539999999999999897 ), #340 );
#286 = DIMENSIONAL_EXPONENTS ( 1.000000000000000000, 0.000000000000000000, 0.000000000000000000, 0.000000000000000000, 0.000000000000000000, 0.000000000000000000, 0.000000000000000000 ) ;
#287 = PLANE ( 'NONE',  #80 ) ;
#288 = FILL_AREA_STYLE ('',( #274 ) ) ;
#289 =( NAMED_UNIT ( * ) PLANE_ANGLE_UNIT ( ) SI_UNIT ( $, .RADIAN. ) );
#290 = LENGTH_MEASURE_WITH_UNIT ( LENGTH_MEASURE( 0.02539999999999999897 ), #76 );
#291 = MECHANICAL_DESIGN_GEOMETRIC_PRESENTATION_REPRESENTATION (  '', ( #310 ), #227 ) ;
#292 = SURFACE_SIDE_STYLE ('',( #370 ) ) ;
#293 = MECHANICAL_DESIGN_GEOMETRIC_PRESENTATION_REPRESENTATION (  '', ( #138 ), #252 ) ;
#294 = AXIS2_PLACEMENT_3D ( 'NONE', #188, #100, #183 ) ;
#295 = LENGTH_MEASURE_WITH_UNIT ( LENGTH_MEASURE( 0.02539999999999999897 ), #320 );
#296 = VERTEX_POINT ( 'NONE', #206 ) ;
#297 = DIRECTION ( 'NONE',  ( -0.000000000000000000, -1.000000000000000000, -0.000000000000000000 ) ) ;
#298 =( LENGTH_UNIT ( ) NAMED_UNIT ( * ) SI_UNIT ( $, .METRE. ) );
#299 = CARTESIAN_POINT ( 'NONE',  ( -1.913510623667739463E-17, 0.1562500000000000000, 0.000000000000000000 ) ) ;
#300 = AXIS2_PLACEMENT_3D ( 'NONE', #74, #45, #69 ) ;
#301 = FILL_AREA_STYLE_COLOUR ( '', #186 ) ;
#302 = ORIENTED_EDGE ( 'NONE', *, *, #258, .T. ) ;
#303 =( GEOMETRIC_REPRESENTATION_CONTEXT ( 3 ) GLOBAL_UNCERTAINTY_ASSIGNED_CONTEXT ( ( #44 ) ) GLOBAL_UNIT_ASSIGNED_CONTEXT ( ( #95, #307, #326 ) ) REPRESENTATION_CONTEXT ( 'NONE', 'WORKASPACE' ) );
#304 = DIRECTION ( 'NONE',  ( 0.000000000000000000, 0.000000000000000000, -1.000000000000000000 ) ) ;
#305 = EDGE_LOOP ( 'NONE', ( #330, #142, #239, #75 ) ) ;
#306 = CARTESIAN_POINT ( 'NONE',  ( -0.1562499999999988343, 0.4374999999999998890, 0.000000000000000000 ) ) ;
#307 =( NAMED_UNIT ( * ) PLANE_ANGLE_UNIT ( ) SI_UNIT ( $, .RADIAN. ) );
#308 = CARTESIAN_POINT ( 'NONE',  ( -1.913510623667739463E-17, 0.1562500000000000000, 0.000000000000000000 ) ) ;
#309 = EDGE_CURVE ( 'NONE', #174, #312, #369, .T. ) ;
#310 = STYLED_ITEM ( 'NONE', ( #339 ), #269 ) ;
#311 = FACE_OUTER_BOUND ( 'NONE', #122, .T. ) ;
#312 = VERTEX_POINT ( 'NONE', #57 ) ;
#313 =( LENGTH_UNIT ( ) NAMED_UNIT ( * ) SI_UNIT ( $, .METRE. ) );
#314 = CIRCLE ( 'NONE', #358, 0.1562499999999995559 ) ;
#315 = DIMENSIONAL_EXPONENTS ( 1.000000000000000000, 0.000000000000000000, 0.000000000000000000, 0.000000000000000000, 0.000000000000000000, 0.000000000000000000, 0.000000000000000000 ) ;
#316 = SURFACE_SIDE_STYLE ('',( #199 ) ) ;
#317 = CARTESIAN_POINT ( 'NONE',  ( 0.000000000000000000, 0.4374999999999998890, 0.000000000000000000 ) ) ;
#318 = EDGE_CURVE ( 'NONE', #174, #327, #201, .T. ) ;
#319 = FILL_AREA_STYLE_COLOUR ( '', #256 ) ;
#320 =( LENGTH_UNIT ( ) NAMED_UNIT ( * ) SI_UNIT ( $, .METRE. ) );
#321 = EDGE_CURVE ( 'NONE', #246, #296, #127, .T. ) ;
#322 = SURFACE_SIDE_STYLE ('',( #268 ) ) ;
#323 = CARTESIAN_POINT ( 'NONE',  ( 0.000000000000000000, 0.1562500000000000000, 0.000000000000000000 ) ) ;
#324 = ORIENTED_EDGE ( 'NONE', *, *, #318, .F. ) ;
#325 = SPHERICAL_SURFACE ( 'NONE', #77, 0.1562500000000000000 ) ;
#326 =( NAMED_UNIT ( * ) SI_UNIT ( $, .STERADIAN. ) SOLID_ANGLE_UNIT ( ) );
#327 = VERTEX_POINT ( 'NONE', #116 ) ;
#328 = SHAPE_DEFINITION_REPRESENTATION ( #228, #33 ) ;
#329 =( GEOMETRIC_REPRESENTATION_CONTEXT ( 3 ) GLOBAL_UNCERTAINTY_ASSIGNED_CONTEXT ( ( #283 ) ) GLOBAL_UNIT_ASSIGNED_CONTEXT ( ( #96, #217, #220 ) ) REPRESENTATION_CONTEXT ( 'NONE', 'WORKASPACE' ) );
#330 = ORIENTED_EDGE ( 'NONE', *, *, #64, .F. ) ;
#331 = DIRECTION ( 'NONE',  ( 1.000000000000000000, 0.000000000000000000, 0.000000000000000000 ) ) ;
#332 = LENGTH_MEASURE_WITH_UNIT ( LENGTH_MEASURE( 0.02539999999999999897 ), #313 );
#333 = EDGE_CURVE ( 'NONE', #253, #211, #42, .T. ) ;
#334 = FACE_OUTER_BOUND ( 'NONE', #305, .T. ) ;
#335 = PRESENTATION_LAYER_ASSIGNMENT (  '', '', ( #213 ) ) ;
#336 = AXIS2_PLACEMENT_3D ( 'NONE', #9, #87, #166 ) ;
#337 = CYLINDRICAL_SURFACE ( 'NONE', #22, 0.1562499999999999445 ) ;
#338 = ORIENTED_EDGE ( 'NONE', *, *, #133, .F. ) ;
#339 = PRESENTATION_STYLE_ASSIGNMENT (( #165 ) ) ;
#340 =( LENGTH_UNIT ( ) NAMED_UNIT ( * ) SI_UNIT ( $, .METRE. ) );
#341 = FACE_OUTER_BOUND ( 'NONE', #94, .T. ) ;
#342 = CIRCLE ( 'NONE', #84, 0.1562499999999993894 ) ;
#343 = MECHANICAL_DESIGN_GEOMETRIC_PRESENTATION_REPRESENTATION (  '', ( #139 ), #91 ) ;
#344 = PRODUCT_DEFINITION ( 'UNKNOWN', '', #277, #125 ) ;
#345 =( LENGTH_UNIT ( ) NAMED_UNIT ( * ) SI_UNIT ( $, .METRE. ) );
#346 =( NAMED_UNIT ( * ) SI_UNIT ( $, .STERADIAN. ) SOLID_ANGLE_UNIT ( ) );
#347 =( NAMED_UNIT ( * ) PLANE_ANGLE_UNIT ( ) SI_UNIT ( $, .RADIAN. ) );
#348 = AXIS2_PLACEMENT_3D ( 'NONE', #17, #281, #219 ) ;
#349 = EDGE_CURVE ( 'NONE', #179, #211, #7, .T. ) ;
#350 = ORIENTED_EDGE ( 'NONE', *, *, #318, .T. ) ;
#351 = PRESENTATION_STYLE_ASSIGNMENT (( #209 ) ) ;
#352 = AXIS2_PLACEMENT_3D ( 'NONE', #38, #203, #10 ) ;
#353 = CARTESIAN_POINT ( 'NONE',  ( 1.913510623667738539E-17, 0.000000000000000000, 0.1562499999999999445 ) ) ;
#354 = ORIENTED_EDGE ( 'NONE', *, *, #333, .F. ) ;
#355 = APPLICATION_PROTOCOL_DEFINITION ( 'draft international standard', 'automotive_design', 1998, #365 ) ;
#356 = DIRECTION ( 'NONE',  ( 0.000000000000000000, 0.000000000000000000, -1.000000000000000000 ) ) ;
#357 = APPLICATION_CONTEXT ( 'automotive_design' ) ;
#358 = AXIS2_PLACEMENT_3D ( 'NONE', #162, #108, #373 ) ;
#359 = SURFACE_STYLE_USAGE ( .BOTH. , #52 ) ;
#360 = ORIENTED_EDGE ( 'NONE', *, *, #333, .T. ) ;
#361 = ADVANCED_FACE ( 'NONE', ( #208 ), #114, .T. ) ;
#362 = UNCERTAINTY_MEASURE_WITH_UNIT (LENGTH_MEASURE( 1.000000000000000082E-05 ), #193, 'distance_accuracy_value', 'NONE');
#363 = FILL_AREA_STYLE_COLOUR ( '', #192 ) ;
#364 = FILL_AREA_STYLE ('',( #363 ) ) ;
#365 = APPLICATION_CONTEXT ( 'automotive_design' ) ;
#366 = AXIS2_PLACEMENT_3D ( 'NONE', #23, #224, #260 ) ;
#367 = ORIENTED_EDGE ( 'NONE', *, *, #40, .F. ) ;
#368 = FACE_OUTER_BOUND ( 'NONE', #39, .T. ) ;
#369 = LINE ( 'NONE', #202, #265 ) ;
#370 = SURFACE_STYLE_FILL_AREA ( #288 ) ;
#371 = UNCERTAINTY_MEASURE_WITH_UNIT (LENGTH_MEASURE( 1.000000000000000082E-05 ), #110, 'distance_accuracy_value', 'NONE');
#372 = CARTESIAN_POINT ( 'NONE',  ( 0.1562499999999999445, 0.1562500000000000000, 0.000000000000000000 ) ) ;
#373 = DIRECTION ( 'NONE',  ( -1.000000000000000000, 0.000000000000000000, 0.000000000000000000 ) ) ;
ENDSEC;
END-ISO-10303-21;
