ISO-10303-21;
HEADER;
FILE_DESCRIPTION (( 'STEP AP214' ),
    '1' );
FILE_NAME ('Micro_DM-375-490X.STEP',
    '2021-09-02T16:05:38',
    ( '' ),
    ( '' ),
    'SwSTEP 2.0',
    'SolidWorks 2020',
    '' );
FILE_SCHEMA (( 'AUTOMOTIVE_DESIGN' ));
ENDSEC;

DATA;
#1 = AXIS2_PLACEMENT_3D ( 'NONE', #153, #106, #319 ) ;
#2 = UNCERTAINTY_MEASURE_WITH_UNIT (LENGTH_MEASURE( 1.000000000000000082E-05 ), #204, 'distance_accuracy_value', 'NONE');
#3 = DIRECTION ( 'NONE',  ( 1.000000000000000000, 0.0000000000000000000, 0.0000000000000000000 ) ) ;
#4 = DIRECTION ( 'NONE',  ( 1.000000000000000000, 0.0000000000000000000, 0.0000000000000000000 ) ) ;
#5 = ADVANCED_FACE ( 'NONE', ( #6 ), #90, .F. ) ;
#6 = FACE_OUTER_BOUND ( 'NONE', #109, .T. ) ;
#7 =( NAMED_UNIT ( * ) PLANE_ANGLE_UNIT ( ) SI_UNIT ( $, .RADIAN. ) );
#8 = CARTESIAN_POINT ( 'NONE',  ( 0.0000000000000000000, 0.0000000000000000000, 1.707404996040164512E-17 ) ) ;
#9 = CONICAL_SURFACE ( 'NONE', #122, 0.007499999999999999722, 0.7853981633974501664 ) ;
#10 = AXIS2_PLACEMENT_3D ( 'NONE', #296, #318, #121 ) ;
#11 = DIRECTION ( 'NONE',  ( -1.000000000000000000, 0.0000000000000000000, 0.0000000000000000000 ) ) ;
#12 = UNCERTAINTY_MEASURE_WITH_UNIT (LENGTH_MEASURE( 1.000000000000000082E-05 ), #31, 'distance_accuracy_value', 'NONE');
#13 = LINE ( 'NONE', #295, #302 ) ;
#14 = DIRECTION ( 'NONE',  ( -0.0000000000000000000, -0.0000000000000000000, -1.000000000000000000 ) ) ;
#15 = AXIS2_PLACEMENT_3D ( 'NONE', #309, #289, #67 ) ;
#16 = DIRECTION ( 'NONE',  ( -0.0000000000000000000, -0.0000000000000000000, -1.000000000000000000 ) ) ;
#17 = DIRECTION ( 'NONE',  ( -0.0000000000000000000, 0.0000000000000000000, -1.000000000000000000 ) ) ;
#18 = FACE_OUTER_BOUND ( 'NONE', #86, .T. ) ;
#19 = AXIS2_PLACEMENT_3D ( 'NONE', #62, #71, #263 ) ;
#20 = APPLICATION_PROTOCOL_DEFINITION ( 'draft international standard', 'automotive_design', 1998, #124 ) ;
#21 = ORIENTED_EDGE ( 'NONE', *, *, #39, .F. ) ;
#22 = ORIENTED_EDGE ( 'NONE', *, *, #315, .T. ) ;
#23 = DIRECTION ( 'NONE',  ( -0.0000000000000000000, -0.0000000000000000000, -1.000000000000000000 ) ) ;
#24 = VERTEX_POINT ( 'NONE', #141 ) ;
#25 = PRODUCT_DEFINITION_CONTEXT ( 'detailed design', #87, 'design' ) ;
#26 = DIRECTION ( 'NONE',  ( 1.000000000000000000, 0.0000000000000000000, 0.0000000000000000000 ) ) ;
#27 = EDGE_CURVE ( 'NONE', #279, #165, #35, .T. ) ;
#28 = EDGE_LOOP ( 'NONE', ( #199, #104, #205, #174 ) ) ;
#29 = SURFACE_SIDE_STYLE ('',( #254 ) ) ;
#30 = ORIENTED_EDGE ( 'NONE', *, *, #93, .T. ) ;
#31 =( CONVERSION_BASED_UNIT ( 'INCH', #92 ) LENGTH_UNIT ( ) NAMED_UNIT ( #61 ) );
#32 = CIRCLE ( 'NONE', #259, 0.1874500000000001443 ) ;
#33 = DIRECTION ( 'NONE',  ( -0.7071067811865385799, 0.0000000000000000000, -0.7071067811865563435 ) ) ;
#34 =( LENGTH_UNIT ( ) NAMED_UNIT ( * ) SI_UNIT ( $, .METRE. ) );
#35 = LINE ( 'NONE', #284, #297 ) ;
#36 = ADVANCED_BREP_SHAPE_REPRESENTATION ( 'Micro_DM-375-490X', ( #114, #96 ), #257 ) ;
#37 = CARTESIAN_POINT ( 'NONE',  ( 0.0000000000000000000, 0.0000000000000000000, 1.000000000000000000 ) ) ;
#38 = CARTESIAN_POINT ( 'NONE',  ( 0.0000000000000000000, 0.0000000000000000000, 0.0000000000000000000 ) ) ;
#39 = EDGE_CURVE ( 'NONE', #184, #165, #112, .T. ) ;
#40 = DIRECTION ( 'NONE',  ( 1.000000000000000000, 0.0000000000000000000, 0.0000000000000000000 ) ) ;
#41 = FACE_OUTER_BOUND ( 'NONE', #182, .T. ) ;
#42 = DIRECTION ( 'NONE',  ( -1.000000000000000000, 0.0000000000000000000, 0.0000000000000000000 ) ) ;
#43 = EDGE_CURVE ( 'NONE', #325, #24, #287, .T. ) ;
#44 = CYLINDRICAL_SURFACE ( 'NONE', #203, 0.1875000000000000278 ) ;
#45 = DIRECTION ( 'NONE',  ( -0.0000000000000000000, -0.0000000000000000000, -1.000000000000000000 ) ) ;
#46 = EDGE_LOOP ( 'NONE', ( #304, #226, #132, #276 ) ) ;
#47 = CIRCLE ( 'NONE', #10, 0.1874500000000001443 ) ;
#48 = ADVANCED_FACE ( 'NONE', ( #68 ), #9, .T. ) ;
#49 = AXIS2_PLACEMENT_3D ( 'NONE', #59, #187, #210 ) ;
#50 = MECHANICAL_DESIGN_GEOMETRIC_PRESENTATION_REPRESENTATION (  '', ( #98 ), #140 ) ;
#51 = LINE ( 'NONE', #275, #191 ) ;
#52 = EDGE_LOOP ( 'NONE', ( #206, #207 ) ) ;
#53 = DIRECTION ( 'NONE',  ( -0.0000000000000000000, -0.0000000000000000000, -1.000000000000000000 ) ) ;
#54 = ORIENTED_EDGE ( 'NONE', *, *, #138, .T. ) ;
#55 = CARTESIAN_POINT ( 'NONE',  ( 0.0000000000000000000, 0.0000000000000000000, 1.707404996040164512E-17 ) ) ;
#56 = ORIENTED_EDGE ( 'NONE', *, *, #43, .T. ) ;
#57 = CIRCLE ( 'NONE', #127, 0.1874500000000000055 ) ;
#58 = ORIENTED_EDGE ( 'NONE', *, *, #266, .T. ) ;
#59 = CARTESIAN_POINT ( 'NONE',  ( 0.0000000000000000000, 0.0000000000000000000, 1.000000000000000000 ) ) ;
#60 = DIRECTION ( 'NONE',  ( 1.000000000000000000, 0.0000000000000000000, 0.0000000000000000000 ) ) ;
#61 = DIMENSIONAL_EXPONENTS ( 1.000000000000000000, 0.0000000000000000000, 0.0000000000000000000, 0.0000000000000000000, 0.0000000000000000000, 0.0000000000000000000, 0.0000000000000000000 ) ;
#62 = CARTESIAN_POINT ( 'NONE',  ( 0.0000000000000000000, 0.0000000000000000000, 1.707404996040164512E-17 ) ) ;
#63 = AXIS2_PLACEMENT_3D ( 'NONE', #192, #69, #40 ) ;
#64 = ADVANCED_FACE ( 'NONE', ( #117 ), #74, .T. ) ;
#65 = DIMENSIONAL_EXPONENTS ( 1.000000000000000000, 0.0000000000000000000, 0.0000000000000000000, 0.0000000000000000000, 0.0000000000000000000, 0.0000000000000000000, 0.0000000000000000000 ) ;
#66 = SHAPE_DEFINITION_REPRESENTATION ( #95, #36 ) ;
#67 = DIRECTION ( 'NONE',  ( 1.000000000000000000, 0.0000000000000000000, -0.0000000000000000000 ) ) ;
#68 = FACE_OUTER_BOUND ( 'NONE', #111, .T. ) ;
#69 = DIRECTION ( 'NONE',  ( 0.0000000000000000000, 0.0000000000000000000, 1.000000000000000000 ) ) ;
#70 = CONICAL_SURFACE ( 'NONE', #312, 0.1724999999999995981, 0.7853981633974357335 ) ;
#71 = DIRECTION ( 'NONE',  ( -0.0000000000000000000, -0.0000000000000000000, -1.000000000000000000 ) ) ;
#72 = FACE_OUTER_BOUND ( 'NONE', #281, .T. ) ;
#73 = CARTESIAN_POINT ( 'NONE',  ( 0.0000000000000000000, 0.0000000000000000000, 2.500000000000000000 ) ) ;
#74 = CONICAL_SURFACE ( 'NONE', #300, 0.007499999999999999722, 0.7853981633974501664 ) ;
#75 = EDGE_CURVE ( 'NONE', #249, #137, #292, .T. ) ;
#76 = FACE_OUTER_BOUND ( 'NONE', #46, .T. ) ;
#77 = FILL_AREA_STYLE_COLOUR ( '', #273 ) ;
#78 = VERTEX_POINT ( 'NONE', #167 ) ;
#79 = VECTOR ( 'NONE', #14, 39.37007874015748143 ) ;
#80 = CIRCLE ( 'NONE', #19, 0.007499999999999999722 ) ;
#81 =( NAMED_UNIT ( * ) SI_UNIT ( $, .STERADIAN. ) SOLID_ANGLE_UNIT ( ) );
#82 = ORIENTED_EDGE ( 'NONE', *, *, #135, .F. ) ;
#83 = LINE ( 'NONE', #278, #100 ) ;
#84 = ORIENTED_EDGE ( 'NONE', *, *, #43, .F. ) ;
#85 = FILL_AREA_STYLE ('',( #77 ) ) ;
#86 = EDGE_LOOP ( 'NONE', ( #30, #56 ) ) ;
#87 = APPLICATION_CONTEXT ( 'automotive_design' ) ;
#88 = DIRECTION ( 'NONE',  ( -0.0000000000000000000, -0.0000000000000000000, -1.000000000000000000 ) ) ;
#89 = ORIENTED_EDGE ( 'NONE', *, *, #245, .F. ) ;
#90 = PLANE ( 'NONE',  #147 ) ;
#91 = EDGE_CURVE ( 'NONE', #223, #137, #262, .T. ) ;
#92 = LENGTH_MEASURE_WITH_UNIT ( LENGTH_MEASURE( 0.02539999999999999897 ), #34 );
#93 = EDGE_CURVE ( 'NONE', #24, #325, #151, .T. ) ;
#94 = FACE_BOUND ( 'NONE', #321, .T. ) ;
#95 = PRODUCT_DEFINITION_SHAPE ( 'NONE', 'NONE',  #110 ) ;
#96 = AXIS2_PLACEMENT_3D ( 'NONE', #116, #256, #3 ) ;
#97 = CARTESIAN_POINT ( 'NONE',  ( 0.1874500000000001443, 2.295600425001715468E-17, 1.000000000000000000 ) ) ;
#98 = STYLED_ITEM ( 'NONE', ( #212 ), #114 ) ;
#99 = FACE_OUTER_BOUND ( 'NONE', #28, .T. ) ;
#100 = VECTOR ( 'NONE', #53, 39.37007874015748143 ) ;
#101 = LINE ( 'NONE', #134, #230 ) ;
#102 = ORIENTED_EDGE ( 'NONE', *, *, #323, .F. ) ;
#103 = CARTESIAN_POINT ( 'NONE',  ( 0.0000000000000000000, 0.0000000000000000000, 2.500000000000000000 ) ) ;
#104 = ORIENTED_EDGE ( 'NONE', *, *, #217, .T. ) ;
#105 = VECTOR ( 'NONE', #118, 39.37007874015748143 ) ;
#106 = DIRECTION ( 'NONE',  ( 0.0000000000000000000, 0.0000000000000000000, -1.000000000000000000 ) ) ;
#107 = ORIENTED_EDGE ( 'NONE', *, *, #217, .F. ) ;
#108 = ADVANCED_FACE ( 'NONE', ( #115 ), #307, .T. ) ;
#109 = EDGE_LOOP ( 'NONE', ( #327, #247 ) ) ;
#110 = PRODUCT_DEFINITION ( 'UNKNOWN', '', #253, #25 ) ;
#111 = EDGE_LOOP ( 'NONE', ( #290, #102, #54, #133 ) ) ;
#112 = CIRCLE ( 'NONE', #238, 0.1875000000000000278 ) ;
#113 = SURFACE_STYLE_FILL_AREA ( #143 ) ;
#114 = MANIFOLD_SOLID_BREP ( 'Cut-Revolve4', #313 ) ;
#115 = FACE_OUTER_BOUND ( 'NONE', #52, .T. ) ;
#116 = CARTESIAN_POINT ( 'NONE',  ( 0.0000000000000000000, 0.0000000000000000000, 0.0000000000000000000 ) ) ;
#117 = FACE_OUTER_BOUND ( 'NONE', #305, .T. ) ;
#118 = DIRECTION ( 'NONE',  ( -0.0000000000000000000, -0.0000000000000000000, -1.000000000000000000 ) ) ;
#119 = CARTESIAN_POINT ( 'NONE',  ( 0.1874500000000000610, 2.295600425001714235E-17, 0.0000000000000000000 ) ) ;
#120 = DIRECTION ( 'NONE',  ( -0.0000000000000000000, -0.0000000000000000000, -1.000000000000000000 ) ) ;
#121 = DIRECTION ( 'NONE',  ( -1.000000000000000000, 0.0000000000000000000, 0.0000000000000000000 ) ) ;
#122 = AXIS2_PLACEMENT_3D ( 'NONE', #8, #260, #60 ) ;
#123 = STYLED_ITEM ( 'NONE', ( #270 ), #36 ) ;
#124 = APPLICATION_CONTEXT ( 'automotive_design' ) ;
#125 = CARTESIAN_POINT ( 'NONE',  ( 0.0000000000000000000, 0.0000000000000000000, 2.500000000000000000 ) ) ;
#126 = LINE ( 'NONE', #169, #79 ) ;
#127 = AXIS2_PLACEMENT_3D ( 'NONE', #265, #23, #301 ) ;
#128 = EDGE_CURVE ( 'NONE', #177, #181, #80, .T. ) ;
#129 = DIRECTION ( 'NONE',  ( -1.000000000000000000, 0.0000000000000000000, 0.0000000000000000000 ) ) ;
#130 = ORIENTED_EDGE ( 'NONE', *, *, #294, .T. ) ;
#131 = CARTESIAN_POINT ( 'NONE',  ( 0.1875000000000000278, 2.296212748401287726E-17, 1.000000000000000000 ) ) ;
#132 = ORIENTED_EDGE ( 'NONE', *, *, #75, .F. ) ;
#133 = ORIENTED_EDGE ( 'NONE', *, *, #242, .T. ) ;
#134 = CARTESIAN_POINT ( 'NONE',  ( -0.007499999999999999722, 9.184850993605147975E-19, 1.707404996040164512E-17 ) ) ;
#135 = EDGE_CURVE ( 'NONE', #279, #224, #196, .T. ) ;
#136 = EDGE_LOOP ( 'NONE', ( #324, #82, #274, #21 ) ) ;
#137 = VERTEX_POINT ( 'NONE', #195 ) ;
#138 = EDGE_CURVE ( 'NONE', #181, #137, #243, .T. ) ;
#139 = EDGE_CURVE ( 'NONE', #223, #78, #32, .T. ) ;
#140 =( GEOMETRIC_REPRESENTATION_CONTEXT ( 3 ) GLOBAL_UNCERTAINTY_ASSIGNED_CONTEXT ( ( #12 ) ) GLOBAL_UNIT_ASSIGNED_CONTEXT ( ( #31, #228, #171 ) ) REPRESENTATION_CONTEXT ( 'NONE', 'WORKASPACE' ) );
#141 = CARTESIAN_POINT ( 'NONE',  ( -0.1875000000000000278, 0.0000000000000000000, 1.000000000000000000 ) ) ;
#142 = DIRECTION ( 'NONE',  ( 0.0000000000000000000, 0.0000000000000000000, -1.000000000000000000 ) ) ;
#143 = FILL_AREA_STYLE ('',( #208 ) ) ;
#144 = DIRECTION ( 'NONE',  ( -1.000000000000000000, 0.0000000000000000000, 0.0000000000000000000 ) ) ;
#145 = DIRECTION ( 'NONE',  ( -1.000000000000000000, 0.0000000000000000000, 0.0000000000000000000 ) ) ;
#146 = CARTESIAN_POINT ( 'NONE',  ( -0.007499999999999999722, 1.193724467468882453E-17, 1.707404996040164512E-17 ) ) ;
#147 = AXIS2_PLACEMENT_3D ( 'NONE', #189, #235, #162 ) ;
#148 = CARTESIAN_POINT ( 'NONE',  ( 0.007499999999999999722, 0.0000000000000000000, 1.707404996040164512E-17 ) ) ;
#149 = ADVANCED_FACE ( 'NONE', ( #240 ), #216, .T. ) ;
#150 = ORIENTED_EDGE ( 'NONE', *, *, #277, .F. ) ;
#151 = CIRCLE ( 'NONE', #49, 0.1875000000000000278 ) ;
#152 = AXIS2_PLACEMENT_3D ( 'NONE', #320, #322, #26 ) ;
#153 = CARTESIAN_POINT ( 'NONE',  ( 0.0000000000000000000, 0.0000000000000000000, 2.484999999999999432 ) ) ;
#154 = ORIENTED_EDGE ( 'NONE', *, *, #179, .T. ) ;
#155 = DIRECTION ( 'NONE',  ( -1.000000000000000000, 0.0000000000000000000, 0.0000000000000000000 ) ) ;
#156 = ORIENTED_EDGE ( 'NONE', *, *, #139, .F. ) ;
#157 = DIRECTION ( 'NONE',  ( -0.7071067811865487940, 8.659560562354948882E-17, 0.7071067811865462405 ) ) ;
#158 = ORIENTED_EDGE ( 'NONE', *, *, #186, .F. ) ;
#159 = AXIS2_PLACEMENT_3D ( 'NONE', #37, #286, #11 ) ;
#160 = PRESENTATION_LAYER_ASSIGNMENT (  '', '', ( #123 ) ) ;
#161 = ORIENTED_EDGE ( 'NONE', *, *, #138, .F. ) ;
#162 = DIRECTION ( 'NONE',  ( 1.000000000000000000, 0.0000000000000000000, -0.0000000000000000000 ) ) ;
#163 = AXIS2_PLACEMENT_3D ( 'NONE', #183, #88, #308 ) ;
#164 = DIRECTION ( 'NONE',  ( 0.0000000000000000000, 0.0000000000000000000, 1.000000000000000000 ) ) ;
#165 = VERTEX_POINT ( 'NONE', #237 ) ;
#166 = ADVANCED_FACE ( 'NONE', ( #94, #18 ), #194, .T. ) ;
#167 = CARTESIAN_POINT ( 'NONE',  ( -0.1874500000000001443, 0.0000000000000000000, 1.000000000000000000 ) ) ;
#168 = DIRECTION ( 'NONE',  ( 0.0000000000000000000, 0.0000000000000000000, -1.000000000000000000 ) ) ;
#169 = CARTESIAN_POINT ( 'NONE',  ( -0.1875000000000000278, 0.0000000000000000000, 2.500000000000000000 ) ) ;
#170 = CYLINDRICAL_SURFACE ( 'NONE', #227, 0.1874500000000000610 ) ;
#171 =( NAMED_UNIT ( * ) SI_UNIT ( $, .STERADIAN. ) SOLID_ANGLE_UNIT ( ) );
#172 = CYLINDRICAL_SURFACE ( 'NONE', #306, 0.1874500000000000610 ) ;
#173 = LENGTH_MEASURE_WITH_UNIT ( LENGTH_MEASURE( 0.02539999999999999897 ), #220 );
#174 = ORIENTED_EDGE ( 'NONE', *, *, #179, .F. ) ;
#175 = AXIS2_PLACEMENT_3D ( 'NONE', #55, #45, #155 ) ;
#176 = SURFACE_STYLE_USAGE ( .BOTH. , #29 ) ;
#177 = VERTEX_POINT ( 'NONE', #146 ) ;
#178 = ORIENTED_EDGE ( 'NONE', *, *, #27, .F. ) ;
#179 = EDGE_CURVE ( 'NONE', #165, #24, #126, .T. ) ;
#180 = CARTESIAN_POINT ( 'NONE',  ( -0.1724999999999995981, 0.0000000000000000000, 2.500000000000000000 ) ) ;
#181 = VERTEX_POINT ( 'NONE', #218 ) ;
#182 = EDGE_LOOP ( 'NONE', ( #89, #130, #150, #178 ) ) ;
#183 = CARTESIAN_POINT ( 'NONE',  ( 0.0000000000000000000, 0.0000000000000000000, 0.1799499999999993327 ) ) ;
#184 = VERTEX_POINT ( 'NONE', #316 ) ;
#185 = DIMENSIONAL_EXPONENTS ( 1.000000000000000000, 0.0000000000000000000, 0.0000000000000000000, 0.0000000000000000000, 0.0000000000000000000, 0.0000000000000000000, 0.0000000000000000000 ) ;
#186 = EDGE_CURVE ( 'NONE', #78, #223, #47, .T. ) ;
#187 = DIRECTION ( 'NONE',  ( -0.0000000000000000000, -0.0000000000000000000, -1.000000000000000000 ) ) ;
#188 = ADVANCED_FACE ( 'NONE', ( #41 ), #70, .T. ) ;
#189 = CARTESIAN_POINT ( 'NONE',  ( 0.0000000000000000000, 0.0000000000000000000, 0.0000000000000000000 ) ) ;
#190 = DIRECTION ( 'NONE',  ( -0.0000000000000000000, -0.0000000000000000000, -1.000000000000000000 ) ) ;
#191 = VECTOR ( 'NONE', #280, 39.37007874015748854 ) ;
#192 = CARTESIAN_POINT ( 'NONE',  ( 0.0000000000000000000, 0.0000000000000000000, 2.500000000000000000 ) ) ;
#193 = CARTESIAN_POINT ( 'NONE',  ( 0.0000000000000000000, 0.0000000000000000000, 2.500000000000000000 ) ) ;
#194 = PLANE ( 'NONE',  #328 ) ;
#195 = CARTESIAN_POINT ( 'NONE',  ( 0.1874499999999999778, 0.0000000000000000000, 0.1799499999999993327 ) ) ;
#196 = CIRCLE ( 'NONE', #63, 0.1724999999999995981 ) ;
#197 =( CONVERSION_BASED_UNIT ( 'INCH', #173 ) LENGTH_UNIT ( ) NAMED_UNIT ( #65 ) );
#198 = ADVANCED_FACE ( 'NONE', ( #99 ), #44, .T. ) ;
#199 = ORIENTED_EDGE ( 'NONE', *, *, #277, .T. ) ;
#200 = LENGTH_MEASURE_WITH_UNIT ( LENGTH_MEASURE( 0.02539999999999999897 ), #248 );
#201 = ORIENTED_EDGE ( 'NONE', *, *, #242, .F. ) ;
#202 = PRESENTATION_LAYER_ASSIGNMENT (  '', '', ( #98 ) ) ;
#203 = AXIS2_PLACEMENT_3D ( 'NONE', #193, #299, #311 ) ;
#204 =( CONVERSION_BASED_UNIT ( 'INCH', #200 ) LENGTH_UNIT ( ) NAMED_UNIT ( #185 ) );
#205 = ORIENTED_EDGE ( 'NONE', *, *, #93, .F. ) ;
#206 = ORIENTED_EDGE ( 'NONE', *, *, #135, .T. ) ;
#207 = ORIENTED_EDGE ( 'NONE', *, *, #245, .T. ) ;
#208 = FILL_AREA_STYLE_COLOUR ( '', #229 ) ;
#209 = CARTESIAN_POINT ( 'NONE',  ( 0.0000000000000000000, 0.0000000000000000000, 1.707404996040164512E-17 ) ) ;
#210 = DIRECTION ( 'NONE',  ( -1.000000000000000000, 0.0000000000000000000, 0.0000000000000000000 ) ) ;
#211 = ADVANCED_FACE ( 'NONE', ( #76 ), #172, .T. ) ;
#212 = PRESENTATION_STYLE_ASSIGNMENT (( #283 ) ) ;
#213 = DIRECTION ( 'NONE',  ( -1.000000000000000000, 0.0000000000000000000, 0.0000000000000000000 ) ) ;
#214 = AXIS2_PLACEMENT_3D ( 'NONE', #125, #16, #145 ) ;
#215 = DIRECTION ( 'NONE',  ( 0.7071067811865487940, 0.0000000000000000000, 0.7071067811865462405 ) ) ;
#216 = CYLINDRICAL_SURFACE ( 'NONE', #214, 0.1875000000000000278 ) ;
#217 = EDGE_CURVE ( 'NONE', #184, #325, #13, .T. ) ;
#218 = CARTESIAN_POINT ( 'NONE',  ( 0.007499999999999999722, 0.0000000000000000000, 1.707404996040164512E-17 ) ) ;
#219 = ADVANCED_FACE ( 'NONE', ( #72 ), #170, .T. ) ;
#220 =( LENGTH_UNIT ( ) NAMED_UNIT ( * ) SI_UNIT ( $, .METRE. ) );
#221 = CIRCLE ( 'NONE', #152, 0.1724999999999995981 ) ;
#222 = ORIENTED_EDGE ( 'NONE', *, *, #91, .F. ) ;
#223 = VERTEX_POINT ( 'NONE', #97 ) ;
#224 = VERTEX_POINT ( 'NONE', #293 ) ;
#225 = EDGE_LOOP ( 'NONE', ( #107, #251, #154, #84 ) ) ;
#226 = ORIENTED_EDGE ( 'NONE', *, *, #91, .T. ) ;
#227 = AXIS2_PLACEMENT_3D ( 'NONE', #268, #120, #213 ) ;
#228 =( NAMED_UNIT ( * ) PLANE_ANGLE_UNIT ( ) SI_UNIT ( $, .RADIAN. ) );
#229 = COLOUR_RGB ( '',0.7921568627450980005, 0.8196078431372548767, 0.9333333333333333481 ) ;
#230 = VECTOR ( 'NONE', #157, 39.37007874015748143 ) ;
#231 = DIRECTION ( 'NONE',  ( 1.000000000000000000, 0.0000000000000000000, 0.0000000000000000000 ) ) ;
#232 = APPLICATION_PROTOCOL_DEFINITION ( 'draft international standard', 'automotive_design', 1998, #87 ) ;
#233 = CARTESIAN_POINT ( 'NONE',  ( 0.0000000000000000000, 0.0000000000000000000, 2.484999999999999432 ) ) ;
#234 = CIRCLE ( 'NONE', #1, 0.1875000000000000278 ) ;
#235 = DIRECTION ( 'NONE',  ( 0.0000000000000000000, 0.0000000000000000000, 1.000000000000000000 ) ) ;
#236 = DIRECTION ( 'NONE',  ( -0.0000000000000000000, -0.0000000000000000000, -1.000000000000000000 ) ) ;
#237 = CARTESIAN_POINT ( 'NONE',  ( -0.1875000000000000278, 0.0000000000000000000, 2.484999999999999432 ) ) ;
#238 = AXIS2_PLACEMENT_3D ( 'NONE', #233, #142, #231 ) ;
#239 = VECTOR ( 'NONE', #215, 39.37007874015748143 ) ;
#240 = FACE_OUTER_BOUND ( 'NONE', #225, .T. ) ;
#241 = PRODUCT ( 'Micro_DM-375-490X', 'Micro_DM-375-490X', '', ( #326 ) ) ;
#242 = EDGE_CURVE ( 'NONE', #137, #249, #57, .T. ) ;
#243 = LINE ( 'NONE', #148, #239 ) ;
#244 = DIRECTION ( 'NONE',  ( -0.0000000000000000000, -0.0000000000000000000, -1.000000000000000000 ) ) ;
#245 = EDGE_CURVE ( 'NONE', #224, #279, #221, .T. ) ;
#246 = FACE_OUTER_BOUND ( 'NONE', #136, .T. ) ;
#247 = ORIENTED_EDGE ( 'NONE', *, *, #128, .T. ) ;
#248 =( LENGTH_UNIT ( ) NAMED_UNIT ( * ) SI_UNIT ( $, .METRE. ) );
#249 = VERTEX_POINT ( 'NONE', #272 ) ;
#250 = DIRECTION ( 'NONE',  ( 0.0000000000000000000, 0.0000000000000000000, -1.000000000000000000 ) ) ;
#251 = ORIENTED_EDGE ( 'NONE', *, *, #39, .T. ) ;
#252 = ORIENTED_EDGE ( 'NONE', *, *, #128, .F. ) ;
#253 = PRODUCT_DEFINITION_FORMATION_WITH_SPECIFIED_SOURCE ( 'ANY', '', #241, .NOT_KNOWN. ) ;
#254 = SURFACE_STYLE_FILL_AREA ( #85 ) ;
#255 = ORIENTED_EDGE ( 'NONE', *, *, #139, .T. ) ;
#256 = DIRECTION ( 'NONE',  ( 0.0000000000000000000, 0.0000000000000000000, 1.000000000000000000 ) ) ;
#257 =( GEOMETRIC_REPRESENTATION_CONTEXT ( 3 ) GLOBAL_UNCERTAINTY_ASSIGNED_CONTEXT ( ( #2 ) ) GLOBAL_UNIT_ASSIGNED_CONTEXT ( ( #204, #303, #81 ) ) REPRESENTATION_CONTEXT ( 'NONE', 'WORKASPACE' ) );
#258 = ORIENTED_EDGE ( 'NONE', *, *, #75, .T. ) ;
#259 = AXIS2_PLACEMENT_3D ( 'NONE', #317, #190, #42 ) ;
#260 = DIRECTION ( 'NONE',  ( 0.0000000000000000000, 0.0000000000000000000, 1.000000000000000000 ) ) ;
#261 = SURFACE_SIDE_STYLE ('',( #113 ) ) ;
#262 = LINE ( 'NONE', #119, #105 ) ;
#263 = DIRECTION ( 'NONE',  ( -1.000000000000000000, 0.0000000000000000000, 0.0000000000000000000 ) ) ;
#264 = DIRECTION ( 'NONE',  ( -1.000000000000000000, 0.0000000000000000000, 0.0000000000000000000 ) ) ;
#265 = CARTESIAN_POINT ( 'NONE',  ( 0.0000000000000000000, 0.0000000000000000000, 0.1799499999999993327 ) ) ;
#266 = EDGE_CURVE ( 'NONE', #177, #249, #101, .T. ) ;
#267 = DIRECTION ( 'NONE',  ( -1.000000000000000000, 0.0000000000000000000, 0.0000000000000000000 ) ) ;
#268 = CARTESIAN_POINT ( 'NONE',  ( 0.0000000000000000000, 0.0000000000000000000, 0.0000000000000000000 ) ) ;
#269 = ADVANCED_FACE ( 'NONE', ( #246 ), #271, .T. ) ;
#270 = PRESENTATION_STYLE_ASSIGNMENT (( #176 ) ) ;
#271 = CONICAL_SURFACE ( 'NONE', #288, 0.1724999999999995981, 0.7853981633974357335 ) ;
#272 = CARTESIAN_POINT ( 'NONE',  ( -0.1874499999999999778, 2.295600425001713619E-17, 0.1799499999999993327 ) ) ;
#273 = COLOUR_RGB ( '',0.7921568627450980005, 0.8196078431372548767, 0.9333333333333333481 ) ;
#274 = ORIENTED_EDGE ( 'NONE', *, *, #27, .T. ) ;
#275 = CARTESIAN_POINT ( 'NONE',  ( 0.1724999999999995981, 2.112515728529179297E-17, 2.500000000000000000 ) ) ;
#276 = ORIENTED_EDGE ( 'NONE', *, *, #315, .F. ) ;
#277 = EDGE_CURVE ( 'NONE', #165, #184, #234, .T. ) ;
#278 = CARTESIAN_POINT ( 'NONE',  ( -0.1874500000000000610, 0.0000000000000000000, 0.0000000000000000000 ) ) ;
#279 = VERTEX_POINT ( 'NONE', #180 ) ;
#280 = DIRECTION ( 'NONE',  ( 0.7071067811865385799, 8.659560562354823157E-17, -0.7071067811865563435 ) ) ;
#281 = EDGE_LOOP ( 'NONE', ( #222, #255, #22, #201 ) ) ;
#282 =( GEOMETRIC_REPRESENTATION_CONTEXT ( 3 ) GLOBAL_UNCERTAINTY_ASSIGNED_CONTEXT ( ( #285 ) ) GLOBAL_UNIT_ASSIGNED_CONTEXT ( ( #197, #7, #329 ) ) REPRESENTATION_CONTEXT ( 'NONE', 'WORKASPACE' ) );
#283 = SURFACE_STYLE_USAGE ( .BOTH. , #261 ) ;
#284 = CARTESIAN_POINT ( 'NONE',  ( -0.1724999999999995981, 0.0000000000000000000, 2.500000000000000000 ) ) ;
#285 = UNCERTAINTY_MEASURE_WITH_UNIT (LENGTH_MEASURE( 1.000000000000000082E-05 ), #197, 'distance_accuracy_value', 'NONE');
#286 = DIRECTION ( 'NONE',  ( -0.0000000000000000000, -0.0000000000000000000, -1.000000000000000000 ) ) ;
#287 = CIRCLE ( 'NONE', #159, 0.1875000000000000278 ) ;
#288 = AXIS2_PLACEMENT_3D ( 'NONE', #103, #250, #129 ) ;
#289 = DIRECTION ( 'NONE',  ( 0.0000000000000000000, 0.0000000000000000000, 1.000000000000000000 ) ) ;
#290 = ORIENTED_EDGE ( 'NONE', *, *, #266, .F. ) ;
#291 = CARTESIAN_POINT ( 'NONE',  ( 0.1874500000000001443, 0.0000000000000000000, 1.000000000000000000 ) ) ;
#292 = CIRCLE ( 'NONE', #163, 0.1874500000000000055 ) ;
#293 = CARTESIAN_POINT ( 'NONE',  ( 0.1724999999999995981, 2.204364238465233357E-17, 2.500000000000000000 ) ) ;
#294 = EDGE_CURVE ( 'NONE', #224, #184, #51, .T. ) ;
#295 = CARTESIAN_POINT ( 'NONE',  ( 0.1875000000000000278, 2.296212748401287726E-17, 2.500000000000000000 ) ) ;
#296 = CARTESIAN_POINT ( 'NONE',  ( 0.0000000000000000000, 0.0000000000000000000, 1.000000000000000000 ) ) ;
#297 = VECTOR ( 'NONE', #33, 39.37007874015748854 ) ;
#298 = CIRCLE ( 'NONE', #175, 0.007499999999999999722 ) ;
#299 = DIRECTION ( 'NONE',  ( -0.0000000000000000000, -0.0000000000000000000, -1.000000000000000000 ) ) ;
#300 = AXIS2_PLACEMENT_3D ( 'NONE', #209, #164, #4 ) ;
#301 = DIRECTION ( 'NONE',  ( -1.000000000000000000, 0.0000000000000000000, 0.0000000000000000000 ) ) ;
#302 = VECTOR ( 'NONE', #244, 39.37007874015748143 ) ;
#303 =( NAMED_UNIT ( * ) PLANE_ANGLE_UNIT ( ) SI_UNIT ( $, .RADIAN. ) );
#304 = ORIENTED_EDGE ( 'NONE', *, *, #186, .T. ) ;
#305 = EDGE_LOOP ( 'NONE', ( #252, #58, #258, #161 ) ) ;
#306 = AXIS2_PLACEMENT_3D ( 'NONE', #38, #236, #267 ) ;
#307 = PLANE ( 'NONE',  #15 ) ;
#308 = DIRECTION ( 'NONE',  ( -1.000000000000000000, 0.0000000000000000000, 0.0000000000000000000 ) ) ;
#309 = CARTESIAN_POINT ( 'NONE',  ( 0.0000000000000000000, 0.0000000000000000000, 2.500000000000000000 ) ) ;
#310 = PRODUCT_RELATED_PRODUCT_CATEGORY ( 'part', '', ( #241 ) ) ;
#311 = DIRECTION ( 'NONE',  ( -1.000000000000000000, 0.0000000000000000000, 0.0000000000000000000 ) ) ;
#312 = AXIS2_PLACEMENT_3D ( 'NONE', #73, #168, #264 ) ;
#313 = CLOSED_SHELL ( 'NONE', ( #211, #64, #188, #198, #149, #108, #269, #166, #48, #219, #5 ) ) ;
#314 = MECHANICAL_DESIGN_GEOMETRIC_PRESENTATION_REPRESENTATION (  '', ( #123 ), #282 ) ;
#315 = EDGE_CURVE ( 'NONE', #78, #249, #83, .T. ) ;
#316 = CARTESIAN_POINT ( 'NONE',  ( 0.1875000000000000278, 2.296212748401287726E-17, 2.484999999999999432 ) ) ;
#317 = CARTESIAN_POINT ( 'NONE',  ( 0.0000000000000000000, 0.0000000000000000000, 1.000000000000000000 ) ) ;
#318 = DIRECTION ( 'NONE',  ( -0.0000000000000000000, -0.0000000000000000000, -1.000000000000000000 ) ) ;
#319 = DIRECTION ( 'NONE',  ( 1.000000000000000000, 0.0000000000000000000, 0.0000000000000000000 ) ) ;
#320 = CARTESIAN_POINT ( 'NONE',  ( 0.0000000000000000000, 0.0000000000000000000, 2.500000000000000000 ) ) ;
#321 = EDGE_LOOP ( 'NONE', ( #158, #156 ) ) ;
#322 = DIRECTION ( 'NONE',  ( 0.0000000000000000000, 0.0000000000000000000, 1.000000000000000000 ) ) ;
#323 = EDGE_CURVE ( 'NONE', #181, #177, #298, .T. ) ;
#324 = ORIENTED_EDGE ( 'NONE', *, *, #294, .F. ) ;
#325 = VERTEX_POINT ( 'NONE', #131 ) ;
#326 = PRODUCT_CONTEXT ( 'NONE', #124, 'mechanical' ) ;
#327 = ORIENTED_EDGE ( 'NONE', *, *, #323, .T. ) ;
#328 = AXIS2_PLACEMENT_3D ( 'NONE', #291, #17, #144 ) ;
#329 =( NAMED_UNIT ( * ) SI_UNIT ( $, .STERADIAN. ) SOLID_ANGLE_UNIT ( ) );
ENDSEC;
END-ISO-10303-21;
