ISO-10303-21;
HEADER;
FILE_DESCRIPTION (( 'STEP AP214' ),
    '1' );
FILE_NAME ('Micro_RDD-10.STEP',
    '2021-08-31T15:20:22',
    ( '' ),
    ( '' ),
    'SwSTEP 2.0',
    'SolidWorks 2020',
    '' );
FILE_SCHEMA (( 'AUTOMOTIVE_DESIGN' ));
ENDSEC;

DATA;
#1 = LINE ( 'NONE', #217, #297 ) ;
#2 = AXIS2_PLACEMENT_3D ( 'NONE', #176, #3, #173 ) ;
#3 = DIRECTION ( 'NONE',  ( -1.224646799147353454E-16, -0.0000000000000000000, -1.000000000000000000 ) ) ;
#4 = ORIENTED_EDGE ( 'NONE', *, *, #268, .T. ) ;
#5 = ORIENTED_EDGE ( 'NONE', *, *, #166, .T. ) ;
#6 = CARTESIAN_POINT ( 'NONE',  ( 0.0000000000000000000, 0.0000000000000000000, 1.485000000000000764 ) ) ;
#7 = EDGE_CURVE ( 'NONE', #296, #227, #277, .T. ) ;
#8 = UNCERTAINTY_MEASURE_WITH_UNIT (LENGTH_MEASURE( 1.000000000000000082E-05 ), #36, 'distance_accuracy_value', 'NONE');
#9 = AXIS2_PLACEMENT_3D ( 'NONE', #131, #84, #299 ) ;
#10 =( GEOMETRIC_REPRESENTATION_CONTEXT ( 3 ) GLOBAL_UNCERTAINTY_ASSIGNED_CONTEXT ( ( #113 ) ) GLOBAL_UNIT_ASSIGNED_CONTEXT ( ( #123, #71, #212 ) ) REPRESENTATION_CONTEXT ( 'NONE', 'WORKASPACE' ) );
#11 = PRESENTATION_STYLE_ASSIGNMENT (( #228 ) ) ;
#12 = ORIENTED_EDGE ( 'NONE', *, *, #35, .T. ) ;
#13 = DIRECTION ( 'NONE',  ( 1.000000000000000000, 0.0000000000000000000, 0.0000000000000000000 ) ) ;
#14 = ORIENTED_EDGE ( 'NONE', *, *, #150, .F. ) ;
#15 = MECHANICAL_DESIGN_GEOMETRIC_PRESENTATION_REPRESENTATION (  '', ( #270 ), #246 ) ;
#16 = CARTESIAN_POINT ( 'NONE',  ( 0.0000000000000000000, 0.0000000000000000000, 1.500000000000000222 ) ) ;
#17 = DIRECTION ( 'NONE',  ( -1.224646799147353454E-16, -0.0000000000000000000, -1.000000000000000000 ) ) ;
#18 = CYLINDRICAL_SURFACE ( 'NONE', #275, 0.03121874999999998956 ) ;
#19 = SURFACE_STYLE_FILL_AREA ( #100 ) ;
#20 = DIRECTION ( 'NONE',  ( 1.224646799147353454E-16, 0.0000000000000000000, 1.000000000000000000 ) ) ;
#21 = DIRECTION ( 'NONE',  ( 1.000000000000000000, 0.0000000000000000000, -0.0000000000000000000 ) ) ;
#22 = FACE_OUTER_BOUND ( 'NONE', #23, .T. ) ;
#23 = EDGE_LOOP ( 'NONE', ( #86, #248, #133, #134 ) ) ;
#24 = CIRCLE ( 'NONE', #120, 0.04750000000000064587 ) ;
#25 = EDGE_LOOP ( 'NONE', ( #269, #82, #255, #52 ) ) ;
#26 = EDGE_CURVE ( 'NONE', #224, #199, #205, .T. ) ;
#27 = DIRECTION ( 'NONE',  ( 0.0000000000000000000, 0.0000000000000000000, -1.000000000000000000 ) ) ;
#28 = CYLINDRICAL_SURFACE ( 'NONE', #9, 0.06250000000000000000 ) ;
#29 = ORIENTED_EDGE ( 'NONE', *, *, #118, .T. ) ;
#30 = ORIENTED_EDGE ( 'NONE', *, *, #26, .F. ) ;
#31 = DIRECTION ( 'NONE',  ( -1.000000000000000000, 0.0000000000000000000, 0.0000000000000000000 ) ) ;
#32 = AXIS2_PLACEMENT_3D ( 'NONE', #295, #222, #81 ) ;
#33 = ORIENTED_EDGE ( 'NONE', *, *, #240, .T. ) ;
#34 = CLOSED_SHELL ( 'NONE', ( #226, #254, #78, #258, #47, #235, #128, #308, #139, #230, #219 ) ) ;
#35 = EDGE_CURVE ( 'NONE', #203, #199, #89, .T. ) ;
#36 =( CONVERSION_BASED_UNIT ( 'INCH', #180 ) LENGTH_UNIT ( ) NAMED_UNIT ( #60 ) );
#37 = ORIENTED_EDGE ( 'NONE', *, *, #35, .F. ) ;
#38 = DIRECTION ( 'NONE',  ( -1.224646799147353454E-16, -0.0000000000000000000, -1.000000000000000000 ) ) ;
#39 = CONICAL_SURFACE ( 'NONE', #216, 0.04750000000000064587, 0.7853981633974457255 ) ;
#40 = CARTESIAN_POINT ( 'NONE',  ( 0.0000000000000000000, 0.0000000000000000000, 1.500000000000000222 ) ) ;
#41 = CARTESIAN_POINT ( 'NONE',  ( 0.03121874999999999650, 0.0000000000000000000, 0.1880000000000000282 ) ) ;
#42 = CARTESIAN_POINT ( 'NONE',  ( -0.06250000000000000000, 0.0000000000000000000, 1.485000000000000764 ) ) ;
#43 = PRODUCT_CONTEXT ( 'NONE', #316, 'mechanical' ) ;
#44 = DIRECTION ( 'NONE',  ( 0.0000000000000000000, 0.0000000000000000000, 1.000000000000000000 ) ) ;
#45 = FACE_OUTER_BOUND ( 'NONE', #114, .T. ) ;
#46 = LENGTH_MEASURE_WITH_UNIT ( LENGTH_MEASURE( 0.02539999999999999897 ), #107 );
#47 = ADVANCED_FACE ( 'NONE', ( #280 ), #160, .T. ) ;
#48 = CIRCLE ( 'NONE', #93, 0.06250000000000000000 ) ;
#49 = DIRECTION ( 'NONE',  ( 1.000000000000000000, 0.0000000000000000000, 0.0000000000000000000 ) ) ;
#50 = ORIENTED_EDGE ( 'NONE', *, *, #90, .T. ) ;
#51 = FACE_OUTER_BOUND ( 'NONE', #25, .T. ) ;
#52 = ORIENTED_EDGE ( 'NONE', *, *, #7, .F. ) ;
#53 = ORIENTED_EDGE ( 'NONE', *, *, #192, .F. ) ;
#54 = AXIS2_PLACEMENT_3D ( 'NONE', #40, #171, #21 ) ;
#55 = EDGE_CURVE ( 'NONE', #199, #110, #287, .T. ) ;
#56 = ORIENTED_EDGE ( 'NONE', *, *, #150, .T. ) ;
#57 = DIMENSIONAL_EXPONENTS ( 1.000000000000000000, 0.0000000000000000000, 0.0000000000000000000, 0.0000000000000000000, 0.0000000000000000000, 0.0000000000000000000, 0.0000000000000000000 ) ;
#58 = MANIFOLD_SOLID_BREP ( 'Cut-Revolve1', #34 ) ;
#59 = ORIENTED_EDGE ( 'NONE', *, *, #310, .F. ) ;
#60 = DIMENSIONAL_EXPONENTS ( 1.000000000000000000, 0.0000000000000000000, 0.0000000000000000000, 0.0000000000000000000, 0.0000000000000000000, 0.0000000000000000000, 0.0000000000000000000 ) ;
#61 = VERTEX_POINT ( 'NONE', #183 ) ;
#62 = PRODUCT_DEFINITION ( 'UNKNOWN', '', #112, #305 ) ;
#63 = VECTOR ( 'NONE', #195, 39.37007874015748143 ) ;
#64 = AXIS2_PLACEMENT_3D ( 'NONE', #189, #315, #292 ) ;
#65 = DIRECTION ( 'NONE',  ( 0.0000000000000000000, 0.0000000000000000000, -1.000000000000000000 ) ) ;
#66 = PRODUCT ( 'Micro_RDD-10', 'Micro_RDD-10', '', ( #43 ) ) ;
#67 = DIRECTION ( 'NONE',  ( -0.9238795325112878487, 1.131426112287701493E-16, 0.3826834323650870062 ) ) ;
#68 = CARTESIAN_POINT ( 'NONE',  ( 2.302335982397024786E-17, 0.0000000000000000000, 0.1880000000000000282 ) ) ;
#69 = DIRECTION ( 'NONE',  ( -1.224646799147353454E-16, -0.0000000000000000000, -1.000000000000000000 ) ) ;
#70 = COLOUR_RGB ( '',0.7921568627450980005, 0.8196078431372548767, 0.9333333333333333481 ) ;
#71 =( NAMED_UNIT ( * ) PLANE_ANGLE_UNIT ( ) SI_UNIT ( $, .RADIAN. ) );
#72 = DIRECTION ( 'NONE',  ( -1.224646799147353454E-16, -0.0000000000000000000, -1.000000000000000000 ) ) ;
#73 = CARTESIAN_POINT ( 'NONE',  ( 2.302335982397024786E-17, 0.0000000000000000000, 0.1880000000000000282 ) ) ;
#74 = EDGE_CURVE ( 'NONE', #227, #61, #257, .T. ) ;
#75 = CARTESIAN_POINT ( 'NONE',  ( 4.474917996329785777E-17, 0.0000000000000000000, 0.3654047844199156958 ) ) ;
#76 =( GEOMETRIC_REPRESENTATION_CONTEXT ( 3 ) GLOBAL_UNCERTAINTY_ASSIGNED_CONTEXT ( ( #202 ) ) GLOBAL_UNIT_ASSIGNED_CONTEXT ( ( #125, #247, #79 ) ) REPRESENTATION_CONTEXT ( 'NONE', 'WORKASPACE' ) );
#77 = SURFACE_STYLE_USAGE ( .BOTH. , #320 ) ;
#78 = ADVANCED_FACE ( 'NONE', ( #185 ), #193, .T. ) ;
#79 =( NAMED_UNIT ( * ) SI_UNIT ( $, .STERADIAN. ) SOLID_ANGLE_UNIT ( ) );
#80 = ORIENTED_EDGE ( 'NONE', *, *, #209, .T. ) ;
#81 = DIRECTION ( 'NONE',  ( 1.000000000000000000, 0.0000000000000000000, 0.0000000000000000000 ) ) ;
#82 = ORIENTED_EDGE ( 'NONE', *, *, #161, .F. ) ;
#83 = AXIS2_PLACEMENT_3D ( 'NONE', #181, #155, #31 ) ;
#84 = DIRECTION ( 'NONE',  ( -0.0000000000000000000, -0.0000000000000000000, -1.000000000000000000 ) ) ;
#85 = ORIENTED_EDGE ( 'NONE', *, *, #143, .T. ) ;
#86 = ORIENTED_EDGE ( 'NONE', *, *, #240, .F. ) ;
#87 = AXIS2_PLACEMENT_3D ( 'NONE', #179, #232, #138 ) ;
#88 = AXIS2_PLACEMENT_3D ( 'NONE', #6, #65, #13 ) ;
#89 = LINE ( 'NONE', #284, #261 ) ;
#90 = EDGE_CURVE ( 'NONE', #225, #203, #197, .T. ) ;
#91 = ORIENTED_EDGE ( 'NONE', *, *, #310, .T. ) ;
#92 = DIRECTION ( 'NONE',  ( -1.000000000000000000, 0.0000000000000000000, 0.0000000000000000000 ) ) ;
#93 = AXIS2_PLACEMENT_3D ( 'NONE', #75, #69, #124 ) ;
#94 = CARTESIAN_POINT ( 'NONE',  ( 0.0000000000000000000, 0.0000000000000000000, 0.0000000000000000000 ) ) ;
#95 = DIRECTION ( 'NONE',  ( -1.000000000000000000, 0.0000000000000000000, 1.224646799147353454E-16 ) ) ;
#96 = SHAPE_DEFINITION_REPRESENTATION ( #188, #319 ) ;
#97 = DIRECTION ( 'NONE',  ( 1.224646799147353454E-16, 0.0000000000000000000, 1.000000000000000000 ) ) ;
#98 = APPLICATION_PROTOCOL_DEFINITION ( 'draft international standard', 'automotive_design', 1998, #119 ) ;
#99 = DIRECTION ( 'NONE',  ( 1.000000000000000000, 0.0000000000000000000, 0.0000000000000000000 ) ) ;
#100 = FILL_AREA_STYLE ('',( #286 ) ) ;
#101 = CARTESIAN_POINT ( 'NONE',  ( 0.0000000000000000000, 0.0000000000000000000, 1.485000000000000764 ) ) ;
#102 = DIRECTION ( 'NONE',  ( 1.000000000000000000, 0.0000000000000000000, -1.379608302175843553E-16 ) ) ;
#103 = EDGE_LOOP ( 'NONE', ( #279, #251 ) ) ;
#104 = DIRECTION ( 'NONE',  ( -0.0000000000000000000, -0.0000000000000000000, -1.000000000000000000 ) ) ;
#105 = AXIS2_PLACEMENT_3D ( 'NONE', #267, #272, #245 ) ;
#106 = AXIS2_PLACEMENT_3D ( 'NONE', #94, #241, #288 ) ;
#107 =( LENGTH_UNIT ( ) NAMED_UNIT ( * ) SI_UNIT ( $, .METRE. ) );
#108 = VERTEX_POINT ( 'NONE', #289 ) ;
#109 = ORIENTED_EDGE ( 'NONE', *, *, #184, .F. ) ;
#110 = VERTEX_POINT ( 'NONE', #142 ) ;
#111 = AXIS2_PLACEMENT_3D ( 'NONE', #208, #262, #263 ) ;
#112 = PRODUCT_DEFINITION_FORMATION_WITH_SPECIFIED_SOURCE ( 'ANY', '', #66, .NOT_KNOWN. ) ;
#113 = UNCERTAINTY_MEASURE_WITH_UNIT (LENGTH_MEASURE( 1.000000000000000082E-05 ), #123, 'distance_accuracy_value', 'NONE');
#114 = EDGE_LOOP ( 'NONE', ( #109, #175, #301 ) ) ;
#115 = COLOUR_RGB ( '',0.7921568627450980005, 0.8196078431372548767, 0.9333333333333333481 ) ;
#116 = CARTESIAN_POINT ( 'NONE',  ( 0.0000000000000000000, 0.0000000000000000000, 0.0000000000000000000 ) ) ;
#117 = CARTESIAN_POINT ( 'NONE',  ( -0.04750000000000064587, 0.0000000000000000000, 1.500000000000000222 ) ) ;
#118 = EDGE_CURVE ( 'NONE', #203, #225, #302, .T. ) ;
#119 = APPLICATION_CONTEXT ( 'automotive_design' ) ;
#120 = AXIS2_PLACEMENT_3D ( 'NONE', #16, #44, #99 ) ;
#121 = CARTESIAN_POINT ( 'NONE',  ( 0.0000000000000000000, 0.0000000000000000000, 0.0000000000000000000 ) ) ;
#122 = LINE ( 'NONE', #116, #206 ) ;
#123 =( CONVERSION_BASED_UNIT ( 'INCH', #239 ) LENGTH_UNIT ( ) NAMED_UNIT ( #137 ) );
#124 = DIRECTION ( 'NONE',  ( 1.000000000000000000, 0.0000000000000000000, 0.0000000000000000000 ) ) ;
#125 =( CONVERSION_BASED_UNIT ( 'INCH', #46 ) LENGTH_UNIT ( ) NAMED_UNIT ( #57 ) );
#126 = EDGE_LOOP ( 'NONE', ( #300, #5, #221, #53 ) ) ;
#127 = AXIS2_PLACEMENT_3D ( 'NONE', #290, #72, #92 ) ;
#128 = ADVANCED_FACE ( 'NONE', ( #237 ), #259, .T. ) ;
#129 = DIRECTION ( 'NONE',  ( 0.0000000000000000000, 0.0000000000000000000, -1.000000000000000000 ) ) ;
#130 = EDGE_CURVE ( 'NONE', #203, #61, #148, .T. ) ;
#131 = CARTESIAN_POINT ( 'NONE',  ( 0.0000000000000000000, 0.0000000000000000000, 1.500000000000000222 ) ) ;
#132 = ORIENTED_EDGE ( 'NONE', *, *, #130, .F. ) ;
#133 = ORIENTED_EDGE ( 'NONE', *, *, #74, .T. ) ;
#134 = ORIENTED_EDGE ( 'NONE', *, *, #143, .F. ) ;
#135 = FILL_AREA_STYLE_COLOUR ( '', #70 ) ;
#136 = AXIS2_PLACEMENT_3D ( 'NONE', #68, #97, #244 ) ;
#137 = DIMENSIONAL_EXPONENTS ( 1.000000000000000000, 0.0000000000000000000, 0.0000000000000000000, 0.0000000000000000000, 0.0000000000000000000, 0.0000000000000000000, 0.0000000000000000000 ) ;
#138 = DIRECTION ( 'NONE',  ( -1.000000000000000000, 0.0000000000000000000, 1.367291288120252134E-16 ) ) ;
#139 = ADVANCED_FACE ( 'NONE', ( #266 ), #186, .T. ) ;
#140 = DIRECTION ( 'NONE',  ( -0.0000000000000000000, -0.0000000000000000000, -1.000000000000000000 ) ) ;
#141 = CARTESIAN_POINT ( 'NONE',  ( 0.04750000000000064587, 5.817072295950006528E-18, 1.500000000000000222 ) ) ;
#142 = CARTESIAN_POINT ( 'NONE',  ( 0.03121874999999999997, 0.0000000000000000000, 0.01293122965033494803 ) ) ;
#143 = EDGE_CURVE ( 'NONE', #182, #61, #48, .T. ) ;
#144 = FACE_OUTER_BOUND ( 'NONE', #281, .T. ) ;
#145 = CIRCLE ( 'NONE', #211, 0.06250000000000000000 ) ;
#146 = FACE_OUTER_BOUND ( 'NONE', #177, .T. ) ;
#147 = PRESENTATION_STYLE_ASSIGNMENT (( #77 ) ) ;
#148 = LINE ( 'NONE', #215, #163 ) ;
#149 = DIRECTION ( 'NONE',  ( 0.0000000000000000000, 0.0000000000000000000, -1.000000000000000000 ) ) ;
#150 = EDGE_CURVE ( 'NONE', #225, #110, #309, .T. ) ;
#151 = EDGE_LOOP ( 'NONE', ( #14, #50, #12, #274 ) ) ;
#152 = DIRECTION ( 'NONE',  ( -1.000000000000000000, 0.0000000000000000000, 0.0000000000000000000 ) ) ;
#153 = EDGE_LOOP ( 'NONE', ( #132, #218, #4, #85 ) ) ;
#154 = PRESENTATION_LAYER_ASSIGNMENT (  '', '', ( #270 ) ) ;
#155 = DIRECTION ( 'NONE',  ( -0.0000000000000000000, -0.0000000000000000000, -1.000000000000000000 ) ) ;
#156 = SURFACE_SIDE_STYLE ('',( #231 ) ) ;
#157 = FILL_AREA_STYLE ('',( #135 ) ) ;
#158 = CONICAL_SURFACE ( 'NONE', #282, 0.04750000000000064587, 0.7853981633974457255 ) ;
#159 = STYLED_ITEM ( 'NONE', ( #147 ), #319 ) ;
#160 = CYLINDRICAL_SURFACE ( 'NONE', #83, 0.06250000000000000000 ) ;
#161 = EDGE_CURVE ( 'NONE', #178, #108, #24, .T. ) ;
#162 = DIRECTION ( 'NONE',  ( -1.000000000000000000, 0.0000000000000000000, 0.0000000000000000000 ) ) ;
#163 = VECTOR ( 'NONE', #314, 39.37007874015747433 ) ;
#164 = MECHANICAL_DESIGN_GEOMETRIC_PRESENTATION_REPRESENTATION (  '', ( #159 ), #10 ) ;
#165 = CARTESIAN_POINT ( 'NONE',  ( -0.03121874999999999997, 3.823194226088142917E-18, 0.01293122965033495324 ) ) ;
#166 = EDGE_CURVE ( 'NONE', #108, #296, #311, .T. ) ;
#167 = VECTOR ( 'NONE', #67, 39.37007874015748854 ) ;
#168 = CARTESIAN_POINT ( 'NONE',  ( 0.0000000000000000000, 0.0000000000000000000, 0.0000000000000000000 ) ) ;
#169 = LINE ( 'NONE', #117, #238 ) ;
#170 = VECTOR ( 'NONE', #191, 39.37007874015748143 ) ;
#171 = DIRECTION ( 'NONE',  ( 0.0000000000000000000, 0.0000000000000000000, 1.000000000000000000 ) ) ;
#172 = DIRECTION ( 'NONE',  ( -1.000000000000000000, 0.0000000000000000000, 0.0000000000000000000 ) ) ;
#173 = DIRECTION ( 'NONE',  ( 1.000000000000000000, 0.0000000000000000000, 0.0000000000000000000 ) ) ;
#174 = CIRCLE ( 'NONE', #32, 0.04750000000000064587 ) ;
#175 = ORIENTED_EDGE ( 'NONE', *, *, #26, .T. ) ;
#176 = CARTESIAN_POINT ( 'NONE',  ( 4.474917996329785777E-17, 0.0000000000000000000, 0.3654047844199156958 ) ) ;
#177 = EDGE_LOOP ( 'NONE', ( #30, #256, #80 ) ) ;
#178 = VERTEX_POINT ( 'NONE', #213 ) ;
#179 = CARTESIAN_POINT ( 'NONE',  ( 1.583618900032204565E-18, 0.0000000000000000000, 0.01293122965033494977 ) ) ;
#180 = LENGTH_MEASURE_WITH_UNIT ( LENGTH_MEASURE( 0.02539999999999999897 ), #304 );
#181 = CARTESIAN_POINT ( 'NONE',  ( 0.0000000000000000000, 0.0000000000000000000, 1.500000000000000222 ) ) ;
#182 = VERTEX_POINT ( 'NONE', #190 ) ;
#183 = CARTESIAN_POINT ( 'NONE',  ( -0.06249999999999995837, 0.0000000000000000000, 0.3654047844199156958 ) ) ;
#184 = EDGE_CURVE ( 'NONE', #224, #110, #122, .T. ) ;
#185 = FACE_OUTER_BOUND ( 'NONE', #271, .T. ) ;
#186 = CONICAL_SURFACE ( 'NONE', #242, 0.03121874999999997569, 0.1745329251994338360 ) ;
#187 = CARTESIAN_POINT ( 'NONE',  ( 0.03121874999999998956, 3.823194226088142147E-18, -3.823194226088142917E-18 ) ) ;
#188 = PRODUCT_DEFINITION_SHAPE ( 'NONE', 'NONE',  #62 ) ;
#189 = CARTESIAN_POINT ( 'NONE',  ( 0.0000000000000000000, 0.0000000000000000000, 0.0000000000000000000 ) ) ;
#190 = CARTESIAN_POINT ( 'NONE',  ( 0.06250000000000004163, 7.654042494670960626E-18, 0.3654047844199156958 ) ) ;
#191 = DIRECTION ( 'NONE',  ( 0.7071067811865456854, 8.659560562354911904E-17, -0.7071067811865493491 ) ) ;
#192 = EDGE_CURVE ( 'NONE', #178, #227, #169, .T. ) ;
#193 = CONICAL_SURFACE ( 'NONE', #136, 0.03121874999999997569, 0.1745329251994338360 ) ;
#194 = DIRECTION ( 'NONE',  ( 0.9238795325112879597, 0.0000000000000000000, 0.3826834323650868397 ) ) ;
#195 = DIRECTION ( 'NONE',  ( 0.1736481776669313304, 0.0000000000000000000, 0.9848077530122077983 ) ) ;
#196 = CARTESIAN_POINT ( 'NONE',  ( 0.0000000000000000000, 0.0000000000000000000, 1.500000000000000222 ) ) ;
#197 = CIRCLE ( 'NONE', #250, 0.03121874999999997569 ) ;
#198 = ORIENTED_EDGE ( 'NONE', *, *, #55, .F. ) ;
#199 = VERTEX_POINT ( 'NONE', #165 ) ;
#200 = CARTESIAN_POINT ( 'NONE',  ( 0.0000000000000000000, 0.0000000000000000000, 0.0000000000000000000 ) ) ;
#201 = AXIS2_PLACEMENT_3D ( 'NONE', #214, #323, #102 ) ;
#202 = UNCERTAINTY_MEASURE_WITH_UNIT (LENGTH_MEASURE( 1.000000000000000082E-05 ), #125, 'distance_accuracy_value', 'NONE');
#203 = VERTEX_POINT ( 'NONE', #210 ) ;
#204 =( NAMED_UNIT ( * ) SI_UNIT ( $, .STERADIAN. ) SOLID_ANGLE_UNIT ( ) );
#205 = LINE ( 'NONE', #200, #167 ) ;
#206 = VECTOR ( 'NONE', #194, 39.37007874015748143 ) ;
#207 =( NAMED_UNIT ( * ) PLANE_ANGLE_UNIT ( ) SI_UNIT ( $, .RADIAN. ) );
#208 = CARTESIAN_POINT ( 'NONE',  ( 1.583618900032204565E-18, 0.0000000000000000000, 0.01293122965033494977 ) ) ;
#209 = EDGE_CURVE ( 'NONE', #110, #199, #291, .T. ) ;
#210 = CARTESIAN_POINT ( 'NONE',  ( -0.03121874999999995487, 5.738618360379549075E-18, 0.1880000000000000282 ) ) ;
#211 = AXIS2_PLACEMENT_3D ( 'NONE', #101, #27, #49 ) ;
#212 =( NAMED_UNIT ( * ) SI_UNIT ( $, .STERADIAN. ) SOLID_ANGLE_UNIT ( ) );
#213 = CARTESIAN_POINT ( 'NONE',  ( -0.04750000000000064587, 0.0000000000000000000, 1.500000000000000222 ) ) ;
#214 = CARTESIAN_POINT ( 'NONE',  ( 4.821444091131313077E-15, 0.0000000000000000000, 39.37007874015748143 ) ) ;
#215 = CARTESIAN_POINT ( 'NONE',  ( -0.03121874999999995487, 3.823194226088140606E-18, 0.1880000000000000282 ) ) ;
#216 = AXIS2_PLACEMENT_3D ( 'NONE', #196, #149, #172 ) ;
#217 = CARTESIAN_POINT ( 'NONE',  ( 0.06250000000000000000, 7.654042494670956004E-18, 1.500000000000000222 ) ) ;
#218 = ORIENTED_EDGE ( 'NONE', *, *, #90, .F. ) ;
#219 = ADVANCED_FACE ( 'NONE', ( #264 ), #236, .T. ) ;
#220 = CARTESIAN_POINT ( 'NONE',  ( 0.03121874999999999650, 0.0000000000000000000, 0.1880000000000000282 ) ) ;
#221 = ORIENTED_EDGE ( 'NONE', *, *, #278, .F. ) ;
#222 = DIRECTION ( 'NONE',  ( 0.0000000000000000000, 0.0000000000000000000, 1.000000000000000000 ) ) ;
#223 = CARTESIAN_POINT ( 'NONE',  ( 0.06250000000000000000, 7.654042494670956004E-18, 1.485000000000000764 ) ) ;
#224 = VERTEX_POINT ( 'NONE', #168 ) ;
#225 = VERTEX_POINT ( 'NONE', #41 ) ;
#226 = ADVANCED_FACE ( 'NONE', ( #144 ), #18, .T. ) ;
#227 = VERTEX_POINT ( 'NONE', #42 ) ;
#228 = SURFACE_STYLE_USAGE ( .BOTH. , #156 ) ;
#229 = CONICAL_SURFACE ( 'NONE', #201, 95.04777804618566961, 1.178097245096175527 ) ;
#230 = ADVANCED_FACE ( 'NONE', ( #146 ), #229, .T. ) ;
#231 = SURFACE_STYLE_FILL_AREA ( #157 ) ;
#232 = DIRECTION ( 'NONE',  ( -1.224646799147353454E-16, -0.0000000000000000000, -1.000000000000000000 ) ) ;
#233 = VECTOR ( 'NONE', #140, 39.37007874015748143 ) ;
#234 = DIRECTION ( 'NONE',  ( -0.7071067811865456854, 0.0000000000000000000, -0.7071067811865493491 ) ) ;
#235 = ADVANCED_FACE ( 'NONE', ( #22 ), #28, .T. ) ;
#236 = CYLINDRICAL_SURFACE ( 'NONE', #106, 0.03121874999999998956 ) ;
#237 = FACE_OUTER_BOUND ( 'NONE', #103, .T. ) ;
#238 = VECTOR ( 'NONE', #234, 39.37007874015748143 ) ;
#239 = LENGTH_MEASURE_WITH_UNIT ( LENGTH_MEASURE( 0.02539999999999999897 ), #243 );
#240 = EDGE_CURVE ( 'NONE', #296, #182, #1, .T. ) ;
#241 = DIRECTION ( 'NONE',  ( -1.224646799147353454E-16, -0.0000000000000000000, -1.000000000000000000 ) ) ;
#242 = AXIS2_PLACEMENT_3D ( 'NONE', #73, #20, #285 ) ;
#243 =( LENGTH_UNIT ( ) NAMED_UNIT ( * ) SI_UNIT ( $, .METRE. ) );
#244 = DIRECTION ( 'NONE',  ( 1.000000000000000000, 0.0000000000000000000, 0.0000000000000000000 ) ) ;
#245 = DIRECTION ( 'NONE',  ( 1.000000000000000000, 0.0000000000000000000, -1.379608302175843553E-16 ) ) ;
#246 =( GEOMETRIC_REPRESENTATION_CONTEXT ( 3 ) GLOBAL_UNCERTAINTY_ASSIGNED_CONTEXT ( ( #8 ) ) GLOBAL_UNIT_ASSIGNED_CONTEXT ( ( #36, #207, #204 ) ) REPRESENTATION_CONTEXT ( 'NONE', 'WORKASPACE' ) );
#247 =( NAMED_UNIT ( * ) PLANE_ANGLE_UNIT ( ) SI_UNIT ( $, .RADIAN. ) );
#248 = ORIENTED_EDGE ( 'NONE', *, *, #7, .T. ) ;
#249 = CARTESIAN_POINT ( 'NONE',  ( 0.0000000000000000000, 0.0000000000000000000, 1.500000000000000222 ) ) ;
#250 = AXIS2_PLACEMENT_3D ( 'NONE', #317, #38, #162 ) ;
#251 = ORIENTED_EDGE ( 'NONE', *, *, #293, .T. ) ;
#252 = CARTESIAN_POINT ( 'NONE',  ( -0.06250000000000000000, 0.0000000000000000000, 1.500000000000000222 ) ) ;
#253 = ORIENTED_EDGE ( 'NONE', *, *, #118, .F. ) ;
#254 = ADVANCED_FACE ( 'NONE', ( #45 ), #312, .T. ) ;
#255 = ORIENTED_EDGE ( 'NONE', *, *, #192, .T. ) ;
#256 = ORIENTED_EDGE ( 'NONE', *, *, #184, .T. ) ;
#257 = LINE ( 'NONE', #252, #233 ) ;
#258 = ADVANCED_FACE ( 'NONE', ( #321 ), #39, .T. ) ;
#259 = PLANE ( 'NONE',  #54 ) ;
#260 = CIRCLE ( 'NONE', #2, 0.06250000000000000000 ) ;
#261 = VECTOR ( 'NONE', #306, 39.37007874015748143 ) ;
#262 = DIRECTION ( 'NONE',  ( -1.224646799147353454E-16, -0.0000000000000000000, -1.000000000000000000 ) ) ;
#263 = DIRECTION ( 'NONE',  ( -1.000000000000000000, 0.0000000000000000000, 1.367291288120252134E-16 ) ) ;
#264 = FACE_OUTER_BOUND ( 'NONE', #151, .T. ) ;
#265 = APPLICATION_PROTOCOL_DEFINITION ( 'draft international standard', 'automotive_design', 1998, #316 ) ;
#266 = FACE_OUTER_BOUND ( 'NONE', #153, .T. ) ;
#267 = CARTESIAN_POINT ( 'NONE',  ( 4.821444091131313077E-15, 0.0000000000000000000, 39.37007874015748143 ) ) ;
#268 = EDGE_CURVE ( 'NONE', #225, #182, #294, .T. ) ;
#269 = ORIENTED_EDGE ( 'NONE', *, *, #166, .F. ) ;
#270 = STYLED_ITEM ( 'NONE', ( #11 ), #58 ) ;
#271 = EDGE_LOOP ( 'NONE', ( #253, #273, #91, #283 ) ) ;
#272 = DIRECTION ( 'NONE',  ( 1.224646799147353454E-16, 0.0000000000000000000, 1.000000000000000000 ) ) ;
#273 = ORIENTED_EDGE ( 'NONE', *, *, #130, .T. ) ;
#274 = ORIENTED_EDGE ( 'NONE', *, *, #209, .F. ) ;
#275 = AXIS2_PLACEMENT_3D ( 'NONE', #121, #313, #95 ) ;
#276 = ORIENTED_EDGE ( 'NONE', *, *, #74, .F. ) ;
#277 = CIRCLE ( 'NONE', #88, 0.06250000000000000000 ) ;
#278 = EDGE_CURVE ( 'NONE', #227, #296, #145, .T. ) ;
#279 = ORIENTED_EDGE ( 'NONE', *, *, #161, .T. ) ;
#280 = FACE_OUTER_BOUND ( 'NONE', #303, .T. ) ;
#281 = EDGE_LOOP ( 'NONE', ( #29, #56, #198, #37 ) ) ;
#282 = AXIS2_PLACEMENT_3D ( 'NONE', #249, #129, #152 ) ;
#283 = ORIENTED_EDGE ( 'NONE', *, *, #268, .F. ) ;
#284 = CARTESIAN_POINT ( 'NONE',  ( -0.03121874999999998956, 0.0000000000000000000, 3.823194226088142917E-18 ) ) ;
#285 = DIRECTION ( 'NONE',  ( 1.000000000000000000, 0.0000000000000000000, 0.0000000000000000000 ) ) ;
#286 = FILL_AREA_STYLE_COLOUR ( '', #115 ) ;
#287 = CIRCLE ( 'NONE', #87, 0.03121874999999999650 ) ;
#288 = DIRECTION ( 'NONE',  ( -1.000000000000000000, 0.0000000000000000000, 1.224646799147353454E-16 ) ) ;
#289 = CARTESIAN_POINT ( 'NONE',  ( 0.04750000000000064587, 6.735557395310482421E-18, 1.500000000000000222 ) ) ;
#290 = CARTESIAN_POINT ( 'NONE',  ( 2.302335982397024786E-17, 0.0000000000000000000, 0.1880000000000000282 ) ) ;
#291 = CIRCLE ( 'NONE', #111, 0.03121874999999999650 ) ;
#292 = DIRECTION ( 'NONE',  ( 1.000000000000000000, 0.0000000000000000000, 0.0000000000000000000 ) ) ;
#293 = EDGE_CURVE ( 'NONE', #108, #178, #174, .T. ) ;
#294 = LINE ( 'NONE', #220, #63 ) ;
#295 = CARTESIAN_POINT ( 'NONE',  ( 0.0000000000000000000, 0.0000000000000000000, 1.500000000000000222 ) ) ;
#296 = VERTEX_POINT ( 'NONE', #223 ) ;
#297 = VECTOR ( 'NONE', #104, 39.37007874015748143 ) ;
#298 = PRESENTATION_LAYER_ASSIGNMENT (  '', '', ( #159 ) ) ;
#299 = DIRECTION ( 'NONE',  ( -1.000000000000000000, 0.0000000000000000000, 0.0000000000000000000 ) ) ;
#300 = ORIENTED_EDGE ( 'NONE', *, *, #293, .F. ) ;
#301 = ORIENTED_EDGE ( 'NONE', *, *, #55, .T. ) ;
#302 = CIRCLE ( 'NONE', #127, 0.03121874999999997569 ) ;
#303 = EDGE_LOOP ( 'NONE', ( #322, #33, #59, #276 ) ) ;
#304 =( LENGTH_UNIT ( ) NAMED_UNIT ( * ) SI_UNIT ( $, .METRE. ) );
#305 = PRODUCT_DEFINITION_CONTEXT ( 'detailed design', #119, 'design' ) ;
#306 = DIRECTION ( 'NONE',  ( -1.224646799147353454E-16, -0.0000000000000000000, -1.000000000000000000 ) ) ;
#307 = VECTOR ( 'NONE', #17, 39.37007874015748143 ) ;
#308 = ADVANCED_FACE ( 'NONE', ( #51 ), #158, .T. ) ;
#309 = LINE ( 'NONE', #187, #307 ) ;
#310 = EDGE_CURVE ( 'NONE', #61, #182, #260, .T. ) ;
#311 = LINE ( 'NONE', #141, #170 ) ;
#312 = CONICAL_SURFACE ( 'NONE', #105, 95.04777804618566961, 1.178097245096175527 ) ;
#313 = DIRECTION ( 'NONE',  ( -1.224646799147353454E-16, -0.0000000000000000000, -1.000000000000000000 ) ) ;
#314 = DIRECTION ( 'NONE',  ( -0.1736481776669311639, 2.126576849575782392E-17, 0.9848077530122080203 ) ) ;
#315 = DIRECTION ( 'NONE',  ( 0.0000000000000000000, 0.0000000000000000000, 1.000000000000000000 ) ) ;
#316 = APPLICATION_CONTEXT ( 'automotive_design' ) ;
#317 = CARTESIAN_POINT ( 'NONE',  ( 2.302335982397024786E-17, 0.0000000000000000000, 0.1880000000000000282 ) ) ;
#318 = PRODUCT_RELATED_PRODUCT_CATEGORY ( 'part', '', ( #66 ) ) ;
#319 = ADVANCED_BREP_SHAPE_REPRESENTATION ( 'Micro_RDD-10', ( #58, #64 ), #76 ) ;
#320 = SURFACE_SIDE_STYLE ('',( #19 ) ) ;
#321 = FACE_OUTER_BOUND ( 'NONE', #126, .T. ) ;
#322 = ORIENTED_EDGE ( 'NONE', *, *, #278, .T. ) ;
#323 = DIRECTION ( 'NONE',  ( 1.224646799147353454E-16, 0.0000000000000000000, 1.000000000000000000 ) ) ;
ENDSEC;
END-ISO-10303-21;
