ISO-10303-21;
HEADER;
FILE_DESCRIPTION (( 'STEP AP214' ),
    '1' );
FILE_NAME ('59510.STEP',
    '2023-07-24T15:48:14',
    ( '' ),
    ( '' ),
    'SwSTEP 2.0',
    'SolidWorks 2023',
    '' );
FILE_SCHEMA (( 'AUTOMOTIVE_DESIGN' ));
ENDSEC;

DATA;
#1 = SURFACE_STYLE_USAGE ( .BOTH. , #97 ) ;
#2 = ORIENTED_EDGE ( 'NONE', *, *, #110, .T. ) ;
#3 =( GEOMETRIC_REPRESENTATION_CONTEXT ( 3 ) GLOBAL_UNCERTAINTY_ASSIGNED_CONTEXT ( ( #114 ) ) GLOBAL_UNIT_ASSIGNED_CONTEXT ( ( #287, #179, #228 ) ) REPRESENTATION_CONTEXT ( 'NONE', 'WORKASPACE' ) );
#4 = CYLINDRICAL_SURFACE ( 'NONE', #66, 2.999999999999995115 ) ;
#5 = ORIENTED_EDGE ( 'NONE', *, *, #223, .F. ) ;
#6 = VERTEX_POINT ( 'NONE', #94 ) ;
#7 = APPLICATION_PROTOCOL_DEFINITION ( 'draft international standard', 'automotive_design', 1998, #224 ) ;
#8 = ORIENTED_EDGE ( 'NONE', *, *, #29, .T. ) ;
#9 = ORIENTED_EDGE ( 'NONE', *, *, #80, .F. ) ;
#10 = ADVANCED_FACE ( 'NONE', ( #137 ), #157, .T. ) ;
#11 = SURFACE_STYLE_USAGE ( .BOTH. , #60 ) ;
#12 = DIRECTION ( 'NONE',  ( 0.000000000000000000, -0.000000000000000000, 1.000000000000000000 ) ) ;
#13 = SURFACE_STYLE_FILL_AREA ( #280 ) ;
#14 = COLOUR_RGB ( '',0.7921568627450980005, 0.8196078431372548767, 0.9333333333333333481 ) ;
#15 = DIRECTION ( 'NONE',  ( 0.000000000000000000, -1.000000000000000000, -0.000000000000000000 ) ) ;
#16 = ORIENTED_EDGE ( 'NONE', *, *, #48, .T. ) ;
#17 = DIRECTION ( 'NONE',  ( 1.687291145491908606E-16, 1.000000000000000000, -0.000000000000000000 ) ) ;
#18 = CIRCLE ( 'NONE', #248, 2.999999999999999112 ) ;
#19 = PLANE ( 'NONE',  #120 ) ;
#20 = DIRECTION ( 'NONE',  ( 0.000000000000000000, 0.000000000000000000, -1.000000000000000000 ) ) ;
#21 = MECHANICAL_DESIGN_GEOMETRIC_PRESENTATION_REPRESENTATION (  '', ( #176 ), #106 ) ;
#22 = VERTEX_POINT ( 'NONE', #123 ) ;
#23 = ORIENTED_EDGE ( 'NONE', *, *, #110, .F. ) ;
#24 = FACE_OUTER_BOUND ( 'NONE', #70, .T. ) ;
#25 = CIRCLE ( 'NONE', #45, 2.999999999999991562 ) ;
#26 = MECHANICAL_DESIGN_GEOMETRIC_PRESENTATION_REPRESENTATION (  '', ( #281 ), #188 ) ;
#27 = CARTESIAN_POINT ( 'NONE',  ( -2.999999999999983569, 63.00000000000000000, 0.000000000000000000 ) ) ;
#28 = FILL_AREA_STYLE ('',( #207 ) ) ;
#29 = EDGE_CURVE ( 'NONE', #6, #22, #115, .T. ) ;
#30 = PRESENTATION_STYLE_ASSIGNMENT (( #1 ) ) ;
#31 = PRESENTATION_LAYER_ASSIGNMENT (  '', '', ( #35 ) ) ;
#32 = SURFACE_STYLE_USAGE ( .BOTH. , #169 ) ;
#33 = CARTESIAN_POINT ( 'NONE',  ( 2.999999999999999556, 18.00000000000000355, 3.673940397442056417E-16 ) ) ;
#34 = FILL_AREA_STYLE ('',( #145 ) ) ;
#35 = STYLED_ITEM ( 'NONE', ( #30 ), #215 ) ;
#36 = SURFACE_STYLE_USAGE ( .BOTH. , #266 ) ;
#37 = PRESENTATION_STYLE_ASSIGNMENT (( #42 ) ) ;
#38 = PRESENTATION_LAYER_ASSIGNMENT (  '', '', ( #56 ) ) ;
#39 = DIRECTION ( 'NONE',  ( -0.000000000000000000, -1.000000000000000000, -0.000000000000000000 ) ) ;
#40 = AXIS2_PLACEMENT_3D ( 'NONE', #46, #184, #211 ) ;
#41 = EDGE_CURVE ( 'NONE', #161, #204, #25, .T. ) ;
#42 = SURFACE_STYLE_USAGE ( .BOTH. , #244 ) ;
#43 =( NAMED_UNIT ( * ) PLANE_ANGLE_UNIT ( ) SI_UNIT ( $, .RADIAN. ) );
#44 =( NAMED_UNIT ( * ) SI_UNIT ( $, .STERADIAN. ) SOLID_ANGLE_UNIT ( ) );
#45 = AXIS2_PLACEMENT_3D ( 'NONE', #144, #278, #261 ) ;
#46 = CARTESIAN_POINT ( 'NONE',  ( 0.000000000000000000, 0.000000000000000000, 0.000000000000000000 ) ) ;
#47 = VERTEX_POINT ( 'NONE', #33 ) ;
#48 = EDGE_CURVE ( 'NONE', #267, #174, #272, .T. ) ;
#49 = ORIENTED_EDGE ( 'NONE', *, *, #133, .F. ) ;
#50 = PRODUCT ( '59510', '59510', '', ( #181 ) ) ;
#51 = AXIS2_PLACEMENT_3D ( 'NONE', #166, #61, #162 ) ;
#52 = ORIENTED_EDGE ( 'NONE', *, *, #284, .T. ) ;
#53 = FILL_AREA_STYLE_COLOUR ( '', #251 ) ;
#54 = SURFACE_STYLE_FILL_AREA ( #172 ) ;
#55 =( NAMED_UNIT ( * ) SI_UNIT ( $, .STERADIAN. ) SOLID_ANGLE_UNIT ( ) );
#56 = STYLED_ITEM ( 'NONE', ( #168 ), #233 ) ;
#57 = CARTESIAN_POINT ( 'NONE',  ( 0.000000000000000000, 0.000000000000000000, 0.000000000000000000 ) ) ;
#58 =( LENGTH_UNIT ( ) NAMED_UNIT ( * ) SI_UNIT ( .MILLI., .METRE. ) );
#59 = LINE ( 'NONE', #195, #237 ) ;
#60 = SURFACE_SIDE_STYLE ('',( #167 ) ) ;
#61 = DIRECTION ( 'NONE',  ( -0.000000000000000000, -1.000000000000000000, -0.000000000000000000 ) ) ;
#62 = MECHANICAL_DESIGN_GEOMETRIC_PRESENTATION_REPRESENTATION (  '', ( #230 ), #134 ) ;
#63 = PRESENTATION_STYLE_ASSIGNMENT (( #36 ) ) ;
#64 = DIRECTION ( 'NONE',  ( 0.000000000000000000, 0.000000000000000000, -1.000000000000000000 ) ) ;
#65 = FILL_AREA_STYLE_COLOUR ( '', #14 ) ;
#66 = AXIS2_PLACEMENT_3D ( 'NONE', #73, #95, #288 ) ;
#67 = ORIENTED_EDGE ( 'NONE', *, *, #250, .F. ) ;
#68 = APPLICATION_CONTEXT ( 'automotive_design' ) ;
#69 = MECHANICAL_DESIGN_GEOMETRIC_PRESENTATION_REPRESENTATION (  '', ( #35 ), #165 ) ;
#70 = EDGE_LOOP ( 'NONE', ( #49, #252, #271, #96 ) ) ;
#71 = DIRECTION ( 'NONE',  ( -1.000000000000000000, 0.000000000000000000, 0.000000000000000000 ) ) ;
#72 = ORIENTED_EDGE ( 'NONE', *, *, #29, .F. ) ;
#73 = CARTESIAN_POINT ( 'NONE',  ( 7.592810154713587074E-15, 63.00000000000000000, 0.000000000000000000 ) ) ;
#74 = CIRCLE ( 'NONE', #242, 2.999999999999999112 ) ;
#75 = ORIENTED_EDGE ( 'NONE', *, *, #41, .T. ) ;
#76 = FACE_OUTER_BOUND ( 'NONE', #235, .T. ) ;
#77 =( LENGTH_UNIT ( ) NAMED_UNIT ( * ) SI_UNIT ( .MILLI., .METRE. ) );
#78 = DIRECTION ( 'NONE',  ( 1.687291145491908606E-16, 1.000000000000000000, -0.000000000000000000 ) ) ;
#79 = CARTESIAN_POINT ( 'NONE',  ( 0.000000000000000000, 0.000000000000000000, 0.000000000000000000 ) ) ;
#80 = EDGE_CURVE ( 'NONE', #232, #47, #212, .T. ) ;
#81 = FILL_AREA_STYLE ('',( #65 ) ) ;
#82 = DIRECTION ( 'NONE',  ( -0.000000000000000000, -1.000000000000000000, -0.000000000000000000 ) ) ;
#83 = AXIS2_PLACEMENT_3D ( 'NONE', #240, #216, #12 ) ;
#84 = SURFACE_SIDE_STYLE ('',( #13 ) ) ;
#85 = DIRECTION ( 'NONE',  ( -1.687291145491908606E-16, -1.000000000000000000, 0.000000000000000000 ) ) ;
#86 = DIRECTION ( 'NONE',  ( 1.000000000000000000, -1.687291145491908606E-16, 0.000000000000000000 ) ) ;
#87 =( NAMED_UNIT ( * ) SI_UNIT ( $, .STERADIAN. ) SOLID_ANGLE_UNIT ( ) );
#88 = AXIS2_PLACEMENT_3D ( 'NONE', #105, #194, #142 ) ;
#89 = DIRECTION ( 'NONE',  ( 1.687291145491908606E-16, 1.000000000000000000, -0.000000000000000000 ) ) ;
#90 = SURFACE_STYLE_FILL_AREA ( #203 ) ;
#91 = CARTESIAN_POINT ( 'NONE',  ( 0.000000000000000000, 0.000000000000000000, 0.000000000000000000 ) ) ;
#92 = EDGE_CURVE ( 'NONE', #204, #161, #119, .T. ) ;
#93 = EDGE_LOOP ( 'NONE', ( #5, #2, #52, #67 ) ) ;
#94 = CARTESIAN_POINT ( 'NONE',  ( 0.000000000000000000, 18.00000000000000355, -2.999999999999999112 ) ) ;
#95 = DIRECTION ( 'NONE',  ( 1.687291145491908606E-16, 1.000000000000000000, -0.000000000000000000 ) ) ;
#96 = ORIENTED_EDGE ( 'NONE', *, *, #41, .F. ) ;
#97 = SURFACE_SIDE_STYLE ('',( #54 ) ) ;
#98 = EDGE_LOOP ( 'NONE', ( #9, #219 ) ) ;
#99 = EDGE_CURVE ( 'NONE', #47, #232, #153, .T. ) ;
#100 = ORIENTED_EDGE ( 'NONE', *, *, #284, .F. ) ;
#101 = AXIS2_PLACEMENT_3D ( 'NONE', #276, #189, #241 ) ;
#102 = EDGE_LOOP ( 'NONE', ( #141, #229, #234, #121 ) ) ;
#103 = ADVANCED_FACE ( 'NONE', ( #76 ), #236, .T. ) ;
#104 = UNCERTAINTY_MEASURE_WITH_UNIT (LENGTH_MEASURE( 1.000000000000000082E-05 ), #77, 'distance_accuracy_value', 'NONE');
#105 = CARTESIAN_POINT ( 'NONE',  ( 0.000000000000000000, 18.00000000000000355, 0.000000000000000000 ) ) ;
#106 =( GEOMETRIC_REPRESENTATION_CONTEXT ( 3 ) GLOBAL_UNCERTAINTY_ASSIGNED_CONTEXT ( ( #163 ) ) GLOBAL_UNIT_ASSIGNED_CONTEXT ( ( #171, #220, #87 ) ) REPRESENTATION_CONTEXT ( 'NONE', 'WORKASPACE' ) );
#107 = CLOSED_SHELL ( 'NONE', ( #205, #103, #215, #10 ) ) ;
#108 =( NAMED_UNIT ( * ) SI_UNIT ( $, .STERADIAN. ) SOLID_ANGLE_UNIT ( ) );
#109 = MECHANICAL_DESIGN_GEOMETRIC_PRESENTATION_REPRESENTATION (  '', ( #56 ), #268 ) ;
#110 = EDGE_CURVE ( 'NONE', #22, #6, #74, .T. ) ;
#111 =( LENGTH_UNIT ( ) NAMED_UNIT ( * ) SI_UNIT ( .MILLI., .METRE. ) );
#112 = CARTESIAN_POINT ( 'NONE',  ( 0.000000000000000000, 0.000000000000000000, -2.999999999999999112 ) ) ;
#113 = LINE ( 'NONE', #198, #177 ) ;
#114 = UNCERTAINTY_MEASURE_WITH_UNIT (LENGTH_MEASURE( 1.000000000000000082E-05 ), #287, 'distance_accuracy_value', 'NONE');
#115 = CIRCLE ( 'NONE', #88, 2.999999999999999112 ) ;
#116 = PRODUCT_RELATED_PRODUCT_CATEGORY ( 'part', '', ( #50 ) ) ;
#117 = EDGE_LOOP ( 'NONE', ( #8, #273, #270, #100 ) ) ;
#118 = ORIENTED_EDGE ( 'NONE', *, *, #92, .T. ) ;
#119 = CIRCLE ( 'NONE', #200, 2.999999999999991562 ) ;
#120 = AXIS2_PLACEMENT_3D ( 'NONE', #155, #85, #86 ) ;
#121 = ORIENTED_EDGE ( 'NONE', *, *, #257, .F. ) ;
#122 = AXIS2_PLACEMENT_3D ( 'NONE', #256, #17, #190 ) ;
#123 = CARTESIAN_POINT ( 'NONE',  ( 3.673940397442058882E-16, 18.00000000000000355, 2.999999999999999112 ) ) ;
#124 = PRODUCT_DEFINITION ( 'UNKNOWN', '', #125, #154 ) ;
#125 = PRODUCT_DEFINITION_FORMATION_WITH_SPECIFIED_SOURCE ( 'ANY', '', #50, .NOT_KNOWN. ) ;
#126 =( NAMED_UNIT ( * ) PLANE_ANGLE_UNIT ( ) SI_UNIT ( $, .RADIAN. ) );
#127 = DIRECTION ( 'NONE',  ( -0.000000000000000000, -1.000000000000000000, -0.000000000000000000 ) ) ;
#128 = PRESENTATION_STYLE_ASSIGNMENT (( #32 ) ) ;
#129 = AXIS2_PLACEMENT_3D ( 'NONE', #57, #82, #218 ) ;
#130 = PLANE ( 'NONE',  #277 ) ;
#131 = UNCERTAINTY_MEASURE_WITH_UNIT (LENGTH_MEASURE( 1.000000000000000082E-05 ), #193, 'distance_accuracy_value', 'NONE');
#132 = MANIFOLD_SOLID_BREP ( 'Revolve - Cutting Edge', #107 ) ;
#133 = EDGE_CURVE ( 'NONE', #47, #161, #113, .T. ) ;
#134 =( GEOMETRIC_REPRESENTATION_CONTEXT ( 3 ) GLOBAL_UNCERTAINTY_ASSIGNED_CONTEXT ( ( #274 ) ) GLOBAL_UNIT_ASSIGNED_CONTEXT ( ( #259, #217, #108 ) ) REPRESENTATION_CONTEXT ( 'NONE', 'WORKASPACE' ) );
#135 = FACE_OUTER_BOUND ( 'NONE', #93, .T. ) ;
#136 = EDGE_LOOP ( 'NONE', ( #118, #75 ) ) ;
#137 = FACE_OUTER_BOUND ( 'NONE', #210, .T. ) ;
#138 = PRESENTATION_LAYER_ASSIGNMENT (  '', '', ( #281 ) ) ;
#139 = FACE_OUTER_BOUND ( 'NONE', #102, .T. ) ;
#140 =( GEOMETRIC_REPRESENTATION_CONTEXT ( 3 ) GLOBAL_UNCERTAINTY_ASSIGNED_CONTEXT ( ( #104 ) ) GLOBAL_UNIT_ASSIGNED_CONTEXT ( ( #77, #126, #55 ) ) REPRESENTATION_CONTEXT ( 'NONE', 'WORKASPACE' ) );
#141 = ORIENTED_EDGE ( 'NONE', *, *, #80, .T. ) ;
#142 = DIRECTION ( 'NONE',  ( 0.000000000000000000, 0.000000000000000000, -1.000000000000000000 ) ) ;
#143 = FILL_AREA_STYLE_COLOUR ( '', #258 ) ;
#144 = CARTESIAN_POINT ( 'NONE',  ( 7.592810154713587074E-15, 63.00000000000000000, 0.000000000000000000 ) ) ;
#145 = FILL_AREA_STYLE_COLOUR ( '', #201 ) ;
#146 = PRESENTATION_LAYER_ASSIGNMENT (  '', '', ( #230 ) ) ;
#147 = CARTESIAN_POINT ( 'NONE',  ( 2.999999999999999556, 63.00000000000000000, 3.673940397442056417E-16 ) ) ;
#148 = CARTESIAN_POINT ( 'NONE',  ( -2.999999999999999112, 18.00000000000000355, 0.000000000000000000 ) ) ;
#149 = SURFACE_STYLE_FILL_AREA ( #81 ) ;
#150 = LINE ( 'NONE', #173, #152 ) ;
#151 = PRESENTATION_LAYER_ASSIGNMENT (  '', '', ( #176 ) ) ;
#152 = VECTOR ( 'NONE', #39, 1000.000000000000000 ) ;
#153 = CIRCLE ( 'NONE', #122, 2.999999999999999112 ) ;
#154 = PRODUCT_DEFINITION_CONTEXT ( 'detailed design', #224, 'design' ) ;
#155 = CARTESIAN_POINT ( 'NONE',  ( 2.999999999999999112, 63.00000000000000000, 0.000000000000000000 ) ) ;
#156 = DIRECTION ( 'NONE',  ( -0.000000000000000000, -1.000000000000000000, -0.000000000000000000 ) ) ;
#157 = PLANE ( 'NONE',  #170 ) ;
#158 = MECHANICAL_DESIGN_GEOMETRIC_PRESENTATION_REPRESENTATION (  '', ( #247 ), #140 ) ;
#159 = CARTESIAN_POINT ( 'NONE',  ( 7.592810154713587074E-15, 63.00000000000000000, 0.000000000000000000 ) ) ;
#160 = COLOUR_RGB ( '',1.000000000000000000, 0.000000000000000000, 0.000000000000000000 ) ;
#161 = VERTEX_POINT ( 'NONE', #147 ) ;
#162 = DIRECTION ( 'NONE',  ( 0.000000000000000000, 0.000000000000000000, -1.000000000000000000 ) ) ;
#163 = UNCERTAINTY_MEASURE_WITH_UNIT (LENGTH_MEASURE( 1.000000000000000082E-05 ), #171, 'distance_accuracy_value', 'NONE');
#164 =( NAMED_UNIT ( * ) PLANE_ANGLE_UNIT ( ) SI_UNIT ( $, .RADIAN. ) );
#165 =( GEOMETRIC_REPRESENTATION_CONTEXT ( 3 ) GLOBAL_UNCERTAINTY_ASSIGNED_CONTEXT ( ( #175 ) ) GLOBAL_UNIT_ASSIGNED_CONTEXT ( ( #58, #164, #260 ) ) REPRESENTATION_CONTEXT ( 'NONE', 'WORKASPACE' ) );
#166 = CARTESIAN_POINT ( 'NONE',  ( 0.000000000000000000, 0.000000000000000000, 0.000000000000000000 ) ) ;
#167 = SURFACE_STYLE_FILL_AREA ( #34 ) ;
#168 = PRESENTATION_STYLE_ASSIGNMENT (( #245 ) ) ;
#169 = SURFACE_SIDE_STYLE ('',( #209 ) ) ;
#170 = AXIS2_PLACEMENT_3D ( 'NONE', #79, #15, #279 ) ;
#171 =( LENGTH_UNIT ( ) NAMED_UNIT ( * ) SI_UNIT ( .MILLI., .METRE. ) );
#172 = FILL_AREA_STYLE ('',( #283 ) ) ;
#173 = CARTESIAN_POINT ( 'NONE',  ( 0.000000000000000000, 0.000000000000000000, -2.999999999999999112 ) ) ;
#174 = VERTEX_POINT ( 'NONE', #185 ) ;
#175 = UNCERTAINTY_MEASURE_WITH_UNIT (LENGTH_MEASURE( 1.000000000000000082E-05 ), #58, 'distance_accuracy_value', 'NONE');
#176 = STYLED_ITEM ( 'NONE', ( #37 ), #132 ) ;
#177 = VECTOR ( 'NONE', #208, 1000.000000000000000 ) ;
#178 = CARTESIAN_POINT ( 'NONE',  ( -2.999999999999987566, 63.00000000000000000, 0.000000000000000000 ) ) ;
#179 =( NAMED_UNIT ( * ) PLANE_ANGLE_UNIT ( ) SI_UNIT ( $, .RADIAN. ) );
#180 = ORIENTED_EDGE ( 'NONE', *, *, #250, .T. ) ;
#181 = PRODUCT_CONTEXT ( 'NONE', #68, 'mechanical' ) ;
#182 = VECTOR ( 'NONE', #285, 1000.000000000000000 ) ;
#183 = CYLINDRICAL_SURFACE ( 'NONE', #264, 2.999999999999995115 ) ;
#184 = DIRECTION ( 'NONE',  ( 0.000000000000000000, 0.000000000000000000, 1.000000000000000000 ) ) ;
#185 = CARTESIAN_POINT ( 'NONE',  ( 3.673940397442058882E-16, 0.000000000000000000, 2.999999999999999112 ) ) ;
#186 = ADVANCED_BREP_SHAPE_REPRESENTATION ( '59510', ( #132, #233, #40 ), #3 ) ;
#187 = ADVANCED_FACE ( 'NONE', ( #24 ), #4, .T. ) ;
#188 =( GEOMETRIC_REPRESENTATION_CONTEXT ( 3 ) GLOBAL_UNCERTAINTY_ASSIGNED_CONTEXT ( ( #225 ) ) GLOBAL_UNIT_ASSIGNED_CONTEXT ( ( #111, #43, #265 ) ) REPRESENTATION_CONTEXT ( 'NONE', 'WORKASPACE' ) );
#189 = DIRECTION ( 'NONE',  ( 1.687291145491908606E-16, 1.000000000000000000, -0.000000000000000000 ) ) ;
#190 = DIRECTION ( 'NONE',  ( -1.000000000000000000, 0.000000000000000000, 0.000000000000000000 ) ) ;
#191 = DIRECTION ( 'NONE',  ( -0.000000000000000000, -1.000000000000000000, -0.000000000000000000 ) ) ;
#192 = COLOUR_RGB ( '',1.000000000000000000, 0.000000000000000000, 0.000000000000000000 ) ;
#193 =( LENGTH_UNIT ( ) NAMED_UNIT ( * ) SI_UNIT ( .MILLI., .METRE. ) );
#194 = DIRECTION ( 'NONE',  ( -0.000000000000000000, -1.000000000000000000, -0.000000000000000000 ) ) ;
#195 = CARTESIAN_POINT ( 'NONE',  ( 3.673940397442058882E-16, 0.000000000000000000, 2.999999999999999112 ) ) ;
#196 = CYLINDRICAL_SURFACE ( 'NONE', #129, 2.999999999999999112 ) ;
#197 = DIRECTION ( 'NONE',  ( -1.000000000000000000, 1.687291145491908606E-16, 0.000000000000000000 ) ) ;
#198 = CARTESIAN_POINT ( 'NONE',  ( 3.000000000000003109, 63.00000000000000000, 3.673940397442053952E-16 ) ) ;
#199 = ADVANCED_FACE ( 'NONE', ( #139 ), #183, .T. ) ;
#200 = AXIS2_PLACEMENT_3D ( 'NONE', #238, #78, #214 ) ;
#201 = COLOUR_RGB ( '',1.000000000000000000, 0.000000000000000000, 0.000000000000000000 ) ;
#202 = LINE ( 'NONE', #178, #182 ) ;
#203 = FILL_AREA_STYLE ('',( #53 ) ) ;
#204 = VERTEX_POINT ( 'NONE', #27 ) ;
#205 = ADVANCED_FACE ( 'NONE', ( #231 ), #255, .T. ) ;
#206 = PRODUCT_DEFINITION_SHAPE ( 'NONE', 'NONE',  #124 ) ;
#207 = FILL_AREA_STYLE_COLOUR ( '', #192 ) ;
#208 = DIRECTION ( 'NONE',  ( 1.687291145491908606E-16, 1.000000000000000000, -0.000000000000000000 ) ) ;
#209 = SURFACE_STYLE_FILL_AREA ( #28 ) ;
#210 = EDGE_LOOP ( 'NONE', ( #16, #180 ) ) ;
#211 = DIRECTION ( 'NONE',  ( 1.000000000000000000, 0.000000000000000000, 0.000000000000000000 ) ) ;
#212 = CIRCLE ( 'NONE', #101, 2.999999999999999112 ) ;
#213 = CARTESIAN_POINT ( 'NONE',  ( 0.000000000000000000, 18.00000000000000355, 0.000000000000000000 ) ) ;
#214 = DIRECTION ( 'NONE',  ( -1.000000000000000000, 0.000000000000000000, 0.000000000000000000 ) ) ;
#215 = ADVANCED_FACE ( 'NONE', ( #135 ), #196, .T. ) ;
#216 = DIRECTION ( 'NONE',  ( 0.000000000000000000, 1.000000000000000000, 0.000000000000000000 ) ) ;
#217 =( NAMED_UNIT ( * ) PLANE_ANGLE_UNIT ( ) SI_UNIT ( $, .RADIAN. ) );
#218 = DIRECTION ( 'NONE',  ( 0.000000000000000000, 0.000000000000000000, -1.000000000000000000 ) ) ;
#219 = ORIENTED_EDGE ( 'NONE', *, *, #99, .F. ) ;
#220 =( NAMED_UNIT ( * ) PLANE_ANGLE_UNIT ( ) SI_UNIT ( $, .RADIAN. ) );
#221 = APPLICATION_PROTOCOL_DEFINITION ( 'draft international standard', 'automotive_design', 1998, #68 ) ;
#222 = FACE_OUTER_BOUND ( 'NONE', #136, .T. ) ;
#223 = EDGE_CURVE ( 'NONE', #22, #174, #59, .T. ) ;
#224 = APPLICATION_CONTEXT ( 'automotive_design' ) ;
#225 = UNCERTAINTY_MEASURE_WITH_UNIT (LENGTH_MEASURE( 1.000000000000000082E-05 ), #111, 'distance_accuracy_value', 'NONE');
#226 = DIRECTION ( 'NONE',  ( 0.000000000000000000, 0.000000000000000000, -1.000000000000000000 ) ) ;
#227 = AXIS2_PLACEMENT_3D ( 'NONE', #91, #156, #64 ) ;
#228 =( NAMED_UNIT ( * ) SI_UNIT ( $, .STERADIAN. ) SOLID_ANGLE_UNIT ( ) );
#229 = ORIENTED_EDGE ( 'NONE', *, *, #133, .T. ) ;
#230 = STYLED_ITEM ( 'NONE', ( #243 ), #103 ) ;
#231 = FACE_OUTER_BOUND ( 'NONE', #117, .T. ) ;
#232 = VERTEX_POINT ( 'NONE', #148 ) ;
#233 = MANIFOLD_SOLID_BREP ( 'Revolve - Tool Body (Straight Shanked)', #254 ) ;
#234 = ORIENTED_EDGE ( 'NONE', *, *, #92, .F. ) ;
#235 = EDGE_LOOP ( 'NONE', ( #72, #23 ) ) ;
#236 = PLANE ( 'NONE',  #83 ) ;
#237 = VECTOR ( 'NONE', #127, 1000.000000000000000 ) ;
#238 = CARTESIAN_POINT ( 'NONE',  ( 7.592810154713587074E-15, 63.00000000000000000, 0.000000000000000000 ) ) ;
#239 =( NAMED_UNIT ( * ) PLANE_ANGLE_UNIT ( ) SI_UNIT ( $, .RADIAN. ) );
#240 = CARTESIAN_POINT ( 'NONE',  ( 0.000000000000000000, 18.00000000000000355, 0.000000000000000000 ) ) ;
#241 = DIRECTION ( 'NONE',  ( -1.000000000000000000, 0.000000000000000000, 0.000000000000000000 ) ) ;
#242 = AXIS2_PLACEMENT_3D ( 'NONE', #213, #191, #20 ) ;
#243 = PRESENTATION_STYLE_ASSIGNMENT (( #11 ) ) ;
#244 = SURFACE_SIDE_STYLE ('',( #149 ) ) ;
#245 = SURFACE_STYLE_USAGE ( .BOTH. , #84 ) ;
#246 = CARTESIAN_POINT ( 'NONE',  ( 4.270427114483094353E-32, 18.00000000000000355, 0.000000000000000000 ) ) ;
#247 = STYLED_ITEM ( 'NONE', ( #128 ), #10 ) ;
#248 = AXIS2_PLACEMENT_3D ( 'NONE', #282, #249, #226 ) ;
#249 = DIRECTION ( 'NONE',  ( -0.000000000000000000, -1.000000000000000000, -0.000000000000000000 ) ) ;
#250 = EDGE_CURVE ( 'NONE', #174, #267, #18, .T. ) ;
#251 = COLOUR_RGB ( '',1.000000000000000000, 0.000000000000000000, 0.000000000000000000 ) ;
#252 = ORIENTED_EDGE ( 'NONE', *, *, #99, .T. ) ;
#253 = SHAPE_DEFINITION_REPRESENTATION ( #206, #186 ) ;
#254 = CLOSED_SHELL ( 'NONE', ( #199, #275, #187, #262 ) ) ;
#255 = CYLINDRICAL_SURFACE ( 'NONE', #227, 2.999999999999999112 ) ;
#256 = CARTESIAN_POINT ( 'NONE',  ( -1.540743955509788682E-30, 18.00000000000000355, 0.000000000000000000 ) ) ;
#257 = EDGE_CURVE ( 'NONE', #232, #204, #202, .T. ) ;
#258 = COLOUR_RGB ( '',0.7921568627450980005, 0.8196078431372548767, 0.9333333333333333481 ) ;
#259 =( LENGTH_UNIT ( ) NAMED_UNIT ( * ) SI_UNIT ( .MILLI., .METRE. ) );
#260 =( NAMED_UNIT ( * ) SI_UNIT ( $, .STERADIAN. ) SOLID_ANGLE_UNIT ( ) );
#261 = DIRECTION ( 'NONE',  ( -1.000000000000000000, 0.000000000000000000, 0.000000000000000000 ) ) ;
#262 = ADVANCED_FACE ( 'NONE', ( #222 ), #19, .F. ) ;
#263 = FACE_OUTER_BOUND ( 'NONE', #98, .T. ) ;
#264 = AXIS2_PLACEMENT_3D ( 'NONE', #159, #269, #71 ) ;
#265 =( NAMED_UNIT ( * ) SI_UNIT ( $, .STERADIAN. ) SOLID_ANGLE_UNIT ( ) );
#266 = SURFACE_SIDE_STYLE ('',( #90 ) ) ;
#267 = VERTEX_POINT ( 'NONE', #112 ) ;
#268 =( GEOMETRIC_REPRESENTATION_CONTEXT ( 3 ) GLOBAL_UNCERTAINTY_ASSIGNED_CONTEXT ( ( #131 ) ) GLOBAL_UNIT_ASSIGNED_CONTEXT ( ( #193, #239, #44 ) ) REPRESENTATION_CONTEXT ( 'NONE', 'WORKASPACE' ) );
#269 = DIRECTION ( 'NONE',  ( 1.687291145491908606E-16, 1.000000000000000000, -0.000000000000000000 ) ) ;
#270 = ORIENTED_EDGE ( 'NONE', *, *, #48, .F. ) ;
#271 = ORIENTED_EDGE ( 'NONE', *, *, #257, .T. ) ;
#272 = CIRCLE ( 'NONE', #51, 2.999999999999999112 ) ;
#273 = ORIENTED_EDGE ( 'NONE', *, *, #223, .T. ) ;
#274 = UNCERTAINTY_MEASURE_WITH_UNIT (LENGTH_MEASURE( 1.000000000000000082E-05 ), #259, 'distance_accuracy_value', 'NONE');
#275 = ADVANCED_FACE ( 'NONE', ( #263 ), #130, .F. ) ;
#276 = CARTESIAN_POINT ( 'NONE',  ( -1.540743955509788682E-30, 18.00000000000000355, 0.000000000000000000 ) ) ;
#277 = AXIS2_PLACEMENT_3D ( 'NONE', #246, #89, #197 ) ;
#278 = DIRECTION ( 'NONE',  ( 1.687291145491908606E-16, 1.000000000000000000, -0.000000000000000000 ) ) ;
#279 = DIRECTION ( 'NONE',  ( 0.000000000000000000, 0.000000000000000000, -1.000000000000000000 ) ) ;
#280 = FILL_AREA_STYLE ('',( #143 ) ) ;
#281 = STYLED_ITEM ( 'NONE', ( #63 ), #205 ) ;
#282 = CARTESIAN_POINT ( 'NONE',  ( 0.000000000000000000, 0.000000000000000000, 0.000000000000000000 ) ) ;
#283 = FILL_AREA_STYLE_COLOUR ( '', #160 ) ;
#284 = EDGE_CURVE ( 'NONE', #6, #267, #150, .T. ) ;
#285 = DIRECTION ( 'NONE',  ( 1.687291145491908606E-16, 1.000000000000000000, -0.000000000000000000 ) ) ;
#286 = PRESENTATION_LAYER_ASSIGNMENT (  '', '', ( #247 ) ) ;
#287 =( LENGTH_UNIT ( ) NAMED_UNIT ( * ) SI_UNIT ( .MILLI., .METRE. ) );
#288 = DIRECTION ( 'NONE',  ( -1.000000000000000000, 0.000000000000000000, 0.000000000000000000 ) ) ;
ENDSEC;
END-ISO-10303-21;
