ISO-10303-21;
HEADER;
FILE_DESCRIPTION (( 'STEP AP214' ),
    '1' );
FILE_NAME ('Micro_RNC-187-1.STEP',
    '2021-09-03T17:33:55',
    ( '' ),
    ( '' ),
    'SwSTEP 2.0',
    'SolidWorks 2020',
    '' );
FILE_SCHEMA (( 'AUTOMOTIVE_DESIGN' ));
ENDSEC;

DATA;
#1 = DIRECTION ( 'NONE',  ( 1.000000000000000000, 0.0000000000000000000, 0.0000000000000000000 ) ) ;
#2 = FACE_OUTER_BOUND ( 'NONE', #210, .T. ) ;
#3 = EDGE_CURVE ( 'NONE', #163, #162, #82, .T. ) ;
#4 = AXIS2_PLACEMENT_3D ( 'NONE', #25, #102, #142 ) ;
#5 = DIRECTION ( 'NONE',  ( -1.000000000000000000, 0.0000000000000000000, 0.0000000000000000000 ) ) ;
#6 = LENGTH_MEASURE_WITH_UNIT ( LENGTH_MEASURE( 0.02539999999999999897 ), #59 );
#7 = MECHANICAL_DESIGN_GEOMETRIC_PRESENTATION_REPRESENTATION (  '', ( #233 ), #56 ) ;
#8 =( LENGTH_UNIT ( ) NAMED_UNIT ( * ) SI_UNIT ( $, .METRE. ) );
#9 = CARTESIAN_POINT ( 'NONE',  ( 0.0000000000000000000, 0.0000000000000000000, 0.0000000000000000000 ) ) ;
#10 = CIRCLE ( 'NONE', #200, 0.09375000000000001388 ) ;
#11 = CARTESIAN_POINT ( 'NONE',  ( -0.09375000000000001388, 0.0000000000000000000, 2.000000000000000000 ) ) ;
#12 = APPLICATION_PROTOCOL_DEFINITION ( 'draft international standard', 'automotive_design', 1998, #137 ) ;
#13 = DIRECTION ( 'NONE',  ( 1.000000000000000000, 0.0000000000000000000, 0.0000000000000000000 ) ) ;
#14 = VERTEX_POINT ( 'NONE', #19 ) ;
#15 = PRODUCT_DEFINITION_CONTEXT ( 'detailed design', #137, 'design' ) ;
#16 = LINE ( 'NONE', #64, #129 ) ;
#17 = AXIS2_PLACEMENT_3D ( 'NONE', #216, #171, #73 ) ;
#18 = CARTESIAN_POINT ( 'NONE',  ( 0.004000000000000000083, 0.0000000000000000000, 0.0000000000000000000 ) ) ;
#19 = CARTESIAN_POINT ( 'NONE',  ( 0.09375000000000001388, 1.148106374200643863E-17, 0.08974999999999963562 ) ) ;
#20 = DIRECTION ( 'NONE',  ( -1.000000000000000000, 0.0000000000000000000, 0.0000000000000000000 ) ) ;
#21 = EDGE_CURVE ( 'NONE', #65, #14, #16, .T. ) ;
#22 = CARTESIAN_POINT ( 'NONE',  ( -0.07874999999999980627, 0.0000000000000000000, 2.000000000000000000 ) ) ;
#23 = SURFACE_SIDE_STYLE ('',( #168 ) ) ;
#24 = APPLICATION_CONTEXT ( 'automotive_design' ) ;
#25 = CARTESIAN_POINT ( 'NONE',  ( 0.0000000000000000000, 0.0000000000000000000, 2.000000000000000000 ) ) ;
#26 = CARTESIAN_POINT ( 'NONE',  ( -0.09375000000000001388, 0.0000000000000000000, 0.08974999999999963562 ) ) ;
#27 = VERTEX_POINT ( 'NONE', #208 ) ;
#28 = FACE_OUTER_BOUND ( 'NONE', #113, .T. ) ;
#29 = AXIS2_PLACEMENT_3D ( 'NONE', #78, #197, #156 ) ;
#30 = ORIENTED_EDGE ( 'NONE', *, *, #3, .T. ) ;
#31 = ORIENTED_EDGE ( 'NONE', *, *, #3, .F. ) ;
#32 = DIRECTION ( 'NONE',  ( 0.0000000000000000000, 0.0000000000000000000, 1.000000000000000000 ) ) ;
#33 = CIRCLE ( 'NONE', #175, 0.09375000000000001388 ) ;
#34 = ORIENTED_EDGE ( 'NONE', *, *, #117, .F. ) ;
#35 = PRODUCT_DEFINITION ( 'UNKNOWN', '', #184, #15 ) ;
#36 = CARTESIAN_POINT ( 'NONE',  ( 0.0000000000000000000, 0.0000000000000000000, 2.000000000000000000 ) ) ;
#37 = CONICAL_SURFACE ( 'NONE', #181, 0.004000000000000000083, 0.7853981633974503884 ) ;
#38 = DIRECTION ( 'NONE',  ( -1.000000000000000000, 0.0000000000000000000, 0.0000000000000000000 ) ) ;
#39 = AXIS2_PLACEMENT_3D ( 'NONE', #88, #128, #207 ) ;
#40 = CARTESIAN_POINT ( 'NONE',  ( 0.0000000000000000000, 0.0000000000000000000, 0.0000000000000000000 ) ) ;
#41 = CIRCLE ( 'NONE', #230, 0.07874999999999980627 ) ;
#42 = DIRECTION ( 'NONE',  ( -0.0000000000000000000, -0.0000000000000000000, -1.000000000000000000 ) ) ;
#43 = AXIS2_PLACEMENT_3D ( 'NONE', #94, #136, #38 ) ;
#44 =( NAMED_UNIT ( * ) PLANE_ANGLE_UNIT ( ) SI_UNIT ( $, .RADIAN. ) );
#45 = PRODUCT_CONTEXT ( 'NONE', #24, 'mechanical' ) ;
#46 = ORIENTED_EDGE ( 'NONE', *, *, #49, .F. ) ;
#47 = ORIENTED_EDGE ( 'NONE', *, *, #68, .F. ) ;
#48 = ORIENTED_EDGE ( 'NONE', *, *, #124, .F. ) ;
#49 = EDGE_CURVE ( 'NONE', #162, #163, #41, .T. ) ;
#50 = CARTESIAN_POINT ( 'NONE',  ( 0.0000000000000000000, 0.0000000000000000000, 2.000000000000000000 ) ) ;
#51 = STYLED_ITEM ( 'NONE', ( #62 ), #240 ) ;
#52 = CARTESIAN_POINT ( 'NONE',  ( 0.0000000000000000000, 0.0000000000000000000, 0.0000000000000000000 ) ) ;
#53 = AXIS2_PLACEMENT_3D ( 'NONE', #50, #191, #13 ) ;
#54 = DIRECTION ( 'NONE',  ( 0.7071067811865463515, 8.659560562354916834E-17, -0.7071067811865486830 ) ) ;
#55 =( NAMED_UNIT ( * ) SI_UNIT ( $, .STERADIAN. ) SOLID_ANGLE_UNIT ( ) );
#56 =( GEOMETRIC_REPRESENTATION_CONTEXT ( 3 ) GLOBAL_UNCERTAINTY_ASSIGNED_CONTEXT ( ( #244 ) ) GLOBAL_UNIT_ASSIGNED_CONTEXT ( ( #114, #72, #192 ) ) REPRESENTATION_CONTEXT ( 'NONE', 'WORKASPACE' ) );
#57 = DIRECTION ( 'NONE',  ( -0.0000000000000000000, -0.0000000000000000000, -1.000000000000000000 ) ) ;
#58 = LINE ( 'NONE', #11, #105 ) ;
#59 =( LENGTH_UNIT ( ) NAMED_UNIT ( * ) SI_UNIT ( $, .METRE. ) );
#60 =( GEOMETRIC_REPRESENTATION_CONTEXT ( 3 ) GLOBAL_UNCERTAINTY_ASSIGNED_CONTEXT ( ( #145 ) ) GLOBAL_UNIT_ASSIGNED_CONTEXT ( ( #178, #201, #182 ) ) REPRESENTATION_CONTEXT ( 'NONE', 'WORKASPACE' ) );
#61 = EDGE_CURVE ( 'NONE', #14, #213, #10, .T. ) ;
#62 = PRESENTATION_STYLE_ASSIGNMENT (( #237 ) ) ;
#63 = EDGE_LOOP ( 'NONE', ( #31, #228, #48, #47 ) ) ;
#64 = CARTESIAN_POINT ( 'NONE',  ( 0.004000000000000000083, 0.0000000000000000000, 0.0000000000000000000 ) ) ;
#65 = VERTEX_POINT ( 'NONE', #18 ) ;
#66 = CIRCLE ( 'NONE', #17, 0.09375000000000001388 ) ;
#67 = ORIENTED_EDGE ( 'NONE', *, *, #238, .T. ) ;
#68 = EDGE_CURVE ( 'NONE', #162, #243, #165, .T. ) ;
#69 = ORIENTED_EDGE ( 'NONE', *, *, #61, .F. ) ;
#70 = LINE ( 'NONE', #132, #220 ) ;
#71 = PRESENTATION_LAYER_ASSIGNMENT (  '', '', ( #51 ) ) ;
#72 =( NAMED_UNIT ( * ) PLANE_ANGLE_UNIT ( ) SI_UNIT ( $, .RADIAN. ) );
#73 = DIRECTION ( 'NONE',  ( 1.000000000000000000, 0.0000000000000000000, 0.0000000000000000000 ) ) ;
#74 = CARTESIAN_POINT ( 'NONE',  ( 0.07874999999999980627, 9.644093543285380530E-18, 2.000000000000000000 ) ) ;
#75 = CIRCLE ( 'NONE', #198, 0.09375000000000001388 ) ;
#76 = DIRECTION ( 'NONE',  ( -0.7071067811865490160, 8.659560562354951347E-17, 0.7071067811865460184 ) ) ;
#77 = EDGE_CURVE ( 'NONE', #27, #14, #70, .T. ) ;
#78 = CARTESIAN_POINT ( 'NONE',  ( 0.0000000000000000000, 0.0000000000000000000, 0.0000000000000000000 ) ) ;
#79 = PRODUCT_RELATED_PRODUCT_CATEGORY ( 'part', '', ( #127 ) ) ;
#80 = CARTESIAN_POINT ( 'NONE',  ( 0.0000000000000000000, 0.0000000000000000000, 0.08974999999999963562 ) ) ;
#81 = CARTESIAN_POINT ( 'NONE',  ( -0.004000000000000000083, 5.985461230832689413E-18, 0.0000000000000000000 ) ) ;
#82 = CIRCLE ( 'NONE', #53, 0.07874999999999980627 ) ;
#83 = DIMENSIONAL_EXPONENTS ( 1.000000000000000000, 0.0000000000000000000, 0.0000000000000000000, 0.0000000000000000000, 0.0000000000000000000, 0.0000000000000000000, 0.0000000000000000000 ) ;
#84 = DIRECTION ( 'NONE',  ( 0.0000000000000000000, 0.0000000000000000000, -1.000000000000000000 ) ) ;
#85 = ADVANCED_FACE ( 'NONE', ( #231 ), #209, .T. ) ;
#86 = CARTESIAN_POINT ( 'NONE',  ( 0.0000000000000000000, 0.0000000000000000000, 2.000000000000000000 ) ) ;
#87 = ORIENTED_EDGE ( 'NONE', *, *, #77, .F. ) ;
#88 = CARTESIAN_POINT ( 'NONE',  ( 0.0000000000000000000, 0.0000000000000000000, 0.0000000000000000000 ) ) ;
#89 = DIRECTION ( 'NONE',  ( -0.0000000000000000000, -0.0000000000000000000, -1.000000000000000000 ) ) ;
#90 = CIRCLE ( 'NONE', #246, 0.004000000000000000083 ) ;
#91 = ORIENTED_EDGE ( 'NONE', *, *, #49, .T. ) ;
#92 = DIRECTION ( 'NONE',  ( 0.7071067811865490160, 0.0000000000000000000, 0.7071067811865460184 ) ) ;
#93 = MANIFOLD_SOLID_BREP ( 'Cut-Revolve1', #170 ) ;
#94 = CARTESIAN_POINT ( 'NONE',  ( 0.0000000000000000000, 0.0000000000000000000, 2.000000000000000000 ) ) ;
#95 = AXIS2_PLACEMENT_3D ( 'NONE', #52, #193, #1 ) ;
#96 = DIRECTION ( 'NONE',  ( -0.0000000000000000000, -0.0000000000000000000, -1.000000000000000000 ) ) ;
#97 = SURFACE_STYLE_USAGE ( .BOTH. , #23 ) ;
#98 = LINE ( 'NONE', #174, #112 ) ;
#99 = ADVANCED_FACE ( 'NONE', ( #221 ), #126, .T. ) ;
#100 = COLOUR_RGB ( '',0.7921568627450980005, 0.8196078431372548767, 0.9333333333333333481 ) ;
#101 = PRESENTATION_STYLE_ASSIGNMENT (( #97 ) ) ;
#102 = DIRECTION ( 'NONE',  ( 0.0000000000000000000, 0.0000000000000000000, 1.000000000000000000 ) ) ;
#103 = FILL_AREA_STYLE_COLOUR ( '', #164 ) ;
#104 = CARTESIAN_POINT ( 'NONE',  ( -0.09375000000000001388, 0.0000000000000000000, 1.984999999999999654 ) ) ;
#105 = VECTOR ( 'NONE', #241, 39.37007874015748143 ) ;
#106 = DIRECTION ( 'NONE',  ( -1.000000000000000000, 0.0000000000000000000, 0.0000000000000000000 ) ) ;
#107 = ORIENTED_EDGE ( 'NONE', *, *, #223, .F. ) ;
#108 = ORIENTED_EDGE ( 'NONE', *, *, #61, .T. ) ;
#109 = ORIENTED_EDGE ( 'NONE', *, *, #160, .F. ) ;
#110 = SHAPE_DEFINITION_REPRESENTATION ( #224, #240 ) ;
#111 = DIRECTION ( 'NONE',  ( 1.000000000000000000, 0.0000000000000000000, 0.0000000000000000000 ) ) ;
#112 = VECTOR ( 'NONE', #76, 39.37007874015748143 ) ;
#113 = EDGE_LOOP ( 'NONE', ( #34, #147, #202, #247 ) ) ;
#114 =( CONVERSION_BASED_UNIT ( 'INCH', #151 ) LENGTH_UNIT ( ) NAMED_UNIT ( #83 ) );
#115 = CYLINDRICAL_SURFACE ( 'NONE', #215, 0.09375000000000001388 ) ;
#116 = CARTESIAN_POINT ( 'NONE',  ( 0.0000000000000000000, 0.0000000000000000000, 2.000000000000000000 ) ) ;
#117 = EDGE_CURVE ( 'NONE', #212, #65, #90, .T. ) ;
#118 = PLANE ( 'NONE',  #29 ) ;
#119 = DIRECTION ( 'NONE',  ( -1.000000000000000000, 0.0000000000000000000, 0.0000000000000000000 ) ) ;
#120 = LENGTH_MEASURE_WITH_UNIT ( LENGTH_MEASURE( 0.02539999999999999897 ), #8 );
#121 = AXIS2_PLACEMENT_3D ( 'NONE', #36, #96, #5 ) ;
#122 = PLANE ( 'NONE',  #4 ) ;
#123 = ADVANCED_FACE ( 'NONE', ( #196 ), #217, .T. ) ;
#124 = EDGE_CURVE ( 'NONE', #243, #27, #66, .T. ) ;
#125 = ORIENTED_EDGE ( 'NONE', *, *, #190, .T. ) ;
#126 = CONICAL_SURFACE ( 'NONE', #43, 0.07874999999999980627, 0.7853981633974466137 ) ;
#127 = PRODUCT ( 'Micro_RNC-187-1', 'Micro_RNC-187-1', '', ( #45 ) ) ;
#128 = DIRECTION ( 'NONE',  ( 0.0000000000000000000, 0.0000000000000000000, 1.000000000000000000 ) ) ;
#129 = VECTOR ( 'NONE', #92, 39.37007874015748143 ) ;
#130 = ORIENTED_EDGE ( 'NONE', *, *, #218, .F. ) ;
#131 = ORIENTED_EDGE ( 'NONE', *, *, #68, .T. ) ;
#132 = CARTESIAN_POINT ( 'NONE',  ( 0.09375000000000001388, 1.148106374200643863E-17, 2.000000000000000000 ) ) ;
#133 = MECHANICAL_DESIGN_GEOMETRIC_PRESENTATION_REPRESENTATION (  '', ( #51 ), #150 ) ;
#134 = DIRECTION ( 'NONE',  ( -0.0000000000000000000, -0.0000000000000000000, -1.000000000000000000 ) ) ;
#135 = ADVANCED_FACE ( 'NONE', ( #2 ), #141, .T. ) ;
#136 = DIRECTION ( 'NONE',  ( 0.0000000000000000000, 0.0000000000000000000, -1.000000000000000000 ) ) ;
#137 = APPLICATION_CONTEXT ( 'automotive_design' ) ;
#138 = FACE_OUTER_BOUND ( 'NONE', #144, .T. ) ;
#139 = DIRECTION ( 'NONE',  ( -1.000000000000000000, 0.0000000000000000000, 0.0000000000000000000 ) ) ;
#140 = LINE ( 'NONE', #74, #154 ) ;
#141 = CONICAL_SURFACE ( 'NONE', #189, 0.07874999999999980627, 0.7853981633974466137 ) ;
#142 = DIRECTION ( 'NONE',  ( 1.000000000000000000, 0.0000000000000000000, -0.0000000000000000000 ) ) ;
#143 = AXIS2_PLACEMENT_3D ( 'NONE', #9, #42, #119 ) ;
#144 = EDGE_LOOP ( 'NONE', ( #229, #185, #107, #226 ) ) ;
#145 = UNCERTAINTY_MEASURE_WITH_UNIT (LENGTH_MEASURE( 1.000000000000000082E-05 ), #178, 'distance_accuracy_value', 'NONE');
#146 = ORIENTED_EDGE ( 'NONE', *, *, #117, .T. ) ;
#147 = ORIENTED_EDGE ( 'NONE', *, *, #172, .T. ) ;
#148 = DIRECTION ( 'NONE',  ( -0.7071067811865463515, 0.0000000000000000000, -0.7071067811865486830 ) ) ;
#149 = DIRECTION ( 'NONE',  ( -0.0000000000000000000, -0.0000000000000000000, -1.000000000000000000 ) ) ;
#150 =( GEOMETRIC_REPRESENTATION_CONTEXT ( 3 ) GLOBAL_UNCERTAINTY_ASSIGNED_CONTEXT ( ( #211 ) ) GLOBAL_UNIT_ASSIGNED_CONTEXT ( ( #204, #44, #55 ) ) REPRESENTATION_CONTEXT ( 'NONE', 'WORKASPACE' ) );
#151 = LENGTH_MEASURE_WITH_UNIT ( LENGTH_MEASURE( 0.02539999999999999897 ), #235 );
#152 = DIRECTION ( 'NONE',  ( 0.0000000000000000000, 0.0000000000000000000, -1.000000000000000000 ) ) ;
#153 = CARTESIAN_POINT ( 'NONE',  ( 0.07874999999999980627, 1.056257864264590573E-17, 2.000000000000000000 ) ) ;
#154 = VECTOR ( 'NONE', #54, 39.37007874015748143 ) ;
#155 = FACE_OUTER_BOUND ( 'NONE', #187, .T. ) ;
#156 = DIRECTION ( 'NONE',  ( 1.000000000000000000, 0.0000000000000000000, -0.0000000000000000000 ) ) ;
#157 = DIRECTION ( 'NONE',  ( 1.000000000000000000, 0.0000000000000000000, 0.0000000000000000000 ) ) ;
#158 = SURFACE_STYLE_FILL_AREA ( #180 ) ;
#159 = FACE_OUTER_BOUND ( 'NONE', #161, .T. ) ;
#160 = EDGE_CURVE ( 'NONE', #163, #27, #140, .T. ) ;
#161 = EDGE_LOOP ( 'NONE', ( #91, #30 ) ) ;
#162 = VERTEX_POINT ( 'NONE', #22 ) ;
#163 = VERTEX_POINT ( 'NONE', #153 ) ;
#164 = COLOUR_RGB ( '',0.7921568627450980005, 0.8196078431372548767, 0.9333333333333333481 ) ;
#165 = LINE ( 'NONE', #248, #203 ) ;
#166 = ADVANCED_FACE ( 'NONE', ( #138 ), #115, .T. ) ;
#167 = ORIENTED_EDGE ( 'NONE', *, *, #172, .F. ) ;
#168 = SURFACE_STYLE_FILL_AREA ( #195 ) ;
#169 = CIRCLE ( 'NONE', #143, 0.004000000000000000083 ) ;
#170 = CLOSED_SHELL ( 'NONE', ( #222, #99, #166, #123, #205, #135, #85, #179 ) ) ;
#171 = DIRECTION ( 'NONE',  ( 0.0000000000000000000, 0.0000000000000000000, -1.000000000000000000 ) ) ;
#172 = EDGE_CURVE ( 'NONE', #212, #213, #98, .T. ) ;
#173 = CARTESIAN_POINT ( 'NONE',  ( 0.0000000000000000000, 0.0000000000000000000, 0.0000000000000000000 ) ) ;
#174 = CARTESIAN_POINT ( 'NONE',  ( -0.004000000000000000083, 4.898587196589413537E-19, 0.0000000000000000000 ) ) ;
#175 = AXIS2_PLACEMENT_3D ( 'NONE', #80, #206, #106 ) ;
#176 = CARTESIAN_POINT ( 'NONE',  ( 0.0000000000000000000, 0.0000000000000000000, 1.984999999999999654 ) ) ;
#177 = DIMENSIONAL_EXPONENTS ( 1.000000000000000000, 0.0000000000000000000, 0.0000000000000000000, 0.0000000000000000000, 0.0000000000000000000, 0.0000000000000000000, 0.0000000000000000000 ) ;
#178 =( CONVERSION_BASED_UNIT ( 'INCH', #6 ) LENGTH_UNIT ( ) NAMED_UNIT ( #177 ) );
#179 = ADVANCED_FACE ( 'NONE', ( #155 ), #118, .F. ) ;
#180 = FILL_AREA_STYLE ('',( #103 ) ) ;
#181 = AXIS2_PLACEMENT_3D ( 'NONE', #40, #183, #236 ) ;
#182 =( NAMED_UNIT ( * ) SI_UNIT ( $, .STERADIAN. ) SOLID_ANGLE_UNIT ( ) );
#183 = DIRECTION ( 'NONE',  ( 0.0000000000000000000, 0.0000000000000000000, 1.000000000000000000 ) ) ;
#184 = PRODUCT_DEFINITION_FORMATION_WITH_SPECIFIED_SOURCE ( 'ANY', '', #127, .NOT_KNOWN. ) ;
#185 = ORIENTED_EDGE ( 'NONE', *, *, #77, .T. ) ;
#186 = ORIENTED_EDGE ( 'NONE', *, *, #21, .T. ) ;
#187 = EDGE_LOOP ( 'NONE', ( #214, #146 ) ) ;
#188 = DIRECTION ( 'NONE',  ( -1.000000000000000000, 0.0000000000000000000, 0.0000000000000000000 ) ) ;
#189 = AXIS2_PLACEMENT_3D ( 'NONE', #116, #152, #20 ) ;
#190 = EDGE_CURVE ( 'NONE', #27, #243, #75, .T. ) ;
#191 = DIRECTION ( 'NONE',  ( 0.0000000000000000000, 0.0000000000000000000, 1.000000000000000000 ) ) ;
#192 =( NAMED_UNIT ( * ) SI_UNIT ( $, .STERADIAN. ) SOLID_ANGLE_UNIT ( ) );
#193 = DIRECTION ( 'NONE',  ( 0.0000000000000000000, 0.0000000000000000000, 1.000000000000000000 ) ) ;
#194 = PRESENTATION_LAYER_ASSIGNMENT (  '', '', ( #233 ) ) ;
#195 = FILL_AREA_STYLE ('',( #219 ) ) ;
#196 = FACE_OUTER_BOUND ( 'NONE', #245, .T. ) ;
#197 = DIRECTION ( 'NONE',  ( 0.0000000000000000000, 0.0000000000000000000, 1.000000000000000000 ) ) ;
#198 = AXIS2_PLACEMENT_3D ( 'NONE', #176, #84, #157 ) ;
#199 = DIMENSIONAL_EXPONENTS ( 1.000000000000000000, 0.0000000000000000000, 0.0000000000000000000, 0.0000000000000000000, 0.0000000000000000000, 0.0000000000000000000, 0.0000000000000000000 ) ;
#200 = AXIS2_PLACEMENT_3D ( 'NONE', #249, #89, #188 ) ;
#201 =( NAMED_UNIT ( * ) PLANE_ANGLE_UNIT ( ) SI_UNIT ( $, .RADIAN. ) );
#202 = ORIENTED_EDGE ( 'NONE', *, *, #223, .T. ) ;
#203 = VECTOR ( 'NONE', #148, 39.37007874015748143 ) ;
#204 =( CONVERSION_BASED_UNIT ( 'INCH', #120 ) LENGTH_UNIT ( ) NAMED_UNIT ( #199 ) );
#205 = ADVANCED_FACE ( 'NONE', ( #159 ), #122, .T. ) ;
#206 = DIRECTION ( 'NONE',  ( -0.0000000000000000000, -0.0000000000000000000, -1.000000000000000000 ) ) ;
#207 = DIRECTION ( 'NONE',  ( 1.000000000000000000, 0.0000000000000000000, 0.0000000000000000000 ) ) ;
#208 = CARTESIAN_POINT ( 'NONE',  ( 0.09375000000000001388, 1.148106374200643863E-17, 1.984999999999999654 ) ) ;
#209 = CONICAL_SURFACE ( 'NONE', #95, 0.004000000000000000083, 0.7853981633974503884 ) ;
#210 = EDGE_LOOP ( 'NONE', ( #109, #46, #131, #227 ) ) ;
#211 = UNCERTAINTY_MEASURE_WITH_UNIT (LENGTH_MEASURE( 1.000000000000000082E-05 ), #204, 'distance_accuracy_value', 'NONE');
#212 = VERTEX_POINT ( 'NONE', #81 ) ;
#213 = VERTEX_POINT ( 'NONE', #26 ) ;
#214 = ORIENTED_EDGE ( 'NONE', *, *, #218, .T. ) ;
#215 = AXIS2_PLACEMENT_3D ( 'NONE', #232, #57, #139 ) ;
#216 = CARTESIAN_POINT ( 'NONE',  ( 0.0000000000000000000, 0.0000000000000000000, 1.984999999999999654 ) ) ;
#217 = CYLINDRICAL_SURFACE ( 'NONE', #121, 0.09375000000000001388 ) ;
#218 = EDGE_CURVE ( 'NONE', #65, #212, #169, .T. ) ;
#219 = FILL_AREA_STYLE_COLOUR ( '', #100 ) ;
#220 = VECTOR ( 'NONE', #149, 39.37007874015748143 ) ;
#221 = FACE_OUTER_BOUND ( 'NONE', #63, .T. ) ;
#222 = ADVANCED_FACE ( 'NONE', ( #28 ), #37, .T. ) ;
#223 = EDGE_CURVE ( 'NONE', #213, #14, #33, .T. ) ;
#224 = PRODUCT_DEFINITION_SHAPE ( 'NONE', 'NONE',  #35 ) ;
#225 = APPLICATION_PROTOCOL_DEFINITION ( 'draft international standard', 'automotive_design', 1998, #24 ) ;
#226 = ORIENTED_EDGE ( 'NONE', *, *, #238, .F. ) ;
#227 = ORIENTED_EDGE ( 'NONE', *, *, #190, .F. ) ;
#228 = ORIENTED_EDGE ( 'NONE', *, *, #160, .T. ) ;
#229 = ORIENTED_EDGE ( 'NONE', *, *, #124, .T. ) ;
#230 = AXIS2_PLACEMENT_3D ( 'NONE', #86, #32, #111 ) ;
#231 = FACE_OUTER_BOUND ( 'NONE', #242, .T. ) ;
#232 = CARTESIAN_POINT ( 'NONE',  ( 0.0000000000000000000, 0.0000000000000000000, 2.000000000000000000 ) ) ;
#233 = STYLED_ITEM ( 'NONE', ( #101 ), #93 ) ;
#234 = DIRECTION ( 'NONE',  ( -1.000000000000000000, 0.0000000000000000000, 0.0000000000000000000 ) ) ;
#235 =( LENGTH_UNIT ( ) NAMED_UNIT ( * ) SI_UNIT ( $, .METRE. ) );
#236 = DIRECTION ( 'NONE',  ( 1.000000000000000000, 0.0000000000000000000, 0.0000000000000000000 ) ) ;
#237 = SURFACE_STYLE_USAGE ( .BOTH. , #239 ) ;
#238 = EDGE_CURVE ( 'NONE', #243, #213, #58, .T. ) ;
#239 = SURFACE_SIDE_STYLE ('',( #158 ) ) ;
#240 = ADVANCED_BREP_SHAPE_REPRESENTATION ( 'Micro_RNC-187-1', ( #93, #39 ), #60 ) ;
#241 = DIRECTION ( 'NONE',  ( -0.0000000000000000000, -0.0000000000000000000, -1.000000000000000000 ) ) ;
#242 = EDGE_LOOP ( 'NONE', ( #167, #130, #186, #108 ) ) ;
#243 = VERTEX_POINT ( 'NONE', #104 ) ;
#244 = UNCERTAINTY_MEASURE_WITH_UNIT (LENGTH_MEASURE( 1.000000000000000082E-05 ), #114, 'distance_accuracy_value', 'NONE');
#245 = EDGE_LOOP ( 'NONE', ( #87, #125, #67, #69 ) ) ;
#246 = AXIS2_PLACEMENT_3D ( 'NONE', #173, #134, #234 ) ;
#247 = ORIENTED_EDGE ( 'NONE', *, *, #21, .F. ) ;
#248 = CARTESIAN_POINT ( 'NONE',  ( -0.07874999999999980627, 0.0000000000000000000, 2.000000000000000000 ) ) ;
#249 = CARTESIAN_POINT ( 'NONE',  ( 0.0000000000000000000, 0.0000000000000000000, 0.08974999999999963562 ) ) ;
ENDSEC;
END-ISO-10303-21;
