ISO-10303-21;
HEADER;
FILE_DESCRIPTION (( 'STEP AP214' ),
    '1' );
FILE_NAME ('59691.STEP',
    '2023-07-24T15:53:26',
    ( '' ),
    ( '' ),
    'SwSTEP 2.0',
    'SolidWorks 2023',
    '' );
FILE_SCHEMA (( 'AUTOMOTIVE_DESIGN' ));
ENDSEC;

DATA;
#1 = DIRECTION ( 'NONE',  ( 2.721437331438562546E-17, 1.000000000000000000, -0.000000000000000000 ) ) ;
#2 = AXIS2_PLACEMENT_3D ( 'NONE', #286, #17, #169 ) ;
#3 = CARTESIAN_POINT ( 'NONE',  ( 3.673940397442059868E-16, 9.000000000000000000, 3.000000000000000000 ) ) ;
#4 = CYLINDRICAL_SURFACE ( 'NONE', #9, 2.999999999999999112 ) ;
#5 = AXIS2_PLACEMENT_3D ( 'NONE', #37, #218, #98 ) ;
#6 = SURFACE_STYLE_USAGE ( .BOTH. , #203 ) ;
#7 = DIRECTION ( 'NONE',  ( 2.721437331438562546E-17, 1.000000000000000000, -0.000000000000000000 ) ) ;
#8 = EDGE_LOOP ( 'NONE', ( #117, #280, #70, #279 ) ) ;
#9 = AXIS2_PLACEMENT_3D ( 'NONE', #82, #7, #128 ) ;
#10 = DIRECTION ( 'NONE',  ( 0.000000000000000000, 0.000000000000000000, -1.000000000000000000 ) ) ;
#11 = ORIENTED_EDGE ( 'NONE', *, *, #80, .F. ) ;
#12 = CLOSED_SHELL ( 'NONE', ( #137, #230, #148, #200 ) ) ;
#13 = ORIENTED_EDGE ( 'NONE', *, *, #168, .F. ) ;
#14 = SURFACE_STYLE_USAGE ( .BOTH. , #187 ) ;
#15 = VECTOR ( 'NONE', #143, 1000.000000000000000 ) ;
#16 = EDGE_CURVE ( 'NONE', #160, #116, #164, .T. ) ;
#17 = DIRECTION ( 'NONE',  ( 0.000000000000000000, -1.000000000000000000, -0.000000000000000000 ) ) ;
#18 = SURFACE_SIDE_STYLE ('',( #264 ) ) ;
#19 =( NAMED_UNIT ( * ) PLANE_ANGLE_UNIT ( ) SI_UNIT ( $, .RADIAN. ) );
#20 = FACE_OUTER_BOUND ( 'NONE', #49, .T. ) ;
#21 =( LENGTH_UNIT ( ) NAMED_UNIT ( * ) SI_UNIT ( .MILLI., .METRE. ) );
#22 = CIRCLE ( 'NONE', #43, 2.999999999999998668 ) ;
#23 = FACE_OUTER_BOUND ( 'NONE', #71, .T. ) ;
#24 = UNCERTAINTY_MEASURE_WITH_UNIT (LENGTH_MEASURE( 1.000000000000000082E-05 ), #120, 'distance_accuracy_value', 'NONE');
#25 = DIRECTION ( 'NONE',  ( -0.000000000000000000, -1.000000000000000000, -0.000000000000000000 ) ) ;
#26 = ORIENTED_EDGE ( 'NONE', *, *, #219, .T. ) ;
#27 = CARTESIAN_POINT ( 'NONE',  ( 0.000000000000000000, 0.000000000000000000, 0.000000000000000000 ) ) ;
#28 = SURFACE_STYLE_FILL_AREA ( #135 ) ;
#29 = PLANE ( 'NONE',  #261 ) ;
#30 = PRESENTATION_STYLE_ASSIGNMENT (( #184 ) ) ;
#31 =( NAMED_UNIT ( * ) SI_UNIT ( $, .STERADIAN. ) SOLID_ANGLE_UNIT ( ) );
#32 = ORIENTED_EDGE ( 'NONE', *, *, #224, .F. ) ;
#33 = DIRECTION ( 'NONE',  ( 0.000000000000000000, 0.000000000000000000, 1.000000000000000000 ) ) ;
#34 = PRESENTATION_LAYER_ASSIGNMENT (  '', '', ( #158 ) ) ;
#35 = FILL_AREA_STYLE ('',( #190 ) ) ;
#36 = CARTESIAN_POINT ( 'NONE',  ( 1.469576158976823750E-15, 63.00000000000000000, 0.000000000000000000 ) ) ;
#37 = CARTESIAN_POINT ( 'NONE',  ( 0.000000000000000000, 9.000000000000000000, 0.000000000000000000 ) ) ;
#38 = MECHANICAL_DESIGN_GEOMETRIC_PRESENTATION_REPRESENTATION (  '', ( #158 ), #180 ) ;
#39 = PLANE ( 'NONE',  #2 ) ;
#40 = APPLICATION_CONTEXT ( 'automotive_design' ) ;
#41 =( LENGTH_UNIT ( ) NAMED_UNIT ( * ) SI_UNIT ( .MILLI., .METRE. ) );
#42 = ADVANCED_FACE ( 'NONE', ( #94 ), #115, .T. ) ;
#43 = AXIS2_PLACEMENT_3D ( 'NONE', #36, #1, #194 ) ;
#44 = ORIENTED_EDGE ( 'NONE', *, *, #69, .T. ) ;
#45 = PRESENTATION_STYLE_ASSIGNMENT (( #73 ) ) ;
#46 = FILL_AREA_STYLE_COLOUR ( '', #124 ) ;
#47 = DIRECTION ( 'NONE',  ( 0.000000000000000000, 0.000000000000000000, -1.000000000000000000 ) ) ;
#48 =( GEOMETRIC_REPRESENTATION_CONTEXT ( 3 ) GLOBAL_UNCERTAINTY_ASSIGNED_CONTEXT ( ( #81 ) ) GLOBAL_UNIT_ASSIGNED_CONTEXT ( ( #21, #61, #156 ) ) REPRESENTATION_CONTEXT ( 'NONE', 'WORKASPACE' ) );
#49 = EDGE_LOOP ( 'NONE', ( #213, #256 ) ) ;
#50 =( LENGTH_UNIT ( ) NAMED_UNIT ( * ) SI_UNIT ( .MILLI., .METRE. ) );
#51 = ORIENTED_EDGE ( 'NONE', *, *, #219, .F. ) ;
#52 = FILL_AREA_STYLE_COLOUR ( '', #100 ) ;
#53 = PRODUCT_CONTEXT ( 'NONE', #281, 'mechanical' ) ;
#54 = DIRECTION ( 'NONE',  ( -0.000000000000000000, -1.000000000000000000, -0.000000000000000000 ) ) ;
#55 = PRESENTATION_LAYER_ASSIGNMENT (  '', '', ( #272 ) ) ;
#56 = DIRECTION ( 'NONE',  ( 0.000000000000000000, 0.000000000000000000, -1.000000000000000000 ) ) ;
#57 = CARTESIAN_POINT ( 'NONE',  ( 3.000000000000000444, 9.000000000000001776, 3.673940397442059868E-16 ) ) ;
#58 = EDGE_CURVE ( 'NONE', #116, #160, #149, .T. ) ;
#59 = PRESENTATION_STYLE_ASSIGNMENT (( #99 ) ) ;
#60 =( NAMED_UNIT ( * ) SI_UNIT ( $, .STERADIAN. ) SOLID_ANGLE_UNIT ( ) );
#61 =( NAMED_UNIT ( * ) PLANE_ANGLE_UNIT ( ) SI_UNIT ( $, .RADIAN. ) );
#62 = UNCERTAINTY_MEASURE_WITH_UNIT (LENGTH_MEASURE( 1.000000000000000082E-05 ), #50, 'distance_accuracy_value', 'NONE');
#63 = CARTESIAN_POINT ( 'NONE',  ( 0.000000000000000000, 0.000000000000000000, -3.000000000000000000 ) ) ;
#64 = DIRECTION ( 'NONE',  ( -0.000000000000000000, -1.000000000000000000, -0.000000000000000000 ) ) ;
#65 = VERTEX_POINT ( 'NONE', #216 ) ;
#66 = VERTEX_POINT ( 'NONE', #79 ) ;
#67 = AXIS2_PLACEMENT_3D ( 'NONE', #225, #108, #104 ) ;
#68 =( GEOMETRIC_REPRESENTATION_CONTEXT ( 3 ) GLOBAL_UNCERTAINTY_ASSIGNED_CONTEXT ( ( #24 ) ) GLOBAL_UNIT_ASSIGNED_CONTEXT ( ( #120, #122, #31 ) ) REPRESENTATION_CONTEXT ( 'NONE', 'WORKASPACE' ) );
#69 = EDGE_CURVE ( 'NONE', #65, #111, #22, .T. ) ;
#70 = ORIENTED_EDGE ( 'NONE', *, *, #211, .F. ) ;
#71 = EDGE_LOOP ( 'NONE', ( #209, #142, #275, #11 ) ) ;
#72 = FILL_AREA_STYLE ('',( #248 ) ) ;
#73 = SURFACE_STYLE_USAGE ( .BOTH. , #283 ) ;
#74 = SURFACE_STYLE_FILL_AREA ( #238 ) ;
#75 = AXIS2_PLACEMENT_3D ( 'NONE', #220, #103, #196 ) ;
#76 = CIRCLE ( 'NONE', #119, 2.999999999999998668 ) ;
#77 = SURFACE_STYLE_USAGE ( .BOTH. , #150 ) ;
#78 = FACE_OUTER_BOUND ( 'NONE', #226, .T. ) ;
#79 = CARTESIAN_POINT ( 'NONE',  ( -3.000000000000000000, 9.000000000000001776, 0.000000000000000000 ) ) ;
#80 = EDGE_CURVE ( 'NONE', #66, #65, #195, .T. ) ;
#81 = UNCERTAINTY_MEASURE_WITH_UNIT (LENGTH_MEASURE( 1.000000000000000082E-05 ), #21, 'distance_accuracy_value', 'NONE');
#82 = CARTESIAN_POINT ( 'NONE',  ( 1.469576158976823750E-15, 63.00000000000000000, 0.000000000000000000 ) ) ;
#83 = CIRCLE ( 'NONE', #163, 3.000000000000000000 ) ;
#84 = PRODUCT_RELATED_PRODUCT_CATEGORY ( 'part', '', ( #130 ) ) ;
#85 = DIRECTION ( 'NONE',  ( -0.000000000000000000, -1.000000000000000000, -0.000000000000000000 ) ) ;
#86 = LINE ( 'NONE', #63, #192 ) ;
#87 = MECHANICAL_DESIGN_GEOMETRIC_PRESENTATION_REPRESENTATION (  '', ( #185 ), #118 ) ;
#88 = DIRECTION ( 'NONE',  ( 1.000000000000000000, -2.721437331438562546E-17, 0.000000000000000000 ) ) ;
#89 = ORIENTED_EDGE ( 'NONE', *, *, #170, .T. ) ;
#90 = CARTESIAN_POINT ( 'NONE',  ( 0.000000000000000000, 9.000000000000000000, 0.000000000000000000 ) ) ;
#91 =( NAMED_UNIT ( * ) PLANE_ANGLE_UNIT ( ) SI_UNIT ( $, .RADIAN. ) );
#92 = ADVANCED_FACE ( 'NONE', ( #234 ), #39, .T. ) ;
#93 = MECHANICAL_DESIGN_GEOMETRIC_PRESENTATION_REPRESENTATION (  '', ( #107 ), #247 ) ;
#94 = FACE_OUTER_BOUND ( 'NONE', #8, .T. ) ;
#95 = APPLICATION_PROTOCOL_DEFINITION ( 'draft international standard', 'automotive_design', 1998, #281 ) ;
#96 = SURFACE_STYLE_FILL_AREA ( #35 ) ;
#97 = PRESENTATION_LAYER_ASSIGNMENT (  '', '', ( #185 ) ) ;
#98 = DIRECTION ( 'NONE',  ( 0.000000000000000000, 0.000000000000000000, -1.000000000000000000 ) ) ;
#99 = SURFACE_STYLE_USAGE ( .BOTH. , #18 ) ;
#100 = COLOUR_RGB ( '',1.000000000000000000, 0.000000000000000000, 0.000000000000000000 ) ;
#101 = COLOUR_RGB ( '',0.7921568627450980005, 0.8196078431372548767, 0.9333333333333333481 ) ;
#102 = PRODUCT_DEFINITION ( 'UNKNOWN', '', #278, #105 ) ;
#103 = DIRECTION ( 'NONE',  ( 2.721437331438562546E-17, 1.000000000000000000, -0.000000000000000000 ) ) ;
#104 = DIRECTION ( 'NONE',  ( 0.000000000000000000, -0.000000000000000000, 1.000000000000000000 ) ) ;
#105 = PRODUCT_DEFINITION_CONTEXT ( 'detailed design', #40, 'design' ) ;
#106 = EDGE_CURVE ( 'NONE', #66, #141, #221, .T. ) ;
#107 = STYLED_ITEM ( 'NONE', ( #30 ), #42 ) ;
#108 = DIRECTION ( 'NONE',  ( 0.000000000000000000, 1.000000000000000000, 0.000000000000000000 ) ) ;
#109 = FACE_OUTER_BOUND ( 'NONE', #182, .T. ) ;
#110 = CARTESIAN_POINT ( 'NONE',  ( 0.000000000000000000, 0.000000000000000000, 0.000000000000000000 ) ) ;
#111 = VERTEX_POINT ( 'NONE', #171 ) ;
#112 = COLOUR_RGB ( '',1.000000000000000000, 0.000000000000000000, 0.000000000000000000 ) ;
#113 = PRESENTATION_LAYER_ASSIGNMENT (  '', '', ( #270 ) ) ;
#114 = CARTESIAN_POINT ( 'NONE',  ( 1.110933172342116556E-33, 9.000000000000000000, 0.000000000000000000 ) ) ;
#115 = CYLINDRICAL_SURFACE ( 'NONE', #173, 3.000000000000000000 ) ;
#116 = VERTEX_POINT ( 'NONE', #263 ) ;
#117 = ORIENTED_EDGE ( 'NONE', *, *, #58, .T. ) ;
#118 =( GEOMETRIC_REPRESENTATION_CONTEXT ( 3 ) GLOBAL_UNCERTAINTY_ASSIGNED_CONTEXT ( ( #155 ) ) GLOBAL_UNIT_ASSIGNED_CONTEXT ( ( #41, #126, #121 ) ) REPRESENTATION_CONTEXT ( 'NONE', 'WORKASPACE' ) );
#119 = AXIS2_PLACEMENT_3D ( 'NONE', #274, #146, #136 ) ;
#120 =( LENGTH_UNIT ( ) NAMED_UNIT ( * ) SI_UNIT ( .MILLI., .METRE. ) );
#121 =( NAMED_UNIT ( * ) SI_UNIT ( $, .STERADIAN. ) SOLID_ANGLE_UNIT ( ) );
#122 =( NAMED_UNIT ( * ) PLANE_ANGLE_UNIT ( ) SI_UNIT ( $, .RADIAN. ) );
#123 = DIRECTION ( 'NONE',  ( 2.721437331438562546E-17, 1.000000000000000000, -0.000000000000000000 ) ) ;
#124 = COLOUR_RGB ( '',1.000000000000000000, 0.000000000000000000, 0.000000000000000000 ) ;
#125 =( NAMED_UNIT ( * ) SI_UNIT ( $, .STERADIAN. ) SOLID_ANGLE_UNIT ( ) );
#126 =( NAMED_UNIT ( * ) PLANE_ANGLE_UNIT ( ) SI_UNIT ( $, .RADIAN. ) );
#127 = ADVANCED_FACE ( 'NONE', ( #78 ), #147, .T. ) ;
#128 = DIRECTION ( 'NONE',  ( -1.000000000000000000, 0.000000000000000000, 0.000000000000000000 ) ) ;
#129 =( LENGTH_UNIT ( ) NAMED_UNIT ( * ) SI_UNIT ( .MILLI., .METRE. ) );
#130 = PRODUCT ( '59691', '59691', '', ( #53 ) ) ;
#131 =( NAMED_UNIT ( * ) PLANE_ANGLE_UNIT ( ) SI_UNIT ( $, .RADIAN. ) );
#132 = PRESENTATION_LAYER_ASSIGNMENT (  '', '', ( #186 ) ) ;
#133 = ADVANCED_FACE ( 'NONE', ( #20 ), #197, .T. ) ;
#134 = ORIENTED_EDGE ( 'NONE', *, *, #16, .T. ) ;
#135 = FILL_AREA_STYLE ('',( #46 ) ) ;
#136 = DIRECTION ( 'NONE',  ( -1.000000000000000000, 0.000000000000000000, 0.000000000000000000 ) ) ;
#137 = ADVANCED_FACE ( 'NONE', ( #23 ), #4, .T. ) ;
#138 = VERTEX_POINT ( 'NONE', #266 ) ;
#139 = CIRCLE ( 'NONE', #217, 3.000000000000000000 ) ;
#140 = MECHANICAL_DESIGN_GEOMETRIC_PRESENTATION_REPRESENTATION (  '', ( #186 ), #222 ) ;
#141 = VERTEX_POINT ( 'NONE', #57 ) ;
#142 = ORIENTED_EDGE ( 'NONE', *, *, #250, .T. ) ;
#143 = DIRECTION ( 'NONE',  ( -0.000000000000000000, -1.000000000000000000, -0.000000000000000000 ) ) ;
#144 = PRESENTATION_LAYER_ASSIGNMENT (  '', '', ( #107 ) ) ;
#145 = SHAPE_DEFINITION_REPRESENTATION ( #198, #176 ) ;
#146 = DIRECTION ( 'NONE',  ( 2.721437331438562546E-17, 1.000000000000000000, -0.000000000000000000 ) ) ;
#147 = CYLINDRICAL_SURFACE ( 'NONE', #199, 3.000000000000000000 ) ;
#148 = ADVANCED_FACE ( 'NONE', ( #242 ), #151, .T. ) ;
#149 = CIRCLE ( 'NONE', #5, 3.000000000000000000 ) ;
#150 = SURFACE_SIDE_STYLE ('',( #74 ) ) ;
#151 = CYLINDRICAL_SURFACE ( 'NONE', #75, 2.999999999999999112 ) ;
#152 = PRESENTATION_STYLE_ASSIGNMENT (( #6 ) ) ;
#153 = AXIS2_PLACEMENT_3D ( 'NONE', #90, #64, #188 ) ;
#154 = FILL_AREA_STYLE_COLOUR ( '', #112 ) ;
#155 = UNCERTAINTY_MEASURE_WITH_UNIT (LENGTH_MEASURE( 1.000000000000000082E-05 ), #41, 'distance_accuracy_value', 'NONE');
#156 =( NAMED_UNIT ( * ) SI_UNIT ( $, .STERADIAN. ) SOLID_ANGLE_UNIT ( ) );
#157 = LINE ( 'NONE', #210, #15 ) ;
#158 = STYLED_ITEM ( 'NONE', ( #59 ), #127 ) ;
#159 = PLANE ( 'NONE',  #269 ) ;
#160 = VERTEX_POINT ( 'NONE', #3 ) ;
#161 =( LENGTH_UNIT ( ) NAMED_UNIT ( * ) SI_UNIT ( .MILLI., .METRE. ) );
#162 = ORIENTED_EDGE ( 'NONE', *, *, #250, .F. ) ;
#163 = AXIS2_PLACEMENT_3D ( 'NONE', #110, #54, #10 ) ;
#164 = CIRCLE ( 'NONE', #153, 3.000000000000000000 ) ;
#165 = VECTOR ( 'NONE', #277, 1000.000000000000000 ) ;
#166 = ORIENTED_EDGE ( 'NONE', *, *, #211, .T. ) ;
#167 = PRESENTATION_STYLE_ASSIGNMENT (( #14 ) ) ;
#168 = EDGE_CURVE ( 'NONE', #141, #66, #206, .T. ) ;
#169 = DIRECTION ( 'NONE',  ( 0.000000000000000000, 0.000000000000000000, -1.000000000000000000 ) ) ;
#170 = EDGE_CURVE ( 'NONE', #116, #138, #86, .T. ) ;
#171 = CARTESIAN_POINT ( 'NONE',  ( 3.000000000000000444, 63.00000000000000000, 3.673940397442059868E-16 ) ) ;
#172 = FILL_AREA_STYLE_COLOUR ( '', #228 ) ;
#173 = AXIS2_PLACEMENT_3D ( 'NONE', #214, #193, #56 ) ;
#174 =( GEOMETRIC_REPRESENTATION_CONTEXT ( 3 ) GLOBAL_UNCERTAINTY_ASSIGNED_CONTEXT ( ( #62 ) ) GLOBAL_UNIT_ASSIGNED_CONTEXT ( ( #50, #91, #262 ) ) REPRESENTATION_CONTEXT ( 'NONE', 'WORKASPACE' ) );
#175 = CARTESIAN_POINT ( 'NONE',  ( 0.000000000000000000, 0.000000000000000000, 0.000000000000000000 ) ) ;
#176 = ADVANCED_BREP_SHAPE_REPRESENTATION ( '59691', ( #237, #245, #181 ), #68 ) ;
#177 = CARTESIAN_POINT ( 'NONE',  ( 0.000000000000000000, 9.000000000000001776, 0.000000000000000000 ) ) ;
#178 = UNCERTAINTY_MEASURE_WITH_UNIT (LENGTH_MEASURE( 1.000000000000000082E-05 ), #161, 'distance_accuracy_value', 'NONE');
#179 = DIRECTION ( 'NONE',  ( -0.000000000000000000, -1.000000000000000000, -0.000000000000000000 ) ) ;
#180 =( GEOMETRIC_REPRESENTATION_CONTEXT ( 3 ) GLOBAL_UNCERTAINTY_ASSIGNED_CONTEXT ( ( #267 ) ) GLOBAL_UNIT_ASSIGNED_CONTEXT ( ( #129, #19, #243 ) ) REPRESENTATION_CONTEXT ( 'NONE', 'WORKASPACE' ) );
#181 = AXIS2_PLACEMENT_3D ( 'NONE', #257, #33, #235 ) ;
#182 = EDGE_LOOP ( 'NONE', ( #276, #13 ) ) ;
#183 = ORIENTED_EDGE ( 'NONE', *, *, #80, .T. ) ;
#184 = SURFACE_STYLE_USAGE ( .BOTH. , #229 ) ;
#185 = STYLED_ITEM ( 'NONE', ( #191 ), #92 ) ;
#186 = STYLED_ITEM ( 'NONE', ( #45 ), #237 ) ;
#187 = SURFACE_SIDE_STYLE ('',( #282 ) ) ;
#188 = DIRECTION ( 'NONE',  ( 0.000000000000000000, 0.000000000000000000, -1.000000000000000000 ) ) ;
#189 = APPLICATION_PROTOCOL_DEFINITION ( 'draft international standard', 'automotive_design', 1998, #40 ) ;
#190 = FILL_AREA_STYLE_COLOUR ( '', #202 ) ;
#191 = PRESENTATION_STYLE_ASSIGNMENT (( #77 ) ) ;
#192 = VECTOR ( 'NONE', #179, 1000.000000000000000 ) ;
#193 = DIRECTION ( 'NONE',  ( -0.000000000000000000, -1.000000000000000000, -0.000000000000000000 ) ) ;
#194 = DIRECTION ( 'NONE',  ( -1.000000000000000000, 0.000000000000000000, 0.000000000000000000 ) ) ;
#195 = LINE ( 'NONE', #287, #233 ) ;
#196 = DIRECTION ( 'NONE',  ( -1.000000000000000000, 0.000000000000000000, 0.000000000000000000 ) ) ;
#197 = PLANE ( 'NONE',  #67 ) ;
#198 = PRODUCT_DEFINITION_SHAPE ( 'NONE', 'NONE',  #102 ) ;
#199 = AXIS2_PLACEMENT_3D ( 'NONE', #175, #85, #223 ) ;
#200 = ADVANCED_FACE ( 'NONE', ( #251 ), #159, .F. ) ;
#201 = MECHANICAL_DESIGN_GEOMETRIC_PRESENTATION_REPRESENTATION (  '', ( #270 ), #174 ) ;
#202 = COLOUR_RGB ( '',0.7921568627450980005, 0.8196078431372548767, 0.9333333333333333481 ) ;
#203 = SURFACE_SIDE_STYLE ('',( #246 ) ) ;
#204 = CARTESIAN_POINT ( 'NONE',  ( 3.673940397442059868E-16, 0.000000000000000000, 3.000000000000000000 ) ) ;
#205 = VERTEX_POINT ( 'NONE', #204 ) ;
#206 = CIRCLE ( 'NONE', #244, 3.000000000000000000 ) ;
#207 = ORIENTED_EDGE ( 'NONE', *, *, #168, .T. ) ;
#208 = DIRECTION ( 'NONE',  ( 2.721437331438562546E-17, 1.000000000000000000, -0.000000000000000000 ) ) ;
#209 = ORIENTED_EDGE ( 'NONE', *, *, #106, .T. ) ;
#210 = CARTESIAN_POINT ( 'NONE',  ( 3.673940397442059868E-16, 0.000000000000000000, 3.000000000000000000 ) ) ;
#211 = EDGE_CURVE ( 'NONE', #138, #205, #139, .T. ) ;
#212 = AXIS2_PLACEMENT_3D ( 'NONE', #260, #239, #288 ) ;
#213 = ORIENTED_EDGE ( 'NONE', *, *, #58, .F. ) ;
#214 = CARTESIAN_POINT ( 'NONE',  ( 0.000000000000000000, 0.000000000000000000, 0.000000000000000000 ) ) ;
#215 = DIRECTION ( 'NONE',  ( 2.721437331438562546E-17, 1.000000000000000000, -0.000000000000000000 ) ) ;
#216 = CARTESIAN_POINT ( 'NONE',  ( -2.999999999999997335, 63.00000000000000000, 0.000000000000000000 ) ) ;
#217 = AXIS2_PLACEMENT_3D ( 'NONE', #27, #25, #47 ) ;
#218 = DIRECTION ( 'NONE',  ( -0.000000000000000000, -1.000000000000000000, -0.000000000000000000 ) ) ;
#219 = EDGE_CURVE ( 'NONE', #205, #138, #83, .T. ) ;
#220 = CARTESIAN_POINT ( 'NONE',  ( 1.469576158976823750E-15, 63.00000000000000000, 0.000000000000000000 ) ) ;
#221 = CIRCLE ( 'NONE', #212, 3.000000000000000000 ) ;
#222 =( GEOMETRIC_REPRESENTATION_CONTEXT ( 3 ) GLOBAL_UNCERTAINTY_ASSIGNED_CONTEXT ( ( #178 ) ) GLOBAL_UNIT_ASSIGNED_CONTEXT ( ( #161, #131, #60 ) ) REPRESENTATION_CONTEXT ( 'NONE', 'WORKASPACE' ) );
#223 = DIRECTION ( 'NONE',  ( 0.000000000000000000, 0.000000000000000000, -1.000000000000000000 ) ) ;
#224 = EDGE_CURVE ( 'NONE', #111, #65, #76, .T. ) ;
#225 = CARTESIAN_POINT ( 'NONE',  ( 0.000000000000000000, 9.000000000000000000, 0.000000000000000000 ) ) ;
#226 = EDGE_LOOP ( 'NONE', ( #255, #134, #89, #51 ) ) ;
#227 = ORIENTED_EDGE ( 'NONE', *, *, #224, .T. ) ;
#228 = COLOUR_RGB ( '',1.000000000000000000, 0.000000000000000000, 0.000000000000000000 ) ;
#229 = SURFACE_SIDE_STYLE ('',( #28 ) ) ;
#230 = ADVANCED_FACE ( 'NONE', ( #109 ), #29, .F. ) ;
#231 = LINE ( 'NONE', #254, #165 ) ;
#232 = EDGE_LOOP ( 'NONE', ( #162, #207, #183, #32 ) ) ;
#233 = VECTOR ( 'NONE', #123, 1000.000000000000000 ) ;
#234 = FACE_OUTER_BOUND ( 'NONE', #273, .T. ) ;
#235 = DIRECTION ( 'NONE',  ( 1.000000000000000000, 0.000000000000000000, 0.000000000000000000 ) ) ;
#236 = DIRECTION ( 'NONE',  ( -1.000000000000000000, 2.721437331438562546E-17, 0.000000000000000000 ) ) ;
#237 = MANIFOLD_SOLID_BREP ( 'Revolve - Cutting Edge', #241 ) ;
#238 = FILL_AREA_STYLE ('',( #52 ) ) ;
#239 = DIRECTION ( 'NONE',  ( 2.721437331438562546E-17, 1.000000000000000000, -0.000000000000000000 ) ) ;
#240 =( LENGTH_UNIT ( ) NAMED_UNIT ( * ) SI_UNIT ( .MILLI., .METRE. ) );
#241 = CLOSED_SHELL ( 'NONE', ( #42, #133, #127, #92 ) ) ;
#242 = FACE_OUTER_BOUND ( 'NONE', #232, .T. ) ;
#243 =( NAMED_UNIT ( * ) SI_UNIT ( $, .STERADIAN. ) SOLID_ANGLE_UNIT ( ) );
#244 = AXIS2_PLACEMENT_3D ( 'NONE', #177, #215, #253 ) ;
#245 = MANIFOLD_SOLID_BREP ( 'Revolve - Tool Body (Straight Shanked)', #12 ) ;
#246 = SURFACE_STYLE_FILL_AREA ( #268 ) ;
#247 =( GEOMETRIC_REPRESENTATION_CONTEXT ( 3 ) GLOBAL_UNCERTAINTY_ASSIGNED_CONTEXT ( ( #271 ) ) GLOBAL_UNIT_ASSIGNED_CONTEXT ( ( #240, #284, #125 ) ) REPRESENTATION_CONTEXT ( 'NONE', 'WORKASPACE' ) );
#248 = FILL_AREA_STYLE_COLOUR ( '', #101 ) ;
#249 = CARTESIAN_POINT ( 'NONE',  ( 3.000000000000000000, 63.00000000000000000, 0.000000000000000000 ) ) ;
#250 = EDGE_CURVE ( 'NONE', #141, #111, #231, .T. ) ;
#251 = FACE_OUTER_BOUND ( 'NONE', #252, .T. ) ;
#252 = EDGE_LOOP ( 'NONE', ( #44, #227 ) ) ;
#253 = DIRECTION ( 'NONE',  ( -1.000000000000000000, 0.000000000000000000, 0.000000000000000000 ) ) ;
#254 = CARTESIAN_POINT ( 'NONE',  ( 3.000000000000000444, 63.00000000000000000, 3.673940397442058882E-16 ) ) ;
#255 = ORIENTED_EDGE ( 'NONE', *, *, #265, .F. ) ;
#256 = ORIENTED_EDGE ( 'NONE', *, *, #16, .F. ) ;
#257 = CARTESIAN_POINT ( 'NONE',  ( 0.000000000000000000, 0.000000000000000000, 0.000000000000000000 ) ) ;
#258 = FILL_AREA_STYLE ('',( #172 ) ) ;
#259 = DIRECTION ( 'NONE',  ( -2.721437331438562546E-17, -1.000000000000000000, 0.000000000000000000 ) ) ;
#260 = CARTESIAN_POINT ( 'NONE',  ( 0.000000000000000000, 9.000000000000001776, 0.000000000000000000 ) ) ;
#261 = AXIS2_PLACEMENT_3D ( 'NONE', #114, #208, #236 ) ;
#262 =( NAMED_UNIT ( * ) SI_UNIT ( $, .STERADIAN. ) SOLID_ANGLE_UNIT ( ) );
#263 = CARTESIAN_POINT ( 'NONE',  ( 0.000000000000000000, 9.000000000000000000, -3.000000000000000000 ) ) ;
#264 = SURFACE_STYLE_FILL_AREA ( #258 ) ;
#265 = EDGE_CURVE ( 'NONE', #160, #205, #157, .T. ) ;
#266 = CARTESIAN_POINT ( 'NONE',  ( 0.000000000000000000, 0.000000000000000000, -3.000000000000000000 ) ) ;
#267 = UNCERTAINTY_MEASURE_WITH_UNIT (LENGTH_MEASURE( 1.000000000000000082E-05 ), #129, 'distance_accuracy_value', 'NONE');
#268 = FILL_AREA_STYLE ('',( #154 ) ) ;
#269 = AXIS2_PLACEMENT_3D ( 'NONE', #249, #259, #88 ) ;
#270 = STYLED_ITEM ( 'NONE', ( #167 ), #245 ) ;
#271 = UNCERTAINTY_MEASURE_WITH_UNIT (LENGTH_MEASURE( 1.000000000000000082E-05 ), #240, 'distance_accuracy_value', 'NONE');
#272 = STYLED_ITEM ( 'NONE', ( #152 ), #133 ) ;
#273 = EDGE_LOOP ( 'NONE', ( #166, #26 ) ) ;
#274 = CARTESIAN_POINT ( 'NONE',  ( 1.469576158976823750E-15, 63.00000000000000000, 0.000000000000000000 ) ) ;
#275 = ORIENTED_EDGE ( 'NONE', *, *, #69, .F. ) ;
#276 = ORIENTED_EDGE ( 'NONE', *, *, #106, .F. ) ;
#277 = DIRECTION ( 'NONE',  ( 2.721437331438562546E-17, 1.000000000000000000, -0.000000000000000000 ) ) ;
#278 = PRODUCT_DEFINITION_FORMATION_WITH_SPECIFIED_SOURCE ( 'ANY', '', #130, .NOT_KNOWN. ) ;
#279 = ORIENTED_EDGE ( 'NONE', *, *, #170, .F. ) ;
#280 = ORIENTED_EDGE ( 'NONE', *, *, #265, .T. ) ;
#281 = APPLICATION_CONTEXT ( 'automotive_design' ) ;
#282 = SURFACE_STYLE_FILL_AREA ( #72 ) ;
#283 = SURFACE_SIDE_STYLE ('',( #96 ) ) ;
#284 =( NAMED_UNIT ( * ) PLANE_ANGLE_UNIT ( ) SI_UNIT ( $, .RADIAN. ) );
#285 = MECHANICAL_DESIGN_GEOMETRIC_PRESENTATION_REPRESENTATION (  '', ( #272 ), #48 ) ;
#286 = CARTESIAN_POINT ( 'NONE',  ( 0.000000000000000000, 0.000000000000000000, 0.000000000000000000 ) ) ;
#287 = CARTESIAN_POINT ( 'NONE',  ( -2.999999999999997780, 63.00000000000000000, 0.000000000000000000 ) ) ;
#288 = DIRECTION ( 'NONE',  ( -1.000000000000000000, 0.000000000000000000, 0.000000000000000000 ) ) ;
ENDSEC;
END-ISO-10303-21;
