ISO-10303-21;
HEADER;
FILE_DESCRIPTION (( 'STEP AP214' ),
    '1' );
FILE_NAME ('83523.STEP',
    '2023-06-23T10:31:42',
    ( '' ),
    ( '' ),
    'SwSTEP 2.0',
    'SolidWorks 2023',
    '' );
FILE_SCHEMA (( 'AUTOMOTIVE_DESIGN' ));
ENDSEC;

DATA;
#1 = COLOUR_RGB ( '',0.7921568627450980005, 0.8196078431372548767, 0.9333333333333333481 ) ;
#2 = AXIS2_PLACEMENT_3D ( 'NONE', #99, #269, #187 ) ;
#3 = EDGE_CURVE ( 'NONE', #105, #237, #228, .T. ) ;
#4 = PRESENTATION_STYLE_ASSIGNMENT (( #186 ) ) ;
#5 = VERTEX_POINT ( 'NONE', #282 ) ;
#6 = SURFACE_STYLE_FILL_AREA ( #208 ) ;
#7 = STYLED_ITEM ( 'NONE', ( #175 ), #244 ) ;
#8 = ORIENTED_EDGE ( 'NONE', *, *, #112, .F. ) ;
#9 = CARTESIAN_POINT ( 'NONE',  ( 0.000000000000000000, 1.750000000000000000, 0.000000000000000000 ) ) ;
#10 =( NAMED_UNIT ( * ) PLANE_ANGLE_UNIT ( ) SI_UNIT ( $, .RADIAN. ) );
#11 = ORIENTED_EDGE ( 'NONE', *, *, #207, .F. ) ;
#12 = EDGE_LOOP ( 'NONE', ( #77, #307, #121, #293 ) ) ;
#13 = EDGE_CURVE ( 'NONE', #55, #5, #147, .T. ) ;
#14 = SURFACE_STYLE_USAGE ( .BOTH. , #225 ) ;
#15 = CARTESIAN_POINT ( 'NONE',  ( 0.1249999999999999167, 4.000000000000000000, 1.530808498934192742E-17 ) ) ;
#16 = PLANE ( 'NONE',  #294 ) ;
#17 = DIRECTION ( 'NONE',  ( 0.000000000000000000, 0.000000000000000000, -1.000000000000000000 ) ) ;
#18 =( GEOMETRIC_REPRESENTATION_CONTEXT ( 3 ) GLOBAL_UNCERTAINTY_ASSIGNED_CONTEXT ( ( #273 ) ) GLOBAL_UNIT_ASSIGNED_CONTEXT ( ( #92, #68, #185 ) ) REPRESENTATION_CONTEXT ( 'NONE', 'WORKASPACE' ) );
#19 = AXIS2_PLACEMENT_3D ( 'NONE', #235, #122, #210 ) ;
#20 = FACE_OUTER_BOUND ( 'NONE', #12, .T. ) ;
#21 = ORIENTED_EDGE ( 'NONE', *, *, #154, .T. ) ;
#22 = EDGE_CURVE ( 'NONE', #241, #105, #137, .T. ) ;
#23 = STYLED_ITEM ( 'NONE', ( #98 ), #50 ) ;
#24 = MECHANICAL_DESIGN_GEOMETRIC_PRESENTATION_REPRESENTATION (  '', ( #249 ), #227 ) ;
#25 = FILL_AREA_STYLE ('',( #242 ) ) ;
#26 = FILL_AREA_STYLE ('',( #74 ) ) ;
#27 = ADVANCED_FACE ( 'NONE', ( #198 ), #87, .T. ) ;
#28 =( NAMED_UNIT ( * ) SI_UNIT ( $, .STERADIAN. ) SOLID_ANGLE_UNIT ( ) );
#29 = EDGE_LOOP ( 'NONE', ( #258, #149 ) ) ;
#30 = SURFACE_STYLE_FILL_AREA ( #25 ) ;
#31 =( LENGTH_UNIT ( ) NAMED_UNIT ( * ) SI_UNIT ( $, .METRE. ) );
#32 =( NAMED_UNIT ( * ) SI_UNIT ( $, .STERADIAN. ) SOLID_ANGLE_UNIT ( ) );
#33 = DIRECTION ( 'NONE',  ( -8.164311994315687637E-17, 1.000000000000000000, -0.000000000000000000 ) ) ;
#34 = DIRECTION ( 'NONE',  ( -1.000000000000000000, 0.000000000000000000, 0.000000000000000000 ) ) ;
#35 = MECHANICAL_DESIGN_GEOMETRIC_PRESENTATION_REPRESENTATION (  '', ( #7 ), #285 ) ;
#36 = DIRECTION ( 'NONE',  ( 0.000000000000000000, 0.000000000000000000, -1.000000000000000000 ) ) ;
#37 = DIRECTION ( 'NONE',  ( 0.000000000000000000, 0.000000000000000000, -1.000000000000000000 ) ) ;
#38 = ADVANCED_FACE ( 'NONE', ( #65 ), #16, .F. ) ;
#39 =( CONVERSION_BASED_UNIT ( 'INCH', #245 ) LENGTH_UNIT ( ) NAMED_UNIT ( #287 ) );
#40 = DIMENSIONAL_EXPONENTS ( 1.000000000000000000, 0.000000000000000000, 0.000000000000000000, 0.000000000000000000, 0.000000000000000000, 0.000000000000000000, 0.000000000000000000 ) ;
#41 = CIRCLE ( 'NONE', #156, 0.1250000000000000000 ) ;
#42 = SURFACE_STYLE_USAGE ( .BOTH. , #256 ) ;
#43 = DIMENSIONAL_EXPONENTS ( 1.000000000000000000, 0.000000000000000000, 0.000000000000000000, 0.000000000000000000, 0.000000000000000000, 0.000000000000000000, 0.000000000000000000 ) ;
#44 = SURFACE_STYLE_FILL_AREA ( #281 ) ;
#45 = COLOUR_RGB ( '',0.7921568627450980005, 0.8196078431372548767, 0.9333333333333333481 ) ;
#46 = CIRCLE ( 'NONE', #94, 0.1250000000000000000 ) ;
#47 = SURFACE_SIDE_STYLE ('',( #6 ) ) ;
#48 = CARTESIAN_POINT ( 'NONE',  ( 0.000000000000000000, 0.000000000000000000, -0.1250000000000000000 ) ) ;
#49 = COLOUR_RGB ( '',1.000000000000000000, 0.000000000000000000, 0.000000000000000000 ) ;
#50 = MANIFOLD_SOLID_BREP ( 'Revolve - Cutting Edge', #124 ) ;
#51 = CARTESIAN_POINT ( 'NONE',  ( 0.000000000000000000, 0.000000000000000000, 0.000000000000000000 ) ) ;
#52 = UNCERTAINTY_MEASURE_WITH_UNIT (LENGTH_MEASURE( 1.000000000000000082E-05 ), #219, 'distance_accuracy_value', 'NONE');
#53 = MANIFOLD_SOLID_BREP ( 'Revolve - Tool Body (Straight Shanked)', #150 ) ;
#54 = PRESENTATION_STYLE_ASSIGNMENT (( #272 ) ) ;
#55 = VERTEX_POINT ( 'NONE', #197 ) ;
#56 = CIRCLE ( 'NONE', #309, 0.1250000000000000000 ) ;
#57 = SHAPE_DEFINITION_REPRESENTATION ( #301, #247 ) ;
#58 = DIRECTION ( 'NONE',  ( 0.000000000000000000, -1.000000000000000000, -0.000000000000000000 ) ) ;
#59 = APPLICATION_PROTOCOL_DEFINITION ( 'draft international standard', 'automotive_design', 1998, #211 ) ;
#60 = DIRECTION ( 'NONE',  ( -0.000000000000000000, -1.000000000000000000, -0.000000000000000000 ) ) ;
#61 = COLOUR_RGB ( '',1.000000000000000000, 0.000000000000000000, 0.000000000000000000 ) ;
#62 = APPLICATION_CONTEXT ( 'automotive_design' ) ;
#63 = LENGTH_MEASURE_WITH_UNIT ( LENGTH_MEASURE( 0.02539999999999999897 ), #152 );
#64 = SURFACE_STYLE_FILL_AREA ( #280 ) ;
#65 = FACE_OUTER_BOUND ( 'NONE', #29, .T. ) ;
#66 = VECTOR ( 'NONE', #143, 39.37007874015748143 ) ;
#67 =( NAMED_UNIT ( * ) PLANE_ANGLE_UNIT ( ) SI_UNIT ( $, .RADIAN. ) );
#68 =( NAMED_UNIT ( * ) PLANE_ANGLE_UNIT ( ) SI_UNIT ( $, .RADIAN. ) );
#69 = EDGE_CURVE ( 'NONE', #73, #268, #56, .T. ) ;
#70 = LENGTH_MEASURE_WITH_UNIT ( LENGTH_MEASURE( 0.02539999999999999897 ), #117 );
#71 = PLANE ( 'NONE',  #130 ) ;
#72 =( NAMED_UNIT ( * ) PLANE_ANGLE_UNIT ( ) SI_UNIT ( $, .RADIAN. ) );
#73 = VERTEX_POINT ( 'NONE', #230 ) ;
#74 = FILL_AREA_STYLE_COLOUR ( '', #49 ) ;
#75 = UNCERTAINTY_MEASURE_WITH_UNIT (LENGTH_MEASURE( 1.000000000000000082E-05 ), #145, 'distance_accuracy_value', 'NONE');
#76 =( NAMED_UNIT ( * ) SI_UNIT ( $, .STERADIAN. ) SOLID_ANGLE_UNIT ( ) );
#77 = ORIENTED_EDGE ( 'NONE', *, *, #69, .T. ) ;
#78 = ORIENTED_EDGE ( 'NONE', *, *, #22, .F. ) ;
#79 = DIRECTION ( 'NONE',  ( 8.164311994315687637E-17, -1.000000000000000000, 0.000000000000000000 ) ) ;
#80 = FILL_AREA_STYLE_COLOUR ( '', #1 ) ;
#81 = ORIENTED_EDGE ( 'NONE', *, *, #296, .F. ) ;
#82 = EDGE_CURVE ( 'NONE', #268, #73, #41, .T. ) ;
#83 = STYLED_ITEM ( 'NONE', ( #54 ), #166 ) ;
#84 =( NAMED_UNIT ( * ) PLANE_ANGLE_UNIT ( ) SI_UNIT ( $, .RADIAN. ) );
#85 = ADVANCED_FACE ( 'NONE', ( #206 ), #308, .T. ) ;
#86 = STYLED_ITEM ( 'NONE', ( #4 ), #53 ) ;
#87 = PLANE ( 'NONE',  #164 ) ;
#88 = SURFACE_STYLE_USAGE ( .BOTH. , #304 ) ;
#89 = CARTESIAN_POINT ( 'NONE',  ( -0.1250000000000003608, 4.000000000000000000, 0.000000000000000000 ) ) ;
#90 = CARTESIAN_POINT ( 'NONE',  ( 0.1250000000000000000, 1.750000000000000000, 1.530808498934193358E-17 ) ) ;
#91 = CARTESIAN_POINT ( 'NONE',  ( 0.1250000000000000000, 4.000000000000000000, 1.530808498934193358E-17 ) ) ;
#92 =( CONVERSION_BASED_UNIT ( 'INCH', #262 ) LENGTH_UNIT ( ) NAMED_UNIT ( #278 ) );
#93 = PRESENTATION_LAYER_ASSIGNMENT (  '', '', ( #102 ) ) ;
#94 = AXIS2_PLACEMENT_3D ( 'NONE', #9, #33, #34 ) ;
#95 = CARTESIAN_POINT ( 'NONE',  ( -1.836970198721029688E-16, 4.000000000000000000, 0.000000000000000000 ) ) ;
#96 = PRESENTATION_LAYER_ASSIGNMENT (  '', '', ( #249 ) ) ;
#97 = EDGE_LOOP ( 'NONE', ( #192, #182 ) ) ;
#98 = PRESENTATION_STYLE_ASSIGNMENT (( #191 ) ) ;
#99 = CARTESIAN_POINT ( 'NONE',  ( -1.836970198721029688E-16, 4.000000000000000000, 0.000000000000000000 ) ) ;
#100 =( CONVERSION_BASED_UNIT ( 'INCH', #238 ) LENGTH_UNIT ( ) NAMED_UNIT ( #40 ) );
#101 = SURFACE_SIDE_STYLE ('',( #167 ) ) ;
#102 = STYLED_ITEM ( 'NONE', ( #110 ), #27 ) ;
#103 = PRESENTATION_LAYER_ASSIGNMENT (  '', '', ( #7 ) ) ;
#104 =( NAMED_UNIT ( * ) PLANE_ANGLE_UNIT ( ) SI_UNIT ( $, .RADIAN. ) );
#105 = VERTEX_POINT ( 'NONE', #90 ) ;
#106 = CARTESIAN_POINT ( 'NONE',  ( 0.000000000000000000, 0.000000000000000000, 0.000000000000000000 ) ) ;
#107 = EDGE_LOOP ( 'NONE', ( #224, #233, #8, #11 ) ) ;
#108 = DIRECTION ( 'NONE',  ( -8.164311994315687637E-17, 1.000000000000000000, -0.000000000000000000 ) ) ;
#109 = DIRECTION ( 'NONE',  ( -1.000000000000000000, 0.000000000000000000, 0.000000000000000000 ) ) ;
#110 = PRESENTATION_STYLE_ASSIGNMENT (( #14 ) ) ;
#111 = AXIS2_PLACEMENT_3D ( 'NONE', #204, #261, #257 ) ;
#112 = EDGE_CURVE ( 'NONE', #220, #237, #194, .T. ) ;
#113 = PRESENTATION_STYLE_ASSIGNMENT (( #42 ) ) ;
#114 = DIRECTION ( 'NONE',  ( -0.000000000000000000, -1.000000000000000000, -0.000000000000000000 ) ) ;
#115 = UNCERTAINTY_MEASURE_WITH_UNIT (LENGTH_MEASURE( 1.000000000000000082E-05 ), #295, 'distance_accuracy_value', 'NONE');
#116 = ORIENTED_EDGE ( 'NONE', *, *, #170, .T. ) ;
#117 =( LENGTH_UNIT ( ) NAMED_UNIT ( * ) SI_UNIT ( $, .METRE. ) );
#118 = DIRECTION ( 'NONE',  ( 0.000000000000000000, -0.000000000000000000, 1.000000000000000000 ) ) ;
#119 = PRODUCT ( '83523', '83523', '', ( #276 ) ) ;
#120 = FILL_AREA_STYLE ('',( #260 ) ) ;
#121 = ORIENTED_EDGE ( 'NONE', *, *, #13, .F. ) ;
#122 = DIRECTION ( 'NONE',  ( -0.000000000000000000, -1.000000000000000000, -0.000000000000000000 ) ) ;
#123 = DIRECTION ( 'NONE',  ( -0.000000000000000000, -1.000000000000000000, -0.000000000000000000 ) ) ;
#124 = CLOSED_SHELL ( 'NONE', ( #132, #27, #244, #166 ) ) ;
#125 = SURFACE_SIDE_STYLE ('',( #30 ) ) ;
#126 = LINE ( 'NONE', #217, #205 ) ;
#127 = PRODUCT_RELATED_PRODUCT_CATEGORY ( 'part', '', ( #119 ) ) ;
#128 = DIRECTION ( 'NONE',  ( 0.000000000000000000, 0.000000000000000000, -1.000000000000000000 ) ) ;
#129 = APPLICATION_PROTOCOL_DEFINITION ( 'draft international standard', 'automotive_design', 1998, #62 ) ;
#130 = AXIS2_PLACEMENT_3D ( 'NONE', #51, #58, #37 ) ;
#131 = DIRECTION ( 'NONE',  ( -8.164311994315687637E-17, 1.000000000000000000, -0.000000000000000000 ) ) ;
#132 = ADVANCED_FACE ( 'NONE', ( #20 ), #155, .T. ) ;
#133 = DIRECTION ( 'NONE',  ( -8.164311994315687637E-17, 1.000000000000000000, -0.000000000000000000 ) ) ;
#134 = CARTESIAN_POINT ( 'NONE',  ( 0.000000000000000000, 0.000000000000000000, 0.000000000000000000 ) ) ;
#135 = ORIENTED_EDGE ( 'NONE', *, *, #254, .F. ) ;
#136 =( NAMED_UNIT ( * ) SI_UNIT ( $, .STERADIAN. ) SOLID_ANGLE_UNIT ( ) );
#137 = CIRCLE ( 'NONE', #179, 0.1250000000000000000 ) ;
#138 = AXIS2_PLACEMENT_3D ( 'NONE', #289, #140, #288 ) ;
#139 = CARTESIAN_POINT ( 'NONE',  ( 0.000000000000000000, 1.750000000000000000, 0.000000000000000000 ) ) ;
#140 = DIRECTION ( 'NONE',  ( -8.164311994315687637E-17, 1.000000000000000000, -0.000000000000000000 ) ) ;
#141 = LINE ( 'NONE', #48, #66 ) ;
#142 = PRESENTATION_LAYER_ASSIGNMENT (  '', '', ( #83 ) ) ;
#143 = DIRECTION ( 'NONE',  ( -0.000000000000000000, -1.000000000000000000, -0.000000000000000000 ) ) ;
#144 =( LENGTH_UNIT ( ) NAMED_UNIT ( * ) SI_UNIT ( $, .METRE. ) );
#145 =( CONVERSION_BASED_UNIT ( 'INCH', #168 ) LENGTH_UNIT ( ) NAMED_UNIT ( #158 ) );
#146 = DIRECTION ( 'NONE',  ( 0.000000000000000000, 0.000000000000000000, -1.000000000000000000 ) ) ;
#147 = CIRCLE ( 'NONE', #214, 0.1250000000000000000 ) ;
#148 = CARTESIAN_POINT ( 'NONE',  ( -1.836970198721029688E-16, 4.000000000000000000, 0.000000000000000000 ) ) ;
#149 = ORIENTED_EDGE ( 'NONE', *, *, #296, .T. ) ;
#150 = CLOSED_SHELL ( 'NONE', ( #85, #223, #162, #38 ) ) ;
#151 =( GEOMETRIC_REPRESENTATION_CONTEXT ( 3 ) GLOBAL_UNCERTAINTY_ASSIGNED_CONTEXT ( ( #188 ) ) GLOBAL_UNIT_ASSIGNED_CONTEXT ( ( #39, #10, #32 ) ) REPRESENTATION_CONTEXT ( 'NONE', 'WORKASPACE' ) );
#152 =( LENGTH_UNIT ( ) NAMED_UNIT ( * ) SI_UNIT ( $, .METRE. ) );
#153 = DIRECTION ( 'NONE',  ( -0.000000000000000000, -1.000000000000000000, -0.000000000000000000 ) ) ;
#154 = EDGE_CURVE ( 'NONE', #73, #55, #141, .T. ) ;
#155 = CYLINDRICAL_SURFACE ( 'NONE', #19, 0.1250000000000000000 ) ;
#156 = AXIS2_PLACEMENT_3D ( 'NONE', #183, #114, #202 ) ;
#157 = FILL_AREA_STYLE_COLOUR ( '', #61 ) ;
#158 = DIMENSIONAL_EXPONENTS ( 1.000000000000000000, 0.000000000000000000, 0.000000000000000000, 0.000000000000000000, 0.000000000000000000, 0.000000000000000000, 0.000000000000000000 ) ;
#159 =( NAMED_UNIT ( * ) SI_UNIT ( $, .STERADIAN. ) SOLID_ANGLE_UNIT ( ) );
#160 =( LENGTH_UNIT ( ) NAMED_UNIT ( * ) SI_UNIT ( $, .METRE. ) );
#161 = AXIS2_PLACEMENT_3D ( 'NONE', #246, #302, #146 ) ;
#162 = ADVANCED_FACE ( 'NONE', ( #291 ), #297, .T. ) ;
#163 = PRESENTATION_LAYER_ASSIGNMENT (  '', '', ( #23 ) ) ;
#164 = AXIS2_PLACEMENT_3D ( 'NONE', #139, #231, #118 ) ;
#165 = EDGE_LOOP ( 'NONE', ( #216, #251, #21, #306 ) ) ;
#166 = ADVANCED_FACE ( 'NONE', ( #292 ), #71, .T. ) ;
#167 = SURFACE_STYLE_FILL_AREA ( #26 ) ;
#168 = LENGTH_MEASURE_WITH_UNIT ( LENGTH_MEASURE( 0.02539999999999999897 ), #31 );
#169 =( LENGTH_UNIT ( ) NAMED_UNIT ( * ) SI_UNIT ( $, .METRE. ) );
#170 = EDGE_CURVE ( 'NONE', #5, #55, #255, .T. ) ;
#171 = DIRECTION ( 'NONE',  ( -8.164311994315687637E-17, 1.000000000000000000, -0.000000000000000000 ) ) ;
#172 =( GEOMETRIC_REPRESENTATION_CONTEXT ( 3 ) GLOBAL_UNCERTAINTY_ASSIGNED_CONTEXT ( ( #75 ) ) GLOBAL_UNIT_ASSIGNED_CONTEXT ( ( #145, #299, #28 ) ) REPRESENTATION_CONTEXT ( 'NONE', 'WORKASPACE' ) );
#173 = CARTESIAN_POINT ( 'NONE',  ( 1.530808498934191509E-17, 1.750000000000000000, 0.1250000000000000000 ) ) ;
#174 = FILL_AREA_STYLE_COLOUR ( '', #275 ) ;
#175 = PRESENTATION_STYLE_ASSIGNMENT (( #88 ) ) ;
#176 = FACE_OUTER_BOUND ( 'NONE', #271, .T. ) ;
#177 = DIRECTION ( 'NONE',  ( -1.000000000000000000, 0.000000000000000000, 0.000000000000000000 ) ) ;
#178 = CARTESIAN_POINT ( 'NONE',  ( -0.1250000000000000000, 1.750000000000000000, 0.000000000000000000 ) ) ;
#179 = AXIS2_PLACEMENT_3D ( 'NONE', #203, #133, #109 ) ;
#180 = COLOUR_RGB ( '',1.000000000000000000, 0.000000000000000000, 0.000000000000000000 ) ;
#181 = DIRECTION ( 'NONE',  ( -8.164311994315687637E-17, 1.000000000000000000, -0.000000000000000000 ) ) ;
#182 = ORIENTED_EDGE ( 'NONE', *, *, #82, .F. ) ;
#183 = CARTESIAN_POINT ( 'NONE',  ( 0.000000000000000000, 1.750000000000000000, 0.000000000000000000 ) ) ;
#184 = PRODUCT_DEFINITION ( 'UNKNOWN', '', #201, #265 ) ;
#185 =( NAMED_UNIT ( * ) SI_UNIT ( $, .STERADIAN. ) SOLID_ANGLE_UNIT ( ) );
#186 = SURFACE_STYLE_USAGE ( .BOTH. , #125 ) ;
#187 = DIRECTION ( 'NONE',  ( -1.000000000000000000, 0.000000000000000000, 0.000000000000000000 ) ) ;
#188 = UNCERTAINTY_MEASURE_WITH_UNIT (LENGTH_MEASURE( 1.000000000000000082E-05 ), #39, 'distance_accuracy_value', 'NONE');
#189 = ORIENTED_EDGE ( 'NONE', *, *, #254, .T. ) ;
#190 = MECHANICAL_DESIGN_GEOMETRIC_PRESENTATION_REPRESENTATION (  '', ( #83 ), #232 ) ;
#191 = SURFACE_STYLE_USAGE ( .BOTH. , #47 ) ;
#192 = ORIENTED_EDGE ( 'NONE', *, *, #69, .F. ) ;
#193 = DIRECTION ( 'NONE',  ( 0.000000000000000000, 0.000000000000000000, 1.000000000000000000 ) ) ;
#194 = CIRCLE ( 'NONE', #138, 0.1250000000000001943 ) ;
#195 =( NAMED_UNIT ( * ) SI_UNIT ( $, .STERADIAN. ) SOLID_ANGLE_UNIT ( ) );
#196 = DIMENSIONAL_EXPONENTS ( 1.000000000000000000, 0.000000000000000000, 0.000000000000000000, 0.000000000000000000, 0.000000000000000000, 0.000000000000000000, 0.000000000000000000 ) ;
#197 = CARTESIAN_POINT ( 'NONE',  ( 0.000000000000000000, 0.000000000000000000, -0.1250000000000000000 ) ) ;
#198 = FACE_OUTER_BOUND ( 'NONE', #97, .T. ) ;
#199 = FACE_OUTER_BOUND ( 'NONE', #165, .T. ) ;
#200 = MECHANICAL_DESIGN_GEOMETRIC_PRESENTATION_REPRESENTATION (  '', ( #86 ), #209 ) ;
#201 = PRODUCT_DEFINITION_FORMATION_WITH_SPECIFIED_SOURCE ( 'ANY', '', #119, .NOT_KNOWN. ) ;
#202 = DIRECTION ( 'NONE',  ( 0.000000000000000000, 0.000000000000000000, -1.000000000000000000 ) ) ;
#203 = CARTESIAN_POINT ( 'NONE',  ( 0.000000000000000000, 1.750000000000000000, 0.000000000000000000 ) ) ;
#204 = CARTESIAN_POINT ( 'NONE',  ( 4.165999396282937514E-34, 1.750000000000000000, 0.000000000000000000 ) ) ;
#205 = VECTOR ( 'NONE', #153, 39.37007874015748143 ) ;
#206 = FACE_OUTER_BOUND ( 'NONE', #107, .T. ) ;
#207 = EDGE_CURVE ( 'NONE', #241, #220, #222, .T. ) ;
#208 = FILL_AREA_STYLE ('',( #80 ) ) ;
#209 =( GEOMETRIC_REPRESENTATION_CONTEXT ( 3 ) GLOBAL_UNCERTAINTY_ASSIGNED_CONTEXT ( ( #240 ) ) GLOBAL_UNIT_ASSIGNED_CONTEXT ( ( #100, #72, #76 ) ) REPRESENTATION_CONTEXT ( 'NONE', 'WORKASPACE' ) );
#210 = DIRECTION ( 'NONE',  ( 0.000000000000000000, 0.000000000000000000, -1.000000000000000000 ) ) ;
#211 = APPLICATION_CONTEXT ( 'automotive_design' ) ;
#212 = ORIENTED_EDGE ( 'NONE', *, *, #207, .T. ) ;
#213 = CARTESIAN_POINT ( 'NONE',  ( 0.1250000000000000000, 4.000000000000000000, 0.000000000000000000 ) ) ;
#214 = AXIS2_PLACEMENT_3D ( 'NONE', #134, #60, #36 ) ;
#215 = AXIS2_PLACEMENT_3D ( 'NONE', #106, #193, #300 ) ;
#216 = ORIENTED_EDGE ( 'NONE', *, *, #218, .F. ) ;
#217 = CARTESIAN_POINT ( 'NONE',  ( 1.530808498934191509E-17, 0.000000000000000000, 0.1250000000000000000 ) ) ;
#218 = EDGE_CURVE ( 'NONE', #268, #5, #126, .T. ) ;
#219 =( CONVERSION_BASED_UNIT ( 'INCH', #63 ) LENGTH_UNIT ( ) NAMED_UNIT ( #43 ) );
#220 = VERTEX_POINT ( 'NONE', #89 ) ;
#221 = AXIS2_PLACEMENT_3D ( 'NONE', #274, #250, #128 ) ;
#222 = LINE ( 'NONE', #243, #236 ) ;
#223 = ADVANCED_FACE ( 'NONE', ( #176 ), #229, .F. ) ;
#224 = ORIENTED_EDGE ( 'NONE', *, *, #22, .T. ) ;
#225 = SURFACE_SIDE_STYLE ('',( #64 ) ) ;
#226 = PRESENTATION_LAYER_ASSIGNMENT (  '', '', ( #86 ) ) ;
#227 =( GEOMETRIC_REPRESENTATION_CONTEXT ( 3 ) GLOBAL_UNCERTAINTY_ASSIGNED_CONTEXT ( ( #298 ) ) GLOBAL_UNIT_ASSIGNED_CONTEXT ( ( #286, #67, #159 ) ) REPRESENTATION_CONTEXT ( 'NONE', 'WORKASPACE' ) );
#228 = LINE ( 'NONE', #15, #252 ) ;
#229 = PLANE ( 'NONE',  #111 ) ;
#230 = CARTESIAN_POINT ( 'NONE',  ( 0.000000000000000000, 1.750000000000000000, -0.1250000000000000000 ) ) ;
#231 = DIRECTION ( 'NONE',  ( 0.000000000000000000, 1.000000000000000000, 0.000000000000000000 ) ) ;
#232 =( GEOMETRIC_REPRESENTATION_CONTEXT ( 3 ) GLOBAL_UNCERTAINTY_ASSIGNED_CONTEXT ( ( #115 ) ) GLOBAL_UNIT_ASSIGNED_CONTEXT ( ( #295, #104, #136 ) ) REPRESENTATION_CONTEXT ( 'NONE', 'WORKASPACE' ) );
#233 = ORIENTED_EDGE ( 'NONE', *, *, #3, .T. ) ;
#234 = ORIENTED_EDGE ( 'NONE', *, *, #13, .T. ) ;
#235 = CARTESIAN_POINT ( 'NONE',  ( 0.000000000000000000, 0.000000000000000000, 0.000000000000000000 ) ) ;
#236 = VECTOR ( 'NONE', #108, 39.37007874015748143 ) ;
#237 = VERTEX_POINT ( 'NONE', #91 ) ;
#238 = LENGTH_MEASURE_WITH_UNIT ( LENGTH_MEASURE( 0.02539999999999999897 ), #266 );
#239 = LENGTH_MEASURE_WITH_UNIT ( LENGTH_MEASURE( 0.02539999999999999897 ), #144 );
#240 = UNCERTAINTY_MEASURE_WITH_UNIT (LENGTH_MEASURE( 1.000000000000000082E-05 ), #100, 'distance_accuracy_value', 'NONE');
#241 = VERTEX_POINT ( 'NONE', #178 ) ;
#242 = FILL_AREA_STYLE_COLOUR ( '', #45 ) ;
#243 = CARTESIAN_POINT ( 'NONE',  ( -0.1250000000000002776, 4.000000000000000000, 0.000000000000000000 ) ) ;
#244 = ADVANCED_FACE ( 'NONE', ( #199 ), #284, .T. ) ;
#245 = LENGTH_MEASURE_WITH_UNIT ( LENGTH_MEASURE( 0.02539999999999999897 ), #169 );
#246 = CARTESIAN_POINT ( 'NONE',  ( 0.000000000000000000, 0.000000000000000000, 0.000000000000000000 ) ) ;
#247 = ADVANCED_BREP_SHAPE_REPRESENTATION ( '83523', ( #50, #53, #215 ), #151 ) ;
#248 = DIRECTION ( 'NONE',  ( -1.000000000000000000, 0.000000000000000000, 0.000000000000000000 ) ) ;
#249 = STYLED_ITEM ( 'NONE', ( #113 ), #132 ) ;
#250 = DIRECTION ( 'NONE',  ( -0.000000000000000000, -1.000000000000000000, -0.000000000000000000 ) ) ;
#251 = ORIENTED_EDGE ( 'NONE', *, *, #82, .T. ) ;
#252 = VECTOR ( 'NONE', #171, 39.37007874015748143 ) ;
#253 = DIMENSIONAL_EXPONENTS ( 1.000000000000000000, 0.000000000000000000, 0.000000000000000000, 0.000000000000000000, 0.000000000000000000, 0.000000000000000000, 0.000000000000000000 ) ;
#254 = EDGE_CURVE ( 'NONE', #105, #241, #46, .T. ) ;
#255 = CIRCLE ( 'NONE', #161, 0.1250000000000000000 ) ;
#256 = SURFACE_SIDE_STYLE ('',( #283 ) ) ;
#257 = DIRECTION ( 'NONE',  ( -1.000000000000000000, -8.164311994315687637E-17, 0.000000000000000000 ) ) ;
#258 = ORIENTED_EDGE ( 'NONE', *, *, #112, .T. ) ;
#259 = EDGE_LOOP ( 'NONE', ( #290, #189, #212, #81 ) ) ;
#260 = FILL_AREA_STYLE_COLOUR ( '', #180 ) ;
#261 = DIRECTION ( 'NONE',  ( -8.164311994315687637E-17, 1.000000000000000000, 0.000000000000000000 ) ) ;
#262 = LENGTH_MEASURE_WITH_UNIT ( LENGTH_MEASURE( 0.02539999999999999897 ), #160 );
#263 = MECHANICAL_DESIGN_GEOMETRIC_PRESENTATION_REPRESENTATION (  '', ( #102 ), #18 ) ;
#264 = CARTESIAN_POINT ( 'NONE',  ( 0.000000000000000000, 1.750000000000000000, 0.000000000000000000 ) ) ;
#265 = PRODUCT_DEFINITION_CONTEXT ( 'detailed design', #211, 'design' ) ;
#266 =( LENGTH_UNIT ( ) NAMED_UNIT ( * ) SI_UNIT ( $, .METRE. ) );
#267 = AXIS2_PLACEMENT_3D ( 'NONE', #148, #131, #248 ) ;
#268 = VERTEX_POINT ( 'NONE', #173 ) ;
#269 = DIRECTION ( 'NONE',  ( -8.164311994315687637E-17, 1.000000000000000000, -0.000000000000000000 ) ) ;
#270 = DIRECTION ( 'NONE',  ( 1.000000000000000000, 8.164311994315687637E-17, 0.000000000000000000 ) ) ;
#271 = EDGE_LOOP ( 'NONE', ( #78, #135 ) ) ;
#272 = SURFACE_STYLE_USAGE ( .BOTH. , #101 ) ;
#273 = UNCERTAINTY_MEASURE_WITH_UNIT (LENGTH_MEASURE( 1.000000000000000082E-05 ), #92, 'distance_accuracy_value', 'NONE');
#274 = CARTESIAN_POINT ( 'NONE',  ( 0.000000000000000000, 0.000000000000000000, 0.000000000000000000 ) ) ;
#275 = COLOUR_RGB ( '',1.000000000000000000, 0.000000000000000000, 0.000000000000000000 ) ;
#276 = PRODUCT_CONTEXT ( 'NONE', #62, 'mechanical' ) ;
#277 = MECHANICAL_DESIGN_GEOMETRIC_PRESENTATION_REPRESENTATION (  '', ( #23 ), #172 ) ;
#278 = DIMENSIONAL_EXPONENTS ( 1.000000000000000000, 0.000000000000000000, 0.000000000000000000, 0.000000000000000000, 0.000000000000000000, 0.000000000000000000, 0.000000000000000000 ) ;
#279 = CIRCLE ( 'NONE', #267, 0.1250000000000001943 ) ;
#280 = FILL_AREA_STYLE ('',( #174 ) ) ;
#281 = FILL_AREA_STYLE ('',( #157 ) ) ;
#282 = CARTESIAN_POINT ( 'NONE',  ( 1.530808498934191509E-17, 0.000000000000000000, 0.1250000000000000000 ) ) ;
#283 = SURFACE_STYLE_FILL_AREA ( #120 ) ;
#284 = CYLINDRICAL_SURFACE ( 'NONE', #221, 0.1250000000000000000 ) ;
#285 =( GEOMETRIC_REPRESENTATION_CONTEXT ( 3 ) GLOBAL_UNCERTAINTY_ASSIGNED_CONTEXT ( ( #52 ) ) GLOBAL_UNIT_ASSIGNED_CONTEXT ( ( #219, #84, #195 ) ) REPRESENTATION_CONTEXT ( 'NONE', 'WORKASPACE' ) );
#286 =( CONVERSION_BASED_UNIT ( 'INCH', #70 ) LENGTH_UNIT ( ) NAMED_UNIT ( #196 ) );
#287 = DIMENSIONAL_EXPONENTS ( 1.000000000000000000, 0.000000000000000000, 0.000000000000000000, 0.000000000000000000, 0.000000000000000000, 0.000000000000000000, 0.000000000000000000 ) ;
#288 = DIRECTION ( 'NONE',  ( -1.000000000000000000, 0.000000000000000000, 0.000000000000000000 ) ) ;
#289 = CARTESIAN_POINT ( 'NONE',  ( -1.836970198721029688E-16, 4.000000000000000000, 0.000000000000000000 ) ) ;
#290 = ORIENTED_EDGE ( 'NONE', *, *, #3, .F. ) ;
#291 = FACE_OUTER_BOUND ( 'NONE', #259, .T. ) ;
#292 = FACE_OUTER_BOUND ( 'NONE', #303, .T. ) ;
#293 = ORIENTED_EDGE ( 'NONE', *, *, #154, .F. ) ;
#294 = AXIS2_PLACEMENT_3D ( 'NONE', #213, #79, #270 ) ;
#295 =( CONVERSION_BASED_UNIT ( 'INCH', #239 ) LENGTH_UNIT ( ) NAMED_UNIT ( #253 ) );
#296 = EDGE_CURVE ( 'NONE', #237, #220, #279, .T. ) ;
#297 = CYLINDRICAL_SURFACE ( 'NONE', #2, 0.1250000000000001110 ) ;
#298 = UNCERTAINTY_MEASURE_WITH_UNIT (LENGTH_MEASURE( 1.000000000000000082E-05 ), #286, 'distance_accuracy_value', 'NONE');
#299 =( NAMED_UNIT ( * ) PLANE_ANGLE_UNIT ( ) SI_UNIT ( $, .RADIAN. ) );
#300 = DIRECTION ( 'NONE',  ( 1.000000000000000000, 0.000000000000000000, 0.000000000000000000 ) ) ;
#301 = PRODUCT_DEFINITION_SHAPE ( 'NONE', 'NONE',  #184 ) ;
#302 = DIRECTION ( 'NONE',  ( -0.000000000000000000, -1.000000000000000000, -0.000000000000000000 ) ) ;
#303 = EDGE_LOOP ( 'NONE', ( #234, #116 ) ) ;
#304 = SURFACE_SIDE_STYLE ('',( #44 ) ) ;
#305 = AXIS2_PLACEMENT_3D ( 'NONE', #95, #181, #177 ) ;
#306 = ORIENTED_EDGE ( 'NONE', *, *, #170, .F. ) ;
#307 = ORIENTED_EDGE ( 'NONE', *, *, #218, .T. ) ;
#308 = CYLINDRICAL_SURFACE ( 'NONE', #305, 0.1250000000000001110 ) ;
#309 = AXIS2_PLACEMENT_3D ( 'NONE', #264, #123, #17 ) ;
ENDSEC;
END-ISO-10303-21;
