ISO-10303-21;
HEADER;
FILE_DESCRIPTION (( 'STEP AP214' ),
    '1' );
FILE_NAME ('00585.STEP',
    '2023-06-22T14:11:39',
    ( '' ),
    ( '' ),
    'SwSTEP 2.0',
    'SolidWorks 2023',
    '' );
FILE_SCHEMA (( 'AUTOMOTIVE_DESIGN' ));
ENDSEC;

DATA;
#1 = SURFACE_SIDE_STYLE ('',( #119 ) ) ;
#2 = DIMENSIONAL_EXPONENTS ( 1.000000000000000000, 0.000000000000000000, 0.000000000000000000, 0.000000000000000000, 0.000000000000000000, 0.000000000000000000, 0.000000000000000000 ) ;
#3 = SURFACE_STYLE_USAGE ( .BOTH. , #63 ) ;
#4 = AXIS2_PLACEMENT_3D ( 'NONE', #31, #78, #27 ) ;
#5 =( NAMED_UNIT ( * ) PLANE_ANGLE_UNIT ( ) SI_UNIT ( $, .RADIAN. ) );
#6 = FACE_OUTER_BOUND ( 'NONE', #212, .T. ) ;
#7 = DIRECTION ( 'NONE',  ( 0.000000000000000000, 0.000000000000000000, -1.000000000000000000 ) ) ;
#8 =( LENGTH_UNIT ( ) NAMED_UNIT ( * ) SI_UNIT ( $, .METRE. ) );
#9 = PRESENTATION_LAYER_ASSIGNMENT (  '', '', ( #156 ) ) ;
#10 =( NAMED_UNIT ( * ) SI_UNIT ( $, .STERADIAN. ) SOLID_ANGLE_UNIT ( ) );
#11 = CARTESIAN_POINT ( 'NONE',  ( 0.000000000000000000, 0.000000000000000000, 0.000000000000000000 ) ) ;
#12 = FACE_OUTER_BOUND ( 'NONE', #36, .T. ) ;
#13 =( CONVERSION_BASED_UNIT ( 'INCH', #105 ) LENGTH_UNIT ( ) NAMED_UNIT ( #216 ) );
#14 =( GEOMETRIC_REPRESENTATION_CONTEXT ( 3 ) GLOBAL_UNCERTAINTY_ASSIGNED_CONTEXT ( ( #169 ) ) GLOBAL_UNIT_ASSIGNED_CONTEXT ( ( #41, #138, #238 ) ) REPRESENTATION_CONTEXT ( 'NONE', 'WORKASPACE' ) );
#15 = SURFACE_SIDE_STYLE ('',( #231 ) ) ;
#16 = DIRECTION ( 'NONE',  ( 1.000000000000000000, 3.265724797726275178E-17, 0.000000000000000000 ) ) ;
#17 =( CONVERSION_BASED_UNIT ( 'INCH', #291 ) LENGTH_UNIT ( ) NAMED_UNIT ( #285 ) );
#18 = DIRECTION ( 'NONE',  ( -3.265724797726275178E-17, 1.000000000000000000, -0.000000000000000000 ) ) ;
#19 = STYLED_ITEM ( 'NONE', ( #139 ), #135 ) ;
#20 = STYLED_ITEM ( 'NONE', ( #197 ), #258 ) ;
#21 = PRESENTATION_STYLE_ASSIGNMENT (( #3 ) ) ;
#22 = FILL_AREA_STYLE_COLOUR ( '', #30 ) ;
#23 = DIRECTION ( 'NONE',  ( 0.000000000000000000, 1.000000000000000000, 0.000000000000000000 ) ) ;
#24 = DIRECTION ( 'NONE',  ( -3.265724797726275178E-17, 1.000000000000000000, -0.000000000000000000 ) ) ;
#25 = DIRECTION ( 'NONE',  ( -3.265724797726275178E-17, 1.000000000000000000, -0.000000000000000000 ) ) ;
#26 = AXIS2_PLACEMENT_3D ( 'NONE', #99, #196, #275 ) ;
#27 = DIRECTION ( 'NONE',  ( 0.000000000000000000, 0.000000000000000000, -1.000000000000000000 ) ) ;
#28 = VECTOR ( 'NONE', #92, 39.37007874015748143 ) ;
#29 = CARTESIAN_POINT ( 'NONE',  ( 0.3125000000000000000, 2.125000000000000000, 3.827021247335478926E-17 ) ) ;
#30 = COLOUR_RGB ( '',1.000000000000000000, 0.000000000000000000, 0.000000000000000000 ) ;
#31 = CARTESIAN_POINT ( 'NONE',  ( 0.000000000000000000, 0.000000000000000000, 0.000000000000000000 ) ) ;
#32 = FILL_AREA_STYLE ('',( #22 ) ) ;
#33 = APPLICATION_CONTEXT ( 'automotive_design' ) ;
#34 =( NAMED_UNIT ( * ) SI_UNIT ( $, .STERADIAN. ) SOLID_ANGLE_UNIT ( ) );
#35 = FILL_AREA_STYLE ('',( #86 ) ) ;
#36 = EDGE_LOOP ( 'NONE', ( #252, #112 ) ) ;
#37 = SURFACE_STYLE_USAGE ( .BOTH. , #206 ) ;
#38 =( NAMED_UNIT ( * ) PLANE_ANGLE_UNIT ( ) SI_UNIT ( $, .RADIAN. ) );
#39 = MANIFOLD_SOLID_BREP ( 'Revolve - Cutting Edge', #82 ) ;
#40 = EDGE_CURVE ( 'NONE', #276, #106, #223, .T. ) ;
#41 =( CONVERSION_BASED_UNIT ( 'INCH', #261 ) LENGTH_UNIT ( ) NAMED_UNIT ( #309 ) );
#42 = MANIFOLD_SOLID_BREP ( 'Revolve - Tool Body (Straight Shanked)', #64 ) ;
#43 = PLANE ( 'NONE',  #76 ) ;
#44 = MECHANICAL_DESIGN_GEOMETRIC_PRESENTATION_REPRESENTATION (  '', ( #20 ), #59 ) ;
#45 = PLANE ( 'NONE',  #126 ) ;
#46 =( NAMED_UNIT ( * ) SI_UNIT ( $, .STERADIAN. ) SOLID_ANGLE_UNIT ( ) );
#47 = DIRECTION ( 'NONE',  ( -1.000000000000000000, 0.000000000000000000, 0.000000000000000000 ) ) ;
#48 = FACE_OUTER_BOUND ( 'NONE', #90, .T. ) ;
#49 = PLANE ( 'NONE',  #167 ) ;
#50 = APPLICATION_PROTOCOL_DEFINITION ( 'draft international standard', 'automotive_design', 1998, #33 ) ;
#51 = CIRCLE ( 'NONE', #230, 0.3125000000000000000 ) ;
#52 =( LENGTH_UNIT ( ) NAMED_UNIT ( * ) SI_UNIT ( $, .METRE. ) );
#53 = DIRECTION ( 'NONE',  ( -3.265724797726275178E-17, 1.000000000000000000, -0.000000000000000000 ) ) ;
#54 = EDGE_LOOP ( 'NONE', ( #104, #279, #180, #255 ) ) ;
#55 = AXIS2_PLACEMENT_3D ( 'NONE', #265, #53, #47 ) ;
#56 = VERTEX_POINT ( 'NONE', #284 ) ;
#57 =( CONVERSION_BASED_UNIT ( 'INCH', #186 ) LENGTH_UNIT ( ) NAMED_UNIT ( #62 ) );
#58 =( NAMED_UNIT ( * ) SI_UNIT ( $, .STERADIAN. ) SOLID_ANGLE_UNIT ( ) );
#59 =( GEOMETRIC_REPRESENTATION_CONTEXT ( 3 ) GLOBAL_UNCERTAINTY_ASSIGNED_CONTEXT ( ( #273 ) ) GLOBAL_UNIT_ASSIGNED_CONTEXT ( ( #269, #124, #46 ) ) REPRESENTATION_CONTEXT ( 'NONE', 'WORKASPACE' ) );
#60 = EDGE_CURVE ( 'NONE', #280, #109, #134, .T. ) ;
#61 = CARTESIAN_POINT ( 'NONE',  ( 0.3124999999999999445, 4.000000000000000000, 3.827021247335478926E-17 ) ) ;
#62 = DIMENSIONAL_EXPONENTS ( 1.000000000000000000, 0.000000000000000000, 0.000000000000000000, 0.000000000000000000, 0.000000000000000000, 0.000000000000000000, 0.000000000000000000 ) ;
#63 = SURFACE_SIDE_STYLE ('',( #69 ) ) ;
#64 = CLOSED_SHELL ( 'NONE', ( #250, #97, #217, #91 ) ) ;
#65 = CIRCLE ( 'NONE', #190, 0.3125000000000000000 ) ;
#66 = CIRCLE ( 'NONE', #151, 0.3125000000000000555 ) ;
#67 = DIRECTION ( 'NONE',  ( 0.000000000000000000, 0.000000000000000000, -1.000000000000000000 ) ) ;
#68 = EDGE_CURVE ( 'NONE', #276, #152, #117, .T. ) ;
#69 = SURFACE_STYLE_FILL_AREA ( #259 ) ;
#70 = SURFACE_STYLE_FILL_AREA ( #32 ) ;
#71 = FILL_AREA_STYLE_COLOUR ( '', #84 ) ;
#72 = CYLINDRICAL_SURFACE ( 'NONE', #253, 0.3125000000000000000 ) ;
#73 = LENGTH_MEASURE_WITH_UNIT ( LENGTH_MEASURE( 0.02539999999999999897 ), #144 );
#74 = FILL_AREA_STYLE ('',( #171 ) ) ;
#75 = SURFACE_STYLE_USAGE ( .BOTH. , #205 ) ;
#76 = AXIS2_PLACEMENT_3D ( 'NONE', #290, #161, #165 ) ;
#77 = LENGTH_MEASURE_WITH_UNIT ( LENGTH_MEASURE( 0.02539999999999999897 ), #52 );
#78 = DIRECTION ( 'NONE',  ( -0.000000000000000000, -1.000000000000000000, -0.000000000000000000 ) ) ;
#79 = ORIENTED_EDGE ( 'NONE', *, *, #181, .F. ) ;
#80 = CARTESIAN_POINT ( 'NONE',  ( 0.000000000000000000, 0.000000000000000000, 0.000000000000000000 ) ) ;
#81 = ORIENTED_EDGE ( 'NONE', *, *, #254, .T. ) ;
#82 = CLOSED_SHELL ( 'NONE', ( #258, #194, #135, #122 ) ) ;
#83 = VERTEX_POINT ( 'NONE', #94 ) ;
#84 = COLOUR_RGB ( '',1.000000000000000000, 0.000000000000000000, 0.000000000000000000 ) ;
#85 = ORIENTED_EDGE ( 'NONE', *, *, #60, .T. ) ;
#86 = FILL_AREA_STYLE_COLOUR ( '', #172 ) ;
#87 = ORIENTED_EDGE ( 'NONE', *, *, #232, .T. ) ;
#88 = DIMENSIONAL_EXPONENTS ( 1.000000000000000000, 0.000000000000000000, 0.000000000000000000, 0.000000000000000000, 0.000000000000000000, 0.000000000000000000, 0.000000000000000000 ) ;
#89 = ORIENTED_EDGE ( 'NONE', *, *, #241, .F. ) ;
#90 = EDGE_LOOP ( 'NONE', ( #81, #210, #185, #132 ) ) ;
#91 = ADVANCED_FACE ( 'NONE', ( #236 ), #45, .F. ) ;
#92 = DIRECTION ( 'NONE',  ( -0.000000000000000000, -1.000000000000000000, -0.000000000000000000 ) ) ;
#93 = CIRCLE ( 'NONE', #4, 0.3125000000000000000 ) ;
#94 = CARTESIAN_POINT ( 'NONE',  ( 3.827021247335478926E-17, 0.000000000000000000, 0.3125000000000000000 ) ) ;
#95 = DIRECTION ( 'NONE',  ( -3.265724797726275178E-17, 1.000000000000000000, -0.000000000000000000 ) ) ;
#96 = DIRECTION ( 'NONE',  ( -0.000000000000000000, -1.000000000000000000, -0.000000000000000000 ) ) ;
#97 = ADVANCED_FACE ( 'NONE', ( #6 ), #43, .F. ) ;
#98 = UNCERTAINTY_MEASURE_WITH_UNIT (LENGTH_MEASURE( 1.000000000000000082E-05 ), #57, 'distance_accuracy_value', 'NONE');
#99 = CARTESIAN_POINT ( 'NONE',  ( 0.000000000000000000, 0.000000000000000000, 0.000000000000000000 ) ) ;
#100 = DIRECTION ( 'NONE',  ( 0.000000000000000000, 0.000000000000000000, -1.000000000000000000 ) ) ;
#101 = FACE_OUTER_BOUND ( 'NONE', #54, .T. ) ;
#102 =( GEOMETRIC_REPRESENTATION_CONTEXT ( 3 ) GLOBAL_UNCERTAINTY_ASSIGNED_CONTEXT ( ( #201 ) ) GLOBAL_UNIT_ASSIGNED_CONTEXT ( ( #17, #5, #10 ) ) REPRESENTATION_CONTEXT ( 'NONE', 'WORKASPACE' ) );
#103 = PRODUCT_DEFINITION_CONTEXT ( 'detailed design', #154, 'design' ) ;
#104 = ORIENTED_EDGE ( 'NONE', *, *, #248, .T. ) ;
#105 = LENGTH_MEASURE_WITH_UNIT ( LENGTH_MEASURE( 0.02539999999999999897 ), #136 );
#106 = VERTEX_POINT ( 'NONE', #160 ) ;
#107 = ORIENTED_EDGE ( 'NONE', *, *, #40, .T. ) ;
#108 = VECTOR ( 'NONE', #95, 39.37007874015748143 ) ;
#109 = VERTEX_POINT ( 'NONE', #140 ) ;
#110 = SURFACE_STYLE_USAGE ( .BOTH. , #15 ) ;
#111 = ORIENTED_EDGE ( 'NONE', *, *, #40, .F. ) ;
#112 = ORIENTED_EDGE ( 'NONE', *, *, #176, .F. ) ;
#113 = ADVANCED_BREP_SHAPE_REPRESENTATION ( '00585', ( #39, #42, #306 ), #246 ) ;
#114 = SURFACE_STYLE_USAGE ( .BOTH. , #1 ) ;
#115 = AXIS2_PLACEMENT_3D ( 'NONE', #219, #289, #67 ) ;
#116 = PRESENTATION_LAYER_ASSIGNMENT (  '', '', ( #20 ) ) ;
#117 = LINE ( 'NONE', #61, #108 ) ;
#118 = DIRECTION ( 'NONE',  ( 3.265724797726275178E-17, -1.000000000000000000, 0.000000000000000000 ) ) ;
#119 = SURFACE_STYLE_FILL_AREA ( #287 ) ;
#120 =( GEOMETRIC_REPRESENTATION_CONTEXT ( 3 ) GLOBAL_UNCERTAINTY_ASSIGNED_CONTEXT ( ( #98 ) ) GLOBAL_UNIT_ASSIGNED_CONTEXT ( ( #57, #38, #58 ) ) REPRESENTATION_CONTEXT ( 'NONE', 'WORKASPACE' ) );
#121 = CYLINDRICAL_SURFACE ( 'NONE', #26, 0.3125000000000000000 ) ;
#122 = ADVANCED_FACE ( 'NONE', ( #215 ), #191, .T. ) ;
#123 = CARTESIAN_POINT ( 'NONE',  ( -6.123233995736766036E-17, 4.000000000000000000, 0.000000000000000000 ) ) ;
#124 =( NAMED_UNIT ( * ) PLANE_ANGLE_UNIT ( ) SI_UNIT ( $, .RADIAN. ) );
#125 = DIRECTION ( 'NONE',  ( -1.000000000000000000, 0.000000000000000000, 0.000000000000000000 ) ) ;
#126 = AXIS2_PLACEMENT_3D ( 'NONE', #193, #118, #16 ) ;
#127 = PRODUCT ( '00585', '00585', '', ( #300 ) ) ;
#128 = DIRECTION ( 'NONE',  ( -1.000000000000000000, 0.000000000000000000, 0.000000000000000000 ) ) ;
#129 = LINE ( 'NONE', #272, #278 ) ;
#130 =( GEOMETRIC_REPRESENTATION_CONTEXT ( 3 ) GLOBAL_UNCERTAINTY_ASSIGNED_CONTEXT ( ( #204 ) ) GLOBAL_UNIT_ASSIGNED_CONTEXT ( ( #292, #146, #247 ) ) REPRESENTATION_CONTEXT ( 'NONE', 'WORKASPACE' ) );
#131 = DIRECTION ( 'NONE',  ( 1.000000000000000000, 0.000000000000000000, 0.000000000000000000 ) ) ;
#132 = ORIENTED_EDGE ( 'NONE', *, *, #60, .F. ) ;
#133 = PRESENTATION_LAYER_ASSIGNMENT (  '', '', ( #19 ) ) ;
#134 = LINE ( 'NONE', #163, #28 ) ;
#135 = ADVANCED_FACE ( 'NONE', ( #262 ), #121, .T. ) ;
#136 =( LENGTH_UNIT ( ) NAMED_UNIT ( * ) SI_UNIT ( $, .METRE. ) );
#137 = STYLED_ITEM ( 'NONE', ( #307 ), #42 ) ;
#138 =( NAMED_UNIT ( * ) PLANE_ANGLE_UNIT ( ) SI_UNIT ( $, .RADIAN. ) );
#139 = PRESENTATION_STYLE_ASSIGNMENT (( #114 ) ) ;
#140 = CARTESIAN_POINT ( 'NONE',  ( 0.000000000000000000, 0.000000000000000000, -0.3125000000000000000 ) ) ;
#141 = PRESENTATION_STYLE_ASSIGNMENT (( #75 ) ) ;
#142 = SURFACE_SIDE_STYLE ('',( #70 ) ) ;
#143 = DIRECTION ( 'NONE',  ( -0.000000000000000000, -1.000000000000000000, -0.000000000000000000 ) ) ;
#144 =( LENGTH_UNIT ( ) NAMED_UNIT ( * ) SI_UNIT ( $, .METRE. ) );
#145 = MECHANICAL_DESIGN_GEOMETRIC_PRESENTATION_REPRESENTATION (  '', ( #156 ), #120 ) ;
#146 =( NAMED_UNIT ( * ) PLANE_ANGLE_UNIT ( ) SI_UNIT ( $, .RADIAN. ) );
#147 = CYLINDRICAL_SURFACE ( 'NONE', #260, 0.3125000000000000000 ) ;
#148 = CARTESIAN_POINT ( 'NONE',  ( -6.123233995736766036E-17, 4.000000000000000000, 0.000000000000000000 ) ) ;
#149 = UNCERTAINTY_MEASURE_WITH_UNIT (LENGTH_MEASURE( 1.000000000000000082E-05 ), #294, 'distance_accuracy_value', 'NONE');
#150 = STYLED_ITEM ( 'NONE', ( #21 ), #122 ) ;
#151 = AXIS2_PLACEMENT_3D ( 'NONE', #249, #24, #125 ) ;
#152 = VERTEX_POINT ( 'NONE', #226 ) ;
#153 = PRESENTATION_STYLE_ASSIGNMENT (( #37 ) ) ;
#154 = APPLICATION_CONTEXT ( 'automotive_design' ) ;
#155 = DIRECTION ( 'NONE',  ( -1.000000000000000000, 0.000000000000000000, 0.000000000000000000 ) ) ;
#156 = STYLED_ITEM ( 'NONE', ( #153 ), #39 ) ;
#157 = PRODUCT_DEFINITION_FORMATION_WITH_SPECIFIED_SOURCE ( 'ANY', '', #127, .NOT_KNOWN. ) ;
#158 = DIMENSIONAL_EXPONENTS ( 1.000000000000000000, 0.000000000000000000, 0.000000000000000000, 0.000000000000000000, 0.000000000000000000, 0.000000000000000000, 0.000000000000000000 ) ;
#159 = DIRECTION ( 'NONE',  ( -0.000000000000000000, -1.000000000000000000, -0.000000000000000000 ) ) ;
#160 = CARTESIAN_POINT ( 'NONE',  ( -0.3125000000000000000, 2.125000000000000000, 0.000000000000000000 ) ) ;
#161 = DIRECTION ( 'NONE',  ( -3.265724797726275178E-17, 1.000000000000000000, 0.000000000000000000 ) ) ;
#162 = AXIS2_PLACEMENT_3D ( 'NONE', #304, #184, #155 ) ;
#163 = CARTESIAN_POINT ( 'NONE',  ( 0.000000000000000000, 0.000000000000000000, -0.3125000000000000000 ) ) ;
#164 = LENGTH_MEASURE_WITH_UNIT ( LENGTH_MEASURE( 0.02539999999999999897 ), #8 );
#165 = DIRECTION ( 'NONE',  ( -1.000000000000000000, -3.265724797726275178E-17, 0.000000000000000000 ) ) ;
#166 =( NAMED_UNIT ( * ) SI_UNIT ( $, .STERADIAN. ) SOLID_ANGLE_UNIT ( ) );
#167 = AXIS2_PLACEMENT_3D ( 'NONE', #298, #23, #224 ) ;
#168 = DIRECTION ( 'NONE',  ( 0.000000000000000000, 0.000000000000000000, -1.000000000000000000 ) ) ;
#169 = UNCERTAINTY_MEASURE_WITH_UNIT (LENGTH_MEASURE( 1.000000000000000082E-05 ), #41, 'distance_accuracy_value', 'NONE');
#170 = DIRECTION ( 'NONE',  ( 0.000000000000000000, 0.000000000000000000, -1.000000000000000000 ) ) ;
#171 = FILL_AREA_STYLE_COLOUR ( '', #270 ) ;
#172 = COLOUR_RGB ( '',0.7921568627450980005, 0.8196078431372548767, 0.9333333333333333481 ) ;
#173 = PRESENTATION_LAYER_ASSIGNMENT (  '', '', ( #150 ) ) ;
#174 = CYLINDRICAL_SURFACE ( 'NONE', #245, 0.3125000000000000000 ) ;
#175 = SHAPE_DEFINITION_REPRESENTATION ( #267, #113 ) ;
#176 = EDGE_CURVE ( 'NONE', #56, #280, #51, .T. ) ;
#177 = ORIENTED_EDGE ( 'NONE', *, *, #264, .T. ) ;
#178 =( LENGTH_UNIT ( ) NAMED_UNIT ( * ) SI_UNIT ( $, .METRE. ) );
#179 = ORIENTED_EDGE ( 'NONE', *, *, #68, .F. ) ;
#180 = ORIENTED_EDGE ( 'NONE', *, *, #264, .F. ) ;
#181 = EDGE_CURVE ( 'NONE', #56, #83, #129, .T. ) ;
#182 = EDGE_LOOP ( 'NONE', ( #87, #229 ) ) ;
#183 = EDGE_CURVE ( 'NONE', #83, #109, #93, .T. ) ;
#184 = DIRECTION ( 'NONE',  ( -3.265724797726275178E-17, 1.000000000000000000, -0.000000000000000000 ) ) ;
#185 = ORIENTED_EDGE ( 'NONE', *, *, #232, .F. ) ;
#186 = LENGTH_MEASURE_WITH_UNIT ( LENGTH_MEASURE( 0.02539999999999999897 ), #178 );
#187 = VERTEX_POINT ( 'NONE', #299 ) ;
#188 = STYLED_ITEM ( 'NONE', ( #141 ), #194 ) ;
#189 = FILL_AREA_STYLE ('',( #257 ) ) ;
#190 = AXIS2_PLACEMENT_3D ( 'NONE', #195, #159, #170 ) ;
#191 = PLANE ( 'NONE',  #115 ) ;
#192 = PRODUCT_RELATED_PRODUCT_CATEGORY ( 'part', '', ( #127 ) ) ;
#193 = CARTESIAN_POINT ( 'NONE',  ( 0.3125000000000000000, 4.000000000000000000, 0.000000000000000000 ) ) ;
#194 = ADVANCED_FACE ( 'NONE', ( #12 ), #49, .T. ) ;
#195 = CARTESIAN_POINT ( 'NONE',  ( 0.000000000000000000, 2.125000000000000000, 0.000000000000000000 ) ) ;
#196 = DIRECTION ( 'NONE',  ( -0.000000000000000000, -1.000000000000000000, -0.000000000000000000 ) ) ;
#197 = PRESENTATION_STYLE_ASSIGNMENT (( #243 ) ) ;
#198 = CIRCLE ( 'NONE', #55, 0.3125000000000000555 ) ;
#199 = FACE_OUTER_BOUND ( 'NONE', #233, .T. ) ;
#200 = CARTESIAN_POINT ( 'NONE',  ( 0.000000000000000000, 0.000000000000000000, 0.000000000000000000 ) ) ;
#201 = UNCERTAINTY_MEASURE_WITH_UNIT (LENGTH_MEASURE( 1.000000000000000082E-05 ), #17, 'distance_accuracy_value', 'NONE');
#202 = CARTESIAN_POINT ( 'NONE',  ( 0.000000000000000000, 2.125000000000000000, 0.000000000000000000 ) ) ;
#203 = MECHANICAL_DESIGN_GEOMETRIC_PRESENTATION_REPRESENTATION (  '', ( #19 ), #102 ) ;
#204 = UNCERTAINTY_MEASURE_WITH_UNIT (LENGTH_MEASURE( 1.000000000000000082E-05 ), #292, 'distance_accuracy_value', 'NONE');
#205 = SURFACE_SIDE_STYLE ('',( #268 ) ) ;
#206 = SURFACE_SIDE_STYLE ('',( #211 ) ) ;
#207 = ORIENTED_EDGE ( 'NONE', *, *, #241, .T. ) ;
#208 = ORIENTED_EDGE ( 'NONE', *, *, #248, .F. ) ;
#209 = CIRCLE ( 'NONE', #234, 0.3125000000000000000 ) ;
#210 = ORIENTED_EDGE ( 'NONE', *, *, #181, .T. ) ;
#211 = SURFACE_STYLE_FILL_AREA ( #35 ) ;
#212 = EDGE_LOOP ( 'NONE', ( #208, #111 ) ) ;
#213 =( NAMED_UNIT ( * ) PLANE_ANGLE_UNIT ( ) SI_UNIT ( $, .RADIAN. ) );
#214 = CIRCLE ( 'NONE', #293, 0.3125000000000000000 ) ;
#215 = FACE_OUTER_BOUND ( 'NONE', #182, .T. ) ;
#216 = DIMENSIONAL_EXPONENTS ( 1.000000000000000000, 0.000000000000000000, 0.000000000000000000, 0.000000000000000000, 0.000000000000000000, 0.000000000000000000, 0.000000000000000000 ) ;
#217 = ADVANCED_FACE ( 'NONE', ( #199 ), #72, .T. ) ;
#218 =( LENGTH_UNIT ( ) NAMED_UNIT ( * ) SI_UNIT ( $, .METRE. ) );
#219 = CARTESIAN_POINT ( 'NONE',  ( 0.000000000000000000, 0.000000000000000000, 0.000000000000000000 ) ) ;
#220 = CARTESIAN_POINT ( 'NONE',  ( -0.3125000000000000555, 4.000000000000000000, 0.000000000000000000 ) ) ;
#221 = DIRECTION ( 'NONE',  ( -0.000000000000000000, -1.000000000000000000, -0.000000000000000000 ) ) ;
#222 = DIRECTION ( 'NONE',  ( -3.265724797726275178E-17, 1.000000000000000000, -0.000000000000000000 ) ) ;
#223 = CIRCLE ( 'NONE', #162, 0.3125000000000000000 ) ;
#224 = DIRECTION ( 'NONE',  ( 0.000000000000000000, -0.000000000000000000, 1.000000000000000000 ) ) ;
#225 = LINE ( 'NONE', #220, #271 ) ;
#226 = CARTESIAN_POINT ( 'NONE',  ( 0.3125000000000000000, 4.000000000000000000, 3.827021247335478926E-17 ) ) ;
#227 = DIRECTION ( 'NONE',  ( 0.000000000000000000, 0.000000000000000000, 1.000000000000000000 ) ) ;
#228 = COLOUR_RGB ( '',1.000000000000000000, 0.000000000000000000, 0.000000000000000000 ) ;
#229 = ORIENTED_EDGE ( 'NONE', *, *, #183, .T. ) ;
#230 = AXIS2_PLACEMENT_3D ( 'NONE', #202, #96, #7 ) ;
#231 = SURFACE_STYLE_FILL_AREA ( #189 ) ;
#232 = EDGE_CURVE ( 'NONE', #109, #83, #214, .T. ) ;
#233 = EDGE_LOOP ( 'NONE', ( #179, #107, #277, #89 ) ) ;
#234 = AXIS2_PLACEMENT_3D ( 'NONE', #244, #25, #128 ) ;
#235 =( LENGTH_UNIT ( ) NAMED_UNIT ( * ) SI_UNIT ( $, .METRE. ) );
#236 = FACE_OUTER_BOUND ( 'NONE', #281, .T. ) ;
#237 = FILL_AREA_STYLE_COLOUR ( '', #228 ) ;
#238 =( NAMED_UNIT ( * ) SI_UNIT ( $, .STERADIAN. ) SOLID_ANGLE_UNIT ( ) );
#239 = PRESENTATION_LAYER_ASSIGNMENT (  '', '', ( #137 ) ) ;
#240 = DIRECTION ( 'NONE',  ( -0.000000000000000000, -1.000000000000000000, -0.000000000000000000 ) ) ;
#241 = EDGE_CURVE ( 'NONE', #152, #187, #198, .T. ) ;
#242 = CARTESIAN_POINT ( 'NONE',  ( 0.000000000000000000, 2.125000000000000000, -0.3125000000000000000 ) ) ;
#243 = SURFACE_STYLE_USAGE ( .BOTH. , #142 ) ;
#244 = CARTESIAN_POINT ( 'NONE',  ( 0.000000000000000000, 2.125000000000000000, 0.000000000000000000 ) ) ;
#245 = AXIS2_PLACEMENT_3D ( 'NONE', #148, #18, #286 ) ;
#246 =( GEOMETRIC_REPRESENTATION_CONTEXT ( 3 ) GLOBAL_UNCERTAINTY_ASSIGNED_CONTEXT ( ( #149 ) ) GLOBAL_UNIT_ASSIGNED_CONTEXT ( ( #294, #266, #166 ) ) REPRESENTATION_CONTEXT ( 'NONE', 'WORKASPACE' ) );
#247 =( NAMED_UNIT ( * ) SI_UNIT ( $, .STERADIAN. ) SOLID_ANGLE_UNIT ( ) );
#248 = EDGE_CURVE ( 'NONE', #106, #276, #209, .T. ) ;
#249 = CARTESIAN_POINT ( 'NONE',  ( -6.123233995736766036E-17, 4.000000000000000000, 0.000000000000000000 ) ) ;
#250 = ADVANCED_FACE ( 'NONE', ( #101 ), #174, .T. ) ;
#251 = DIRECTION ( 'NONE',  ( -1.000000000000000000, 0.000000000000000000, 0.000000000000000000 ) ) ;
#252 = ORIENTED_EDGE ( 'NONE', *, *, #254, .F. ) ;
#253 = AXIS2_PLACEMENT_3D ( 'NONE', #123, #296, #251 ) ;
#254 = EDGE_CURVE ( 'NONE', #280, #56, #65, .T. ) ;
#255 = ORIENTED_EDGE ( 'NONE', *, *, #303, .F. ) ;
#256 = MECHANICAL_DESIGN_GEOMETRIC_PRESENTATION_REPRESENTATION (  '', ( #137 ), #301 ) ;
#257 = FILL_AREA_STYLE_COLOUR ( '', #305 ) ;
#258 = ADVANCED_FACE ( 'NONE', ( #48 ), #147, .T. ) ;
#259 = FILL_AREA_STYLE ('',( #71 ) ) ;
#260 = AXIS2_PLACEMENT_3D ( 'NONE', #200, #240, #100 ) ;
#261 = LENGTH_MEASURE_WITH_UNIT ( LENGTH_MEASURE( 0.02539999999999999897 ), #218 );
#262 = FACE_OUTER_BOUND ( 'NONE', #308, .T. ) ;
#263 = PRESENTATION_LAYER_ASSIGNMENT (  '', '', ( #188 ) ) ;
#264 = EDGE_CURVE ( 'NONE', #187, #152, #66, .T. ) ;
#265 = CARTESIAN_POINT ( 'NONE',  ( -6.123233995736766036E-17, 4.000000000000000000, 0.000000000000000000 ) ) ;
#266 =( NAMED_UNIT ( * ) PLANE_ANGLE_UNIT ( ) SI_UNIT ( $, .RADIAN. ) );
#267 = PRODUCT_DEFINITION_SHAPE ( 'NONE', 'NONE',  #297 ) ;
#268 = SURFACE_STYLE_FILL_AREA ( #74 ) ;
#269 =( CONVERSION_BASED_UNIT ( 'INCH', #73 ) LENGTH_UNIT ( ) NAMED_UNIT ( #88 ) );
#270 = COLOUR_RGB ( '',1.000000000000000000, 0.000000000000000000, 0.000000000000000000 ) ;
#271 = VECTOR ( 'NONE', #222, 39.37007874015748143 ) ;
#272 = CARTESIAN_POINT ( 'NONE',  ( 3.827021247335478926E-17, 0.000000000000000000, 0.3125000000000000000 ) ) ;
#273 = UNCERTAINTY_MEASURE_WITH_UNIT (LENGTH_MEASURE( 1.000000000000000082E-05 ), #269, 'distance_accuracy_value', 'NONE');
#274 = ORIENTED_EDGE ( 'NONE', *, *, #183, .F. ) ;
#275 = DIRECTION ( 'NONE',  ( 0.000000000000000000, 0.000000000000000000, -1.000000000000000000 ) ) ;
#276 = VERTEX_POINT ( 'NONE', #29 ) ;
#277 = ORIENTED_EDGE ( 'NONE', *, *, #303, .T. ) ;
#278 = VECTOR ( 'NONE', #221, 39.37007874015748143 ) ;
#279 = ORIENTED_EDGE ( 'NONE', *, *, #68, .T. ) ;
#280 = VERTEX_POINT ( 'NONE', #242 ) ;
#281 = EDGE_LOOP ( 'NONE', ( #177, #207 ) ) ;
#282 = ORIENTED_EDGE ( 'NONE', *, *, #176, .T. ) ;
#283 = MECHANICAL_DESIGN_GEOMETRIC_PRESENTATION_REPRESENTATION (  '', ( #188 ), #130 ) ;
#284 = CARTESIAN_POINT ( 'NONE',  ( 3.827021247335478926E-17, 2.125000000000000000, 0.3125000000000000000 ) ) ;
#285 = DIMENSIONAL_EXPONENTS ( 1.000000000000000000, 0.000000000000000000, 0.000000000000000000, 0.000000000000000000, 0.000000000000000000, 0.000000000000000000, 0.000000000000000000 ) ;
#286 = DIRECTION ( 'NONE',  ( -1.000000000000000000, 0.000000000000000000, 0.000000000000000000 ) ) ;
#287 = FILL_AREA_STYLE ('',( #237 ) ) ;
#288 = MECHANICAL_DESIGN_GEOMETRIC_PRESENTATION_REPRESENTATION (  '', ( #150 ), #14 ) ;
#289 = DIRECTION ( 'NONE',  ( 0.000000000000000000, -1.000000000000000000, -0.000000000000000000 ) ) ;
#290 = CARTESIAN_POINT ( 'NONE',  ( 1.666399758513175262E-34, 2.125000000000000000, 0.000000000000000000 ) ) ;
#291 = LENGTH_MEASURE_WITH_UNIT ( LENGTH_MEASURE( 0.02539999999999999897 ), #235 );
#292 =( CONVERSION_BASED_UNIT ( 'INCH', #77 ) LENGTH_UNIT ( ) NAMED_UNIT ( #2 ) );
#293 = AXIS2_PLACEMENT_3D ( 'NONE', #11, #143, #168 ) ;
#294 =( CONVERSION_BASED_UNIT ( 'INCH', #164 ) LENGTH_UNIT ( ) NAMED_UNIT ( #158 ) );
#295 = UNCERTAINTY_MEASURE_WITH_UNIT (LENGTH_MEASURE( 1.000000000000000082E-05 ), #13, 'distance_accuracy_value', 'NONE');
#296 = DIRECTION ( 'NONE',  ( -3.265724797726275178E-17, 1.000000000000000000, -0.000000000000000000 ) ) ;
#297 = PRODUCT_DEFINITION ( 'UNKNOWN', '', #157, #103 ) ;
#298 = CARTESIAN_POINT ( 'NONE',  ( 0.000000000000000000, 2.125000000000000000, 0.000000000000000000 ) ) ;
#299 = CARTESIAN_POINT ( 'NONE',  ( -0.3125000000000001665, 4.000000000000000000, 0.000000000000000000 ) ) ;
#300 = PRODUCT_CONTEXT ( 'NONE', #33, 'mechanical' ) ;
#301 =( GEOMETRIC_REPRESENTATION_CONTEXT ( 3 ) GLOBAL_UNCERTAINTY_ASSIGNED_CONTEXT ( ( #295 ) ) GLOBAL_UNIT_ASSIGNED_CONTEXT ( ( #13, #213, #34 ) ) REPRESENTATION_CONTEXT ( 'NONE', 'WORKASPACE' ) );
#302 = APPLICATION_PROTOCOL_DEFINITION ( 'draft international standard', 'automotive_design', 1998, #154 ) ;
#303 = EDGE_CURVE ( 'NONE', #106, #187, #225, .T. ) ;
#304 = CARTESIAN_POINT ( 'NONE',  ( 0.000000000000000000, 2.125000000000000000, 0.000000000000000000 ) ) ;
#305 = COLOUR_RGB ( '',0.7921568627450980005, 0.8196078431372548767, 0.9333333333333333481 ) ;
#306 = AXIS2_PLACEMENT_3D ( 'NONE', #80, #227, #131 ) ;
#307 = PRESENTATION_STYLE_ASSIGNMENT (( #110 ) ) ;
#308 = EDGE_LOOP ( 'NONE', ( #79, #282, #85, #274 ) ) ;
#309 = DIMENSIONAL_EXPONENTS ( 1.000000000000000000, 0.000000000000000000, 0.000000000000000000, 0.000000000000000000, 0.000000000000000000, 0.000000000000000000, 0.000000000000000000 ) ;
ENDSEC;
END-ISO-10303-21;
