ISO-10303-21;
HEADER;
FILE_DESCRIPTION (( 'STEP AP214' ),
    '1' );
FILE_NAME ('59441.STEP',
    '2023-06-30T22:16:46',
    ( '' ),
    ( '' ),
    'SwSTEP 2.0',
    'SolidWorks 2023',
    '' );
FILE_SCHEMA (( 'AUTOMOTIVE_DESIGN' ));
ENDSEC;

DATA;
#1 = AXIS2_PLACEMENT_3D ( 'NONE', #72, #198, #292 ) ;
#2 = VECTOR ( 'NONE', #168, 39.37007874015748143 ) ;
#3 = SURFACE_STYLE_FILL_AREA ( #6 ) ;
#4 = EDGE_CURVE ( 'NONE', #218, #117, #42, .T. ) ;
#5 =( CONVERSION_BASED_UNIT ( 'INCH', #145 ) LENGTH_UNIT ( ) NAMED_UNIT ( #139 ) );
#6 = FILL_AREA_STYLE ('',( #143 ) ) ;
#7 = ORIENTED_EDGE ( 'NONE', *, *, #314, .T. ) ;
#8 = AXIS2_PLACEMENT_3D ( 'NONE', #372, #63, #343 ) ;
#9 = AXIS2_PLACEMENT_3D ( 'NONE', #334, #242, #312 ) ;
#10 = VERTEX_POINT ( 'NONE', #100 ) ;
#11 = EDGE_LOOP ( 'NONE', ( #15, #330 ) ) ;
#12 = CARTESIAN_POINT ( 'NONE',  ( -1.913510623667739463E-17, 0.1562500000000000000, 0.000000000000000000 ) ) ;
#13 = PRODUCT_DEFINITION ( 'UNKNOWN', '', #173, #260 ) ;
#14 = AXIS2_PLACEMENT_3D ( 'NONE', #12, #345, #92 ) ;
#15 = ORIENTED_EDGE ( 'NONE', *, *, #212, .F. ) ;
#16 = DIRECTION ( 'NONE',  ( 1.000000000000000000, 0.000000000000000000, 0.000000000000000000 ) ) ;
#17 = CARTESIAN_POINT ( 'NONE',  ( 0.000000000000000000, 0.000000000000000000, -0.1562499999999999445 ) ) ;
#18 = VERTEX_POINT ( 'NONE', #74 ) ;
#19 = VERTEX_POINT ( 'NONE', #240 ) ;
#20 =( NAMED_UNIT ( * ) SI_UNIT ( $, .STERADIAN. ) SOLID_ANGLE_UNIT ( ) );
#21 = CIRCLE ( 'NONE', #335, 0.1562499999999996947 ) ;
#22 = FILL_AREA_STYLE_COLOUR ( '', #35 ) ;
#23 = FACE_OUTER_BOUND ( 'NONE', #158, .T. ) ;
#24 =( LENGTH_UNIT ( ) NAMED_UNIT ( * ) SI_UNIT ( $, .METRE. ) );
#25 = UNCERTAINTY_MEASURE_WITH_UNIT (LENGTH_MEASURE( 1.000000000000000082E-05 ), #293, 'distance_accuracy_value', 'NONE');
#26 = ADVANCED_FACE ( 'NONE', ( #54 ), #311, .T. ) ;
#27 = SURFACE_STYLE_USAGE ( .BOTH. , #112 ) ;
#28 = CIRCLE ( 'NONE', #61, 0.1562499999999999445 ) ;
#29 = DIMENSIONAL_EXPONENTS ( 1.000000000000000000, 0.000000000000000000, 0.000000000000000000, 0.000000000000000000, 0.000000000000000000, 0.000000000000000000, 0.000000000000000000 ) ;
#30 = FACE_OUTER_BOUND ( 'NONE', #148, .T. ) ;
#31 = DIRECTION ( 'NONE',  ( -0.000000000000000000, -1.000000000000000000, -0.000000000000000000 ) ) ;
#32 = LENGTH_MEASURE_WITH_UNIT ( LENGTH_MEASURE( 0.02539999999999999897 ), #24 );
#33 = DIRECTION ( 'NONE',  ( 0.000000000000000000, 0.000000000000000000, -1.000000000000000000 ) ) ;
#34 = DIRECTION ( 'NONE',  ( 0.000000000000000000, 0.000000000000000000, -1.000000000000000000 ) ) ;
#35 = COLOUR_RGB ( '',0.7921568627450980005, 0.8196078431372548767, 0.9333333333333333481 ) ;
#36 = LINE ( 'NONE', #17, #228 ) ;
#37 = ORIENTED_EDGE ( 'NONE', *, *, #170, .T. ) ;
#38 = DIRECTION ( 'NONE',  ( 0.000000000000000000, 0.000000000000000000, -1.000000000000000000 ) ) ;
#39 = ORIENTED_EDGE ( 'NONE', *, *, #356, .T. ) ;
#40 = EDGE_CURVE ( 'NONE', #10, #19, #243, .T. ) ;
#41 = VERTEX_POINT ( 'NONE', #108 ) ;
#42 = CIRCLE ( 'NONE', #111, 0.1562499999999996947 ) ;
#43 = AXIS2_PLACEMENT_3D ( 'NONE', #245, #253, #305 ) ;
#44 = DIRECTION ( 'NONE',  ( 0.000000000000000000, 0.000000000000000000, 1.000000000000000000 ) ) ;
#45 =( NAMED_UNIT ( * ) SI_UNIT ( $, .STERADIAN. ) SOLID_ANGLE_UNIT ( ) );
#46 = ADVANCED_FACE ( 'NONE', ( #200 ), #226, .T. ) ;
#47 = CARTESIAN_POINT ( 'NONE',  ( -6.123233995736772199E-17, 3.000000000000000444, 0.000000000000000000 ) ) ;
#48 = PRESENTATION_LAYER_ASSIGNMENT (  '', '', ( #71 ) ) ;
#49 = PRESENTATION_STYLE_ASSIGNMENT (( #213 ) ) ;
#50 = SURFACE_SIDE_STYLE ('',( #332 ) ) ;
#51 = ADVANCED_FACE ( 'NONE', ( #30 ), #373, .T. ) ;
#52 =( NAMED_UNIT ( * ) PLANE_ANGLE_UNIT ( ) SI_UNIT ( $, .RADIAN. ) );
#53 = PRESENTATION_LAYER_ASSIGNMENT (  '', '', ( #197 ) ) ;
#54 = FACE_OUTER_BOUND ( 'NONE', #164, .T. ) ;
#55 = DIRECTION ( 'NONE',  ( -1.224646799147353700E-16, 1.000000000000000000, -0.000000000000000000 ) ) ;
#56 = ADVANCED_FACE ( 'NONE', ( #289 ), #58, .F. ) ;
#57 =( CONVERSION_BASED_UNIT ( 'INCH', #192 ) LENGTH_UNIT ( ) NAMED_UNIT ( #113 ) );
#58 = PLANE ( 'NONE',  #367 ) ;
#59 = CARTESIAN_POINT ( 'NONE',  ( -1.913510623667739463E-17, 0.1562500000000000000, 0.000000000000000000 ) ) ;
#60 = DIRECTION ( 'NONE',  ( -0.000000000000000000, -1.000000000000000000, -0.000000000000000000 ) ) ;
#61 = AXIS2_PLACEMENT_3D ( 'NONE', #338, #224, #167 ) ;
#62 = EDGE_CURVE ( 'NONE', #325, #10, #78, .T. ) ;
#63 = DIRECTION ( 'NONE',  ( -1.224646799147353700E-16, 1.000000000000000000, -0.000000000000000000 ) ) ;
#64 = AXIS2_PLACEMENT_3D ( 'NONE', #193, #60, #320 ) ;
#65 = DIRECTION ( 'NONE',  ( -1.224646799147353700E-16, 1.000000000000000000, -0.000000000000000000 ) ) ;
#66 = COLOUR_RGB ( '',1.000000000000000000, 0.000000000000000000, 0.000000000000000000 ) ;
#67 = CARTESIAN_POINT ( 'NONE',  ( -0.1562500000000000000, 0.1562500000000000278, 1.913510623667738847E-17 ) ) ;
#68 = DIRECTION ( 'NONE',  ( -0.000000000000000000, -1.000000000000000000, -0.000000000000000000 ) ) ;
#69 = SURFACE_STYLE_FILL_AREA ( #324 ) ;
#70 = MECHANICAL_DESIGN_GEOMETRIC_PRESENTATION_REPRESENTATION (  '', ( #186 ), #361 ) ;
#71 = STYLED_ITEM ( 'NONE', ( #279 ), #322 ) ;
#72 = CARTESIAN_POINT ( 'NONE',  ( -1.913510623667739463E-17, 0.1562500000000000000, 0.000000000000000000 ) ) ;
#73 = LENGTH_MEASURE_WITH_UNIT ( LENGTH_MEASURE( 0.02539999999999999897 ), #309 );
#74 = CARTESIAN_POINT ( 'NONE',  ( 1.913510623667739463E-17, 0.1562500000000000278, 0.1562500000000000000 ) ) ;
#75 = ORIENTED_EDGE ( 'NONE', *, *, #133, .T. ) ;
#76 =( NAMED_UNIT ( * ) SI_UNIT ( $, .STERADIAN. ) SOLID_ANGLE_UNIT ( ) );
#77 = PRODUCT_RELATED_PRODUCT_CATEGORY ( 'part', '', ( #278 ) ) ;
#78 = CIRCLE ( 'NONE', #64, 0.1562500000000000000 ) ;
#79 = LENGTH_MEASURE_WITH_UNIT ( LENGTH_MEASURE( 0.02539999999999999897 ), #249 );
#80 =( GEOMETRIC_REPRESENTATION_CONTEXT ( 3 ) GLOBAL_UNCERTAINTY_ASSIGNED_CONTEXT ( ( #176 ) ) GLOBAL_UNIT_ASSIGNED_CONTEXT ( ( #5, #346, #276 ) ) REPRESENTATION_CONTEXT ( 'NONE', 'WORKASPACE' ) );
#81 = CARTESIAN_POINT ( 'NONE',  ( -6.123233995736772199E-17, 3.000000000000000444, 0.000000000000000000 ) ) ;
#82 = FILL_AREA_STYLE ('',( #22 ) ) ;
#83 = DIRECTION ( 'NONE',  ( -0.000000000000000000, -1.000000000000000000, -0.000000000000000000 ) ) ;
#84 = SURFACE_STYLE_USAGE ( .BOTH. , #137 ) ;
#85 = AXIS2_PLACEMENT_3D ( 'NONE', #81, #55, #134 ) ;
#86 =( GEOMETRIC_REPRESENTATION_CONTEXT ( 3 ) GLOBAL_UNCERTAINTY_ASSIGNED_CONTEXT ( ( #25 ) ) GLOBAL_UNIT_ASSIGNED_CONTEXT ( ( #293, #371, #265 ) ) REPRESENTATION_CONTEXT ( 'NONE', 'WORKASPACE' ) );
#87 = SURFACE_STYLE_USAGE ( .BOTH. , #315 ) ;
#88 = UNCERTAINTY_MEASURE_WITH_UNIT (LENGTH_MEASURE( 1.000000000000000082E-05 ), #191, 'distance_accuracy_value', 'NONE');
#89 = LINE ( 'NONE', #258, #207 ) ;
#90 = FILL_AREA_STYLE_COLOUR ( '', #66 ) ;
#91 = ORIENTED_EDGE ( 'NONE', *, *, #212, .T. ) ;
#92 = DIRECTION ( 'NONE',  ( 1.000000000000000000, 0.000000000000000000, -1.224646799147353207E-16 ) ) ;
#93 = ORIENTED_EDGE ( 'NONE', *, *, #170, .F. ) ;
#94 = UNCERTAINTY_MEASURE_WITH_UNIT (LENGTH_MEASURE( 1.000000000000000082E-05 ), #141, 'distance_accuracy_value', 'NONE');
#95 = ORIENTED_EDGE ( 'NONE', *, *, #194, .T. ) ;
#96 = MECHANICAL_DESIGN_GEOMETRIC_PRESENTATION_REPRESENTATION (  '', ( #122 ), #308 ) ;
#97 = CIRCLE ( 'NONE', #153, 0.1562499999999998612 ) ;
#98 = FILL_AREA_STYLE ('',( #127 ) ) ;
#99 = CARTESIAN_POINT ( 'NONE',  ( 0.1562499999999998612, 1.000000000000000000, 1.913510623667737923E-17 ) ) ;
#100 = CARTESIAN_POINT ( 'NONE',  ( 0.1562500000000000000, 0.1562500000000000278, 0.000000000000000000 ) ) ;
#101 = EDGE_CURVE ( 'NONE', #303, #41, #28, .T. ) ;
#102 = ORIENTED_EDGE ( 'NONE', *, *, #40, .T. ) ;
#103 = VECTOR ( 'NONE', #68, 39.37007874015748143 ) ;
#104 = PRESENTATION_LAYER_ASSIGNMENT (  '', '', ( #354 ) ) ;
#105 = ADVANCED_BREP_SHAPE_REPRESENTATION ( '59441', ( #274, #125, #244 ), #80 ) ;
#106 = CARTESIAN_POINT ( 'NONE',  ( 0.1562499999999998612, 3.000000000000000444, 0.000000000000000000 ) ) ;
#107 = STYLED_ITEM ( 'NONE', ( #239 ), #250 ) ;
#108 = CARTESIAN_POINT ( 'NONE',  ( -0.1562500000000000000, 3.000000000000000444, 0.000000000000000000 ) ) ;
#109 = DIRECTION ( 'NONE',  ( 1.224646799147353700E-16, -1.000000000000000000, 0.000000000000000000 ) ) ;
#110 = PLANE ( 'NONE',  #262 ) ;
#111 = AXIS2_PLACEMENT_3D ( 'NONE', #307, #363, #220 ) ;
#112 = SURFACE_SIDE_STYLE ('',( #3 ) ) ;
#113 = DIMENSIONAL_EXPONENTS ( 1.000000000000000000, 0.000000000000000000, 0.000000000000000000, 0.000000000000000000, 0.000000000000000000, 0.000000000000000000, 0.000000000000000000 ) ;
#114 = FILL_AREA_STYLE_COLOUR ( '', #144 ) ;
#115 = ADVANCED_FACE ( 'NONE', ( #370 ), #110, .F. ) ;
#116 = SURFACE_STYLE_USAGE ( .BOTH. , #184 ) ;
#117 = VERTEX_POINT ( 'NONE', #282 ) ;
#118 = CLOSED_SHELL ( 'NONE', ( #46, #115, #51, #56 ) ) ;
#119 = COLOUR_RGB ( '',1.000000000000000000, 0.000000000000000000, 0.000000000000000000 ) ;
#120 = ORIENTED_EDGE ( 'NONE', *, *, #40, .F. ) ;
#121 = FACE_OUTER_BOUND ( 'NONE', #182, .T. ) ;
#122 = STYLED_ITEM ( 'NONE', ( #313 ), #125 ) ;
#123 = MECHANICAL_DESIGN_GEOMETRIC_PRESENTATION_REPRESENTATION (  '', ( #71 ), #323 ) ;
#124 = VERTEX_POINT ( 'NONE', #365 ) ;
#125 = MANIFOLD_SOLID_BREP ( 'Revolve - Tool Body (Straight Shanked)', #118 ) ;
#126 = DIRECTION ( 'NONE',  ( -0.000000000000000000, -1.000000000000000000, -0.000000000000000000 ) ) ;
#127 = FILL_AREA_STYLE_COLOUR ( '', #238 ) ;
#128 =( LENGTH_UNIT ( ) NAMED_UNIT ( * ) SI_UNIT ( $, .METRE. ) );
#129 = PLANE ( 'NONE',  #9 ) ;
#130 = FILL_AREA_STYLE_COLOUR ( '', #119 ) ;
#131 = DIRECTION ( 'NONE',  ( 0.000000000000000000, 0.000000000000000000, 1.000000000000000000 ) ) ;
#132 = UNCERTAINTY_MEASURE_WITH_UNIT (LENGTH_MEASURE( 1.000000000000000082E-05 ), #57, 'distance_accuracy_value', 'NONE');
#133 = EDGE_CURVE ( 'NONE', #10, #18, #216, .T. ) ;
#134 = DIRECTION ( 'NONE',  ( -1.000000000000000000, 0.000000000000000000, 0.000000000000000000 ) ) ;
#135 = CARTESIAN_POINT ( 'NONE',  ( 0.000000000000000000, 0.1562500000000000278, -0.1562500000000000000 ) ) ;
#136 = AXIS2_PLACEMENT_3D ( 'NONE', #277, #126, #34 ) ;
#137 = SURFACE_SIDE_STYLE ('',( #317 ) ) ;
#138 =( NAMED_UNIT ( * ) SI_UNIT ( $, .STERADIAN. ) SOLID_ANGLE_UNIT ( ) );
#139 = DIMENSIONAL_EXPONENTS ( 1.000000000000000000, 0.000000000000000000, 0.000000000000000000, 0.000000000000000000, 0.000000000000000000, 0.000000000000000000, 0.000000000000000000 ) ;
#140 =( LENGTH_UNIT ( ) NAMED_UNIT ( * ) SI_UNIT ( $, .METRE. ) );
#141 =( CONVERSION_BASED_UNIT ( 'INCH', #32 ) LENGTH_UNIT ( ) NAMED_UNIT ( #291 ) );
#142 = DIRECTION ( 'NONE',  ( -0.000000000000000000, -1.000000000000000000, -0.000000000000000000 ) ) ;
#143 = FILL_AREA_STYLE_COLOUR ( '', #348 ) ;
#144 = COLOUR_RGB ( '',1.000000000000000000, 0.000000000000000000, 0.000000000000000000 ) ;
#145 = LENGTH_MEASURE_WITH_UNIT ( LENGTH_MEASURE( 0.02539999999999999897 ), #196 );
#146 = DIMENSIONAL_EXPONENTS ( 1.000000000000000000, 0.000000000000000000, 0.000000000000000000, 0.000000000000000000, 0.000000000000000000, 0.000000000000000000, 0.000000000000000000 ) ;
#147 = DIRECTION ( 'NONE',  ( -0.000000000000000000, -1.000000000000000000, -0.000000000000000000 ) ) ;
#148 = EDGE_LOOP ( 'NONE', ( #326, #206, #7, #349 ) ) ;
#149 = DIRECTION ( 'NONE',  ( 1.000000000000000000, 0.000000000000000000, 0.000000000000000000 ) ) ;
#150 = EDGE_LOOP ( 'NONE', ( #296, #298 ) ) ;
#151 = ORIENTED_EDGE ( 'NONE', *, *, #229, .T. ) ;
#152 = COLOUR_RGB ( '',1.000000000000000000, 0.000000000000000000, 0.000000000000000000 ) ;
#153 = AXIS2_PLACEMENT_3D ( 'NONE', #199, #142, #33 ) ;
#154 = ORIENTED_EDGE ( 'NONE', *, *, #4, .F. ) ;
#155 = DIRECTION ( 'NONE',  ( -1.224646799147353700E-16, 1.000000000000000000, -0.000000000000000000 ) ) ;
#156 = ORIENTED_EDGE ( 'NONE', *, *, #202, .F. ) ;
#157 =( NAMED_UNIT ( * ) PLANE_ANGLE_UNIT ( ) SI_UNIT ( $, .RADIAN. ) );
#158 = EDGE_LOOP ( 'NONE', ( #300, #151, #120, #75 ) ) ;
#159 = PRODUCT_CONTEXT ( 'NONE', #280, 'mechanical' ) ;
#160 = MECHANICAL_DESIGN_GEOMETRIC_PRESENTATION_REPRESENTATION (  '', ( #107 ), #304 ) ;
#161 = CYLINDRICAL_SURFACE ( 'NONE', #136, 0.1562499999999999445 ) ;
#162 = AXIS2_PLACEMENT_3D ( 'NONE', #59, #344, #149 ) ;
#163 = SURFACE_STYLE_USAGE ( .BOTH. , #251 ) ;
#164 = EDGE_LOOP ( 'NONE', ( #268, #271, #235, #102 ) ) ;
#165 = PRESENTATION_STYLE_ASSIGNMENT (( #221 ) ) ;
#166 = AXIS2_PLACEMENT_3D ( 'NONE', #256, #131, #337 ) ;
#167 = DIRECTION ( 'NONE',  ( -1.000000000000000000, 0.000000000000000000, 0.000000000000000000 ) ) ;
#168 = DIRECTION ( 'NONE',  ( -1.224646799147353700E-16, 1.000000000000000000, -0.000000000000000000 ) ) ;
#169 = CARTESIAN_POINT ( 'NONE',  ( 0.000000000000000000, 0.1562500000000000278, 0.000000000000000000 ) ) ;
#170 = EDGE_CURVE ( 'NONE', #124, #18, #175, .T. ) ;
#171 =( GEOMETRIC_REPRESENTATION_CONTEXT ( 3 ) GLOBAL_UNCERTAINTY_ASSIGNED_CONTEXT ( ( #94 ) ) GLOBAL_UNIT_ASSIGNED_CONTEXT ( ( #141, #172, #284 ) ) REPRESENTATION_CONTEXT ( 'NONE', 'WORKASPACE' ) );
#172 =( NAMED_UNIT ( * ) PLANE_ANGLE_UNIT ( ) SI_UNIT ( $, .RADIAN. ) );
#173 = PRODUCT_DEFINITION_FORMATION_WITH_SPECIFIED_SOURCE ( 'ANY', '', #278, .NOT_KNOWN. ) ;
#174 = LENGTH_MEASURE_WITH_UNIT ( LENGTH_MEASURE( 0.02539999999999999897 ), #128 );
#175 = LINE ( 'NONE', #178, #103 ) ;
#176 = UNCERTAINTY_MEASURE_WITH_UNIT (LENGTH_MEASURE( 1.000000000000000082E-05 ), #5, 'distance_accuracy_value', 'NONE');
#177 = LENGTH_MEASURE_WITH_UNIT ( LENGTH_MEASURE( 0.02539999999999999897 ), #140 );
#178 = CARTESIAN_POINT ( 'NONE',  ( 1.913510623667738539E-17, 0.000000000000000000, 0.1562499999999999445 ) ) ;
#179 = CIRCLE ( 'NONE', #189, 0.1562499999999998612 ) ;
#180 = EDGE_LOOP ( 'NONE', ( #359, #154 ) ) ;
#181 = VERTEX_POINT ( 'NONE', #237 ) ;
#182 = EDGE_LOOP ( 'NONE', ( #91, #37, #210, #236, #156 ) ) ;
#183 = LENGTH_MEASURE_WITH_UNIT ( LENGTH_MEASURE( 0.02539999999999999897 ), #302 );
#184 = SURFACE_SIDE_STYLE ('',( #69 ) ) ;
#185 = ORIENTED_EDGE ( 'NONE', *, *, #310, .F. ) ;
#186 = STYLED_ITEM ( 'NONE', ( #364 ), #274 ) ;
#187 = CARTESIAN_POINT ( 'NONE',  ( 0.1562499999999998612, 3.000000000000000444, 1.913510623667737923E-17 ) ) ;
#188 = EDGE_CURVE ( 'NONE', #41, #303, #353, .T. ) ;
#189 = AXIS2_PLACEMENT_3D ( 'NONE', #211, #232, #358 ) ;
#190 =( GEOMETRIC_REPRESENTATION_CONTEXT ( 3 ) GLOBAL_UNCERTAINTY_ASSIGNED_CONTEXT ( ( #132 ) ) GLOBAL_UNIT_ASSIGNED_CONTEXT ( ( #57, #285, #76 ) ) REPRESENTATION_CONTEXT ( 'NONE', 'WORKASPACE' ) );
#191 =( CONVERSION_BASED_UNIT ( 'INCH', #79 ) LENGTH_UNIT ( ) NAMED_UNIT ( #29 ) );
#192 = LENGTH_MEASURE_WITH_UNIT ( LENGTH_MEASURE( 0.02539999999999999897 ), #225 );
#193 = CARTESIAN_POINT ( 'NONE',  ( 0.000000000000000000, 0.1562500000000000278, 0.000000000000000000 ) ) ;
#194 = EDGE_CURVE ( 'NONE', #117, #218, #21, .T. ) ;
#195 = CARTESIAN_POINT ( 'NONE',  ( 0.000000000000000000, 0.1562500000000000278, 0.000000000000000000 ) ) ;
#196 =( LENGTH_UNIT ( ) NAMED_UNIT ( * ) SI_UNIT ( $, .METRE. ) );
#197 = STYLED_ITEM ( 'NONE', ( #49 ), #26 ) ;
#198 = DIRECTION ( 'NONE',  ( 0.000000000000000000, 0.000000000000000000, -1.000000000000000000 ) ) ;
#199 = CARTESIAN_POINT ( 'NONE',  ( 0.000000000000000000, 1.000000000000000000, 0.000000000000000000 ) ) ;
#200 = FACE_OUTER_BOUND ( 'NONE', #264, .T. ) ;
#201 = CYLINDRICAL_SURFACE ( 'NONE', #246, 0.1562499999999999445 ) ;
#202 = EDGE_CURVE ( 'NONE', #181, #325, #36, .T. ) ;
#203 = EDGE_LOOP ( 'NONE', ( #93, #39, #247, #241, #185 ) ) ;
#204 = FACE_OUTER_BOUND ( 'NONE', #203, .T. ) ;
#205 = CARTESIAN_POINT ( 'NONE',  ( 1.836970198721030427E-16, 1.000000000000000000, 0.000000000000000000 ) ) ;
#206 = ORIENTED_EDGE ( 'NONE', *, *, #4, .T. ) ;
#207 = VECTOR ( 'NONE', #65, 39.37007874015748143 ) ;
#208 = UNCERTAINTY_MEASURE_WITH_UNIT (LENGTH_MEASURE( 1.000000000000000082E-05 ), #362, 'distance_accuracy_value', 'NONE');
#209 = ORIENTED_EDGE ( 'NONE', *, *, #339, .T. ) ;
#210 = ORIENTED_EDGE ( 'NONE', *, *, #133, .F. ) ;
#211 = CARTESIAN_POINT ( 'NONE',  ( 0.000000000000000000, 1.000000000000000000, 0.000000000000000000 ) ) ;
#212 = EDGE_CURVE ( 'NONE', #181, #124, #179, .T. ) ;
#213 = SURFACE_STYLE_USAGE ( .BOTH. , #357 ) ;
#214 = SURFACE_STYLE_FILL_AREA ( #98 ) ;
#215 = DIRECTION ( 'NONE',  ( 0.000000000000000000, 0.000000000000000000, -1.000000000000000000 ) ) ;
#216 = CIRCLE ( 'NONE', #266, 0.1562500000000000000 ) ;
#217 = FILL_AREA_STYLE ('',( #90 ) ) ;
#218 = VERTEX_POINT ( 'NONE', #99 ) ;
#219 = FACE_OUTER_BOUND ( 'NONE', #11, .T. ) ;
#220 = DIRECTION ( 'NONE',  ( -1.000000000000000000, 0.000000000000000000, 0.000000000000000000 ) ) ;
#221 = SURFACE_STYLE_USAGE ( .BOTH. , #50 ) ;
#222 = CLOSED_SHELL ( 'NONE', ( #322, #250, #283, #350, #26 ) ) ;
#223 = MECHANICAL_DESIGN_GEOMETRIC_PRESENTATION_REPRESENTATION (  '', ( #354 ), #190 ) ;
#224 = DIRECTION ( 'NONE',  ( -1.224646799147353700E-16, 1.000000000000000000, -0.000000000000000000 ) ) ;
#225 =( LENGTH_UNIT ( ) NAMED_UNIT ( * ) SI_UNIT ( $, .METRE. ) );
#226 = CYLINDRICAL_SURFACE ( 'NONE', #85, 0.1562499999999998057 ) ;
#227 = DIRECTION ( 'NONE',  ( -1.000000000000000000, -1.224646799147353700E-16, 0.000000000000000000 ) ) ;
#228 = VECTOR ( 'NONE', #147, 39.37007874015748143 ) ;
#229 = EDGE_CURVE ( 'NONE', #231, #19, #360, .T. ) ;
#230 = SPHERICAL_SURFACE ( 'NONE', #162, 0.1562500000000000000 ) ;
#231 = VERTEX_POINT ( 'NONE', #67 ) ;
#232 = DIRECTION ( 'NONE',  ( -0.000000000000000000, -1.000000000000000000, -0.000000000000000000 ) ) ;
#233 = UNCERTAINTY_MEASURE_WITH_UNIT (LENGTH_MEASURE( 1.000000000000000082E-05 ), #261, 'distance_accuracy_value', 'NONE');
#234 = PRESENTATION_LAYER_ASSIGNMENT (  '', '', ( #186 ) ) ;
#235 = ORIENTED_EDGE ( 'NONE', *, *, #62, .T. ) ;
#236 = ORIENTED_EDGE ( 'NONE', *, *, #62, .F. ) ;
#237 = CARTESIAN_POINT ( 'NONE',  ( 0.000000000000000000, 1.000000000000000000, -0.1562499999999998612 ) ) ;
#238 = COLOUR_RGB ( '',1.000000000000000000, 0.000000000000000000, 0.000000000000000000 ) ;
#239 = PRESENTATION_STYLE_ASSIGNMENT (( #116 ) ) ;
#240 = CARTESIAN_POINT ( 'NONE',  ( -9.567553118338697316E-18, 0.000000000000000000, 0.000000000000000000 ) ) ;
#241 = ORIENTED_EDGE ( 'NONE', *, *, #329, .F. ) ;
#242 = DIRECTION ( 'NONE',  ( 0.000000000000000000, 1.000000000000000000, 0.000000000000000000 ) ) ;
#243 = CIRCLE ( 'NONE', #1, 0.1562500000000000000 ) ;
#244 = AXIS2_PLACEMENT_3D ( 'NONE', #347, #44, #16 ) ;
#245 = CARTESIAN_POINT ( 'NONE',  ( 0.000000000000000000, 0.1562500000000000278, 0.000000000000000000 ) ) ;
#246 = AXIS2_PLACEMENT_3D ( 'NONE', #341, #83, #297 ) ;
#247 = ORIENTED_EDGE ( 'NONE', *, *, #202, .T. ) ;
#248 = SURFACE_STYLE_FILL_AREA ( #369 ) ;
#249 =( LENGTH_UNIT ( ) NAMED_UNIT ( * ) SI_UNIT ( $, .METRE. ) );
#250 = ADVANCED_FACE ( 'NONE', ( #121 ), #161, .T. ) ;
#251 = SURFACE_SIDE_STYLE ('',( #248 ) ) ;
#252 = DIRECTION ( 'NONE',  ( -1.224646799147353700E-16, 1.000000000000000000, 0.000000000000000000 ) ) ;
#253 = DIRECTION ( 'NONE',  ( -0.000000000000000000, -1.000000000000000000, -0.000000000000000000 ) ) ;
#254 = AXIS2_PLACEMENT_3D ( 'NONE', #47, #155, #273 ) ;
#255 = MECHANICAL_DESIGN_GEOMETRIC_PRESENTATION_REPRESENTATION (  '', ( #267 ), #86 ) ;
#256 = CARTESIAN_POINT ( 'NONE',  ( -1.913510623667739463E-17, 0.1562500000000000000, 0.000000000000000000 ) ) ;
#257 = DIMENSIONAL_EXPONENTS ( 1.000000000000000000, 0.000000000000000000, 0.000000000000000000, 0.000000000000000000, 0.000000000000000000, 0.000000000000000000, 0.000000000000000000 ) ;
#258 = CARTESIAN_POINT ( 'NONE',  ( 0.1562499999999997224, 3.000000000000000444, 1.913510623667736998E-17 ) ) ;
#259 = DIRECTION ( 'NONE',  ( 1.000000000000000000, 1.224646799147353700E-16, 0.000000000000000000 ) ) ;
#260 = PRODUCT_DEFINITION_CONTEXT ( 'detailed design', #351, 'design' ) ;
#261 =( CONVERSION_BASED_UNIT ( 'INCH', #174 ) LENGTH_UNIT ( ) NAMED_UNIT ( #146 ) );
#262 = AXIS2_PLACEMENT_3D ( 'NONE', #286, #252, #227 ) ;
#263 =( NAMED_UNIT ( * ) SI_UNIT ( $, .STERADIAN. ) SOLID_ANGLE_UNIT ( ) );
#264 = EDGE_LOOP ( 'NONE', ( #95, #209, #331, #327 ) ) ;
#265 =( NAMED_UNIT ( * ) SI_UNIT ( $, .STERADIAN. ) SOLID_ANGLE_UNIT ( ) );
#266 = AXIS2_PLACEMENT_3D ( 'NONE', #169, #270, #215 ) ;
#267 = STYLED_ITEM ( 'NONE', ( #321 ), #350 ) ;
#268 = ORIENTED_EDGE ( 'NONE', *, *, #229, .F. ) ;
#269 = APPLICATION_PROTOCOL_DEFINITION ( 'draft international standard', 'automotive_design', 1998, #280 ) ;
#270 = DIRECTION ( 'NONE',  ( -0.000000000000000000, -1.000000000000000000, -0.000000000000000000 ) ) ;
#271 = ORIENTED_EDGE ( 'NONE', *, *, #329, .T. ) ;
#272 = SHAPE_DEFINITION_REPRESENTATION ( #366, #105 ) ;
#273 = DIRECTION ( 'NONE',  ( -1.000000000000000000, 0.000000000000000000, 0.000000000000000000 ) ) ;
#274 = MANIFOLD_SOLID_BREP ( 'Revolve - Cutting Edge', #222 ) ;
#275 = MECHANICAL_DESIGN_GEOMETRIC_PRESENTATION_REPRESENTATION (  '', ( #197 ), #171 ) ;
#276 =( NAMED_UNIT ( * ) SI_UNIT ( $, .STERADIAN. ) SOLID_ANGLE_UNIT ( ) );
#277 = CARTESIAN_POINT ( 'NONE',  ( 0.000000000000000000, 0.000000000000000000, 0.000000000000000000 ) ) ;
#278 = PRODUCT ( '59441', '59441', '', ( #159 ) ) ;
#279 = PRESENTATION_STYLE_ASSIGNMENT (( #163 ) ) ;
#280 = APPLICATION_CONTEXT ( 'automotive_design' ) ;
#281 = CARTESIAN_POINT ( 'NONE',  ( -0.1562499999999998612, 3.000000000000000444, 0.000000000000000000 ) ) ;
#282 = CARTESIAN_POINT ( 'NONE',  ( -0.1562499999999995282, 1.000000000000000000, 0.000000000000000000 ) ) ;
#283 = ADVANCED_FACE ( 'NONE', ( #219 ), #129, .T. ) ;
#284 =( NAMED_UNIT ( * ) SI_UNIT ( $, .STERADIAN. ) SOLID_ANGLE_UNIT ( ) );
#285 =( NAMED_UNIT ( * ) PLANE_ANGLE_UNIT ( ) SI_UNIT ( $, .RADIAN. ) );
#286 = CARTESIAN_POINT ( 'NONE',  ( 1.836970198721030181E-16, 1.000000000000000000, 0.000000000000000000 ) ) ;
#287 =( NAMED_UNIT ( * ) PLANE_ANGLE_UNIT ( ) SI_UNIT ( $, .RADIAN. ) );
#288 = AXIS2_PLACEMENT_3D ( 'NONE', #195, #31, #38 ) ;
#289 = FACE_OUTER_BOUND ( 'NONE', #150, .T. ) ;
#290 = FILL_AREA_STYLE ('',( #114 ) ) ;
#291 = DIMENSIONAL_EXPONENTS ( 1.000000000000000000, 0.000000000000000000, 0.000000000000000000, 0.000000000000000000, 0.000000000000000000, 0.000000000000000000, 0.000000000000000000 ) ;
#292 = DIRECTION ( 'NONE',  ( -1.000000000000000000, 0.000000000000000000, 0.000000000000000000 ) ) ;
#293 =( CONVERSION_BASED_UNIT ( 'INCH', #177 ) LENGTH_UNIT ( ) NAMED_UNIT ( #257 ) );
#294 = FILL_AREA_STYLE_COLOUR ( '', #152 ) ;
#295 = DIRECTION ( 'NONE',  ( -1.000000000000000000, 0.000000000000000000, 0.000000000000000000 ) ) ;
#296 = ORIENTED_EDGE ( 'NONE', *, *, #188, .T. ) ;
#297 = DIRECTION ( 'NONE',  ( 0.000000000000000000, 0.000000000000000000, -1.000000000000000000 ) ) ;
#298 = ORIENTED_EDGE ( 'NONE', *, *, #101, .T. ) ;
#299 = APPLICATION_PROTOCOL_DEFINITION ( 'draft international standard', 'automotive_design', 1998, #351 ) ;
#300 = ORIENTED_EDGE ( 'NONE', *, *, #310, .T. ) ;
#301 = PRESENTATION_LAYER_ASSIGNMENT (  '', '', ( #122 ) ) ;
#302 =( LENGTH_UNIT ( ) NAMED_UNIT ( * ) SI_UNIT ( $, .METRE. ) );
#303 = VERTEX_POINT ( 'NONE', #187 ) ;
#304 =( GEOMETRIC_REPRESENTATION_CONTEXT ( 3 ) GLOBAL_UNCERTAINTY_ASSIGNED_CONTEXT ( ( #340 ) ) GLOBAL_UNIT_ASSIGNED_CONTEXT ( ( #352, #355, #45 ) ) REPRESENTATION_CONTEXT ( 'NONE', 'WORKASPACE' ) );
#305 = DIRECTION ( 'NONE',  ( 0.000000000000000000, 0.000000000000000000, -1.000000000000000000 ) ) ;
#306 = LINE ( 'NONE', #281, #2 ) ;
#307 = CARTESIAN_POINT ( 'NONE',  ( 1.836970198721030427E-16, 1.000000000000000000, 0.000000000000000000 ) ) ;
#308 =( GEOMETRIC_REPRESENTATION_CONTEXT ( 3 ) GLOBAL_UNCERTAINTY_ASSIGNED_CONTEXT ( ( #88 ) ) GLOBAL_UNIT_ASSIGNED_CONTEXT ( ( #191, #157, #263 ) ) REPRESENTATION_CONTEXT ( 'NONE', 'WORKASPACE' ) );
#309 =( LENGTH_UNIT ( ) NAMED_UNIT ( * ) SI_UNIT ( $, .METRE. ) );
#310 = EDGE_CURVE ( 'NONE', #18, #231, #336, .T. ) ;
#311 = SPHERICAL_SURFACE ( 'NONE', #166, 0.1562500000000000000 ) ;
#312 = DIRECTION ( 'NONE',  ( 0.000000000000000000, -0.000000000000000000, 1.000000000000000000 ) ) ;
#313 = PRESENTATION_STYLE_ASSIGNMENT (( #84 ) ) ;
#314 = EDGE_CURVE ( 'NONE', #117, #41, #306, .T. ) ;
#315 = SURFACE_SIDE_STYLE ('',( #319 ) ) ;
#316 = PRESENTATION_LAYER_ASSIGNMENT (  '', '', ( #107 ) ) ;
#317 = SURFACE_STYLE_FILL_AREA ( #82 ) ;
#318 = DIMENSIONAL_EXPONENTS ( 1.000000000000000000, 0.000000000000000000, 0.000000000000000000, 0.000000000000000000, 0.000000000000000000, 0.000000000000000000, 0.000000000000000000 ) ;
#319 = SURFACE_STYLE_FILL_AREA ( #290 ) ;
#320 = DIRECTION ( 'NONE',  ( 0.000000000000000000, 0.000000000000000000, -1.000000000000000000 ) ) ;
#321 = PRESENTATION_STYLE_ASSIGNMENT (( #87 ) ) ;
#322 = ADVANCED_FACE ( 'NONE', ( #23 ), #230, .T. ) ;
#323 =( GEOMETRIC_REPRESENTATION_CONTEXT ( 3 ) GLOBAL_UNCERTAINTY_ASSIGNED_CONTEXT ( ( #233 ) ) GLOBAL_UNIT_ASSIGNED_CONTEXT ( ( #261, #287, #138 ) ) REPRESENTATION_CONTEXT ( 'NONE', 'WORKASPACE' ) );
#324 = FILL_AREA_STYLE ('',( #294 ) ) ;
#325 = VERTEX_POINT ( 'NONE', #135 ) ;
#326 = ORIENTED_EDGE ( 'NONE', *, *, #339, .F. ) ;
#327 = ORIENTED_EDGE ( 'NONE', *, *, #314, .F. ) ;
#328 = DIRECTION ( 'NONE',  ( -1.224646799147353700E-16, 1.000000000000000000, -0.000000000000000000 ) ) ;
#329 = EDGE_CURVE ( 'NONE', #231, #325, #368, .T. ) ;
#330 = ORIENTED_EDGE ( 'NONE', *, *, #356, .F. ) ;
#331 = ORIENTED_EDGE ( 'NONE', *, *, #188, .F. ) ;
#332 = SURFACE_STYLE_FILL_AREA ( #217 ) ;
#333 = DIMENSIONAL_EXPONENTS ( 1.000000000000000000, 0.000000000000000000, 0.000000000000000000, 0.000000000000000000, 0.000000000000000000, 0.000000000000000000, 0.000000000000000000 ) ;
#334 = CARTESIAN_POINT ( 'NONE',  ( 0.000000000000000000, 1.000000000000000000, 0.000000000000000000 ) ) ;
#335 = AXIS2_PLACEMENT_3D ( 'NONE', #205, #328, #295 ) ;
#336 = CIRCLE ( 'NONE', #43, 0.1562500000000000000 ) ;
#337 = DIRECTION ( 'NONE',  ( 1.000000000000000000, 0.000000000000000000, 0.000000000000000000 ) ) ;
#338 = CARTESIAN_POINT ( 'NONE',  ( -6.123233995736772199E-17, 3.000000000000000444, 0.000000000000000000 ) ) ;
#339 = EDGE_CURVE ( 'NONE', #218, #303, #89, .T. ) ;
#340 = UNCERTAINTY_MEASURE_WITH_UNIT (LENGTH_MEASURE( 1.000000000000000082E-05 ), #352, 'distance_accuracy_value', 'NONE');
#341 = CARTESIAN_POINT ( 'NONE',  ( 0.000000000000000000, 0.000000000000000000, 0.000000000000000000 ) ) ;
#342 = PRESENTATION_LAYER_ASSIGNMENT (  '', '', ( #267 ) ) ;
#343 = DIRECTION ( 'NONE',  ( -1.000000000000000000, 0.000000000000000000, 0.000000000000000000 ) ) ;
#344 = DIRECTION ( 'NONE',  ( 0.000000000000000000, 0.000000000000000000, 1.000000000000000000 ) ) ;
#345 = DIRECTION ( 'NONE',  ( 1.224646799147353207E-16, -0.000000000000000000, 1.000000000000000000 ) ) ;
#346 =( NAMED_UNIT ( * ) PLANE_ANGLE_UNIT ( ) SI_UNIT ( $, .RADIAN. ) );
#347 = CARTESIAN_POINT ( 'NONE',  ( 0.000000000000000000, 0.000000000000000000, 0.000000000000000000 ) ) ;
#348 = COLOUR_RGB ( '',0.7921568627450980005, 0.8196078431372548767, 0.9333333333333333481 ) ;
#349 = ORIENTED_EDGE ( 'NONE', *, *, #101, .F. ) ;
#350 = ADVANCED_FACE ( 'NONE', ( #204 ), #201, .T. ) ;
#351 = APPLICATION_CONTEXT ( 'automotive_design' ) ;
#352 =( CONVERSION_BASED_UNIT ( 'INCH', #183 ) LENGTH_UNIT ( ) NAMED_UNIT ( #333 ) );
#353 = CIRCLE ( 'NONE', #254, 0.1562499999999999445 ) ;
#354 = STYLED_ITEM ( 'NONE', ( #165 ), #283 ) ;
#355 =( NAMED_UNIT ( * ) PLANE_ANGLE_UNIT ( ) SI_UNIT ( $, .RADIAN. ) );
#356 = EDGE_CURVE ( 'NONE', #124, #181, #97, .T. ) ;
#357 = SURFACE_SIDE_STYLE ('',( #214 ) ) ;
#358 = DIRECTION ( 'NONE',  ( 0.000000000000000000, 0.000000000000000000, -1.000000000000000000 ) ) ;
#359 = ORIENTED_EDGE ( 'NONE', *, *, #194, .F. ) ;
#360 = CIRCLE ( 'NONE', #14, 0.1562500000000000000 ) ;
#361 =( GEOMETRIC_REPRESENTATION_CONTEXT ( 3 ) GLOBAL_UNCERTAINTY_ASSIGNED_CONTEXT ( ( #208 ) ) GLOBAL_UNIT_ASSIGNED_CONTEXT ( ( #362, #52, #20 ) ) REPRESENTATION_CONTEXT ( 'NONE', 'WORKASPACE' ) );
#362 =( CONVERSION_BASED_UNIT ( 'INCH', #73 ) LENGTH_UNIT ( ) NAMED_UNIT ( #318 ) );
#363 = DIRECTION ( 'NONE',  ( -1.224646799147353700E-16, 1.000000000000000000, -0.000000000000000000 ) ) ;
#364 = PRESENTATION_STYLE_ASSIGNMENT (( #27 ) ) ;
#365 = CARTESIAN_POINT ( 'NONE',  ( 1.913510623667738231E-17, 1.000000000000000000, 0.1562499999999998612 ) ) ;
#366 = PRODUCT_DEFINITION_SHAPE ( 'NONE', 'NONE',  #13 ) ;
#367 = AXIS2_PLACEMENT_3D ( 'NONE', #106, #109, #259 ) ;
#368 = CIRCLE ( 'NONE', #288, 0.1562500000000000000 ) ;
#369 = FILL_AREA_STYLE ('',( #130 ) ) ;
#370 = FACE_OUTER_BOUND ( 'NONE', #180, .T. ) ;
#371 =( NAMED_UNIT ( * ) PLANE_ANGLE_UNIT ( ) SI_UNIT ( $, .RADIAN. ) );
#372 = CARTESIAN_POINT ( 'NONE',  ( -6.123233995736772199E-17, 3.000000000000000444, 0.000000000000000000 ) ) ;
#373 = CYLINDRICAL_SURFACE ( 'NONE', #8, 0.1562499999999998057 ) ;
ENDSEC;
END-ISO-10303-21;
