ISO-10303-21;
HEADER;
FILE_DESCRIPTION (( 'STEP AP214' ),
    '1' );
FILE_NAME ('59851.STEP',
    '2023-06-22T23:34:53',
    ( '' ),
    ( '' ),
    'SwSTEP 2.0',
    'SolidWorks 2023',
    '' );
FILE_SCHEMA (( 'AUTOMOTIVE_DESIGN' ));
ENDSEC;

DATA;
#1 = STYLED_ITEM ( 'NONE', ( #280 ), #148 ) ;
#2 = EDGE_CURVE ( 'NONE', #177, #295, #107, .T. ) ;
#3 = AXIS2_PLACEMENT_3D ( 'NONE', #123, #8, #109 ) ;
#4 =( CONVERSION_BASED_UNIT ( 'INCH', #272 ) LENGTH_UNIT ( ) NAMED_UNIT ( #29 ) );
#5 = EDGE_CURVE ( 'NONE', #19, #60, #211, .T. ) ;
#6 = CARTESIAN_POINT ( 'NONE',  ( 0.000000000000000000, 1.625000000000000000, 0.000000000000000000 ) ) ;
#7 =( GEOMETRIC_REPRESENTATION_CONTEXT ( 3 ) GLOBAL_UNCERTAINTY_ASSIGNED_CONTEXT ( ( #44 ) ) GLOBAL_UNIT_ASSIGNED_CONTEXT ( ( #261, #68, #92 ) ) REPRESENTATION_CONTEXT ( 'NONE', 'WORKASPACE' ) );
#8 = DIRECTION ( 'NONE',  ( -3.265724797726272713E-17, 1.000000000000000000, -0.000000000000000000 ) ) ;
#9 = DIRECTION ( 'NONE',  ( 1.000000000000000000, 3.265724797726272713E-17, 0.000000000000000000 ) ) ;
#10 = CARTESIAN_POINT ( 'NONE',  ( 0.000000000000000000, 0.000000000000000000, -0.3125000000000000000 ) ) ;
#11 = CARTESIAN_POINT ( 'NONE',  ( 0.000000000000000000, 0.000000000000000000, 0.000000000000000000 ) ) ;
#12 = CARTESIAN_POINT ( 'NONE',  ( 0.000000000000000000, 0.000000000000000000, 0.000000000000000000 ) ) ;
#13 = ADVANCED_BREP_SHAPE_REPRESENTATION ( '59851', ( #212, #216, #127 ), #146 ) ;
#14 = ORIENTED_EDGE ( 'NONE', *, *, #101, .F. ) ;
#15 = VECTOR ( 'NONE', #244, 39.37007874015748143 ) ;
#16 = CIRCLE ( 'NONE', #245, 0.3125000000000000000 ) ;
#17 = ORIENTED_EDGE ( 'NONE', *, *, #2, .F. ) ;
#18 = LENGTH_MEASURE_WITH_UNIT ( LENGTH_MEASURE( 0.02539999999999999897 ), #72 );
#19 = VERTEX_POINT ( 'NONE', #242 ) ;
#20 = CARTESIAN_POINT ( 'NONE',  ( 0.000000000000000000, 0.000000000000000000, 0.000000000000000000 ) ) ;
#21 =( NAMED_UNIT ( * ) SI_UNIT ( $, .STERADIAN. ) SOLID_ANGLE_UNIT ( ) );
#22 = SURFACE_SIDE_STYLE ('',( #114 ) ) ;
#23 =( CONVERSION_BASED_UNIT ( 'INCH', #141 ) LENGTH_UNIT ( ) NAMED_UNIT ( #172 ) );
#24 = COLOUR_RGB ( '',1.000000000000000000, 0.000000000000000000, 0.000000000000000000 ) ;
#25 = CARTESIAN_POINT ( 'NONE',  ( 0.000000000000000000, 1.625000000000000000, 0.000000000000000000 ) ) ;
#26 =( CONVERSION_BASED_UNIT ( 'INCH', #52 ) LENGTH_UNIT ( ) NAMED_UNIT ( #204 ) );
#27 =( GEOMETRIC_REPRESENTATION_CONTEXT ( 3 ) GLOBAL_UNCERTAINTY_ASSIGNED_CONTEXT ( ( #286 ) ) GLOBAL_UNIT_ASSIGNED_CONTEXT ( ( #198, #268, #155 ) ) REPRESENTATION_CONTEXT ( 'NONE', 'WORKASPACE' ) );
#28 =( NAMED_UNIT ( * ) SI_UNIT ( $, .STERADIAN. ) SOLID_ANGLE_UNIT ( ) );
#29 = DIMENSIONAL_EXPONENTS ( 1.000000000000000000, 0.000000000000000000, 0.000000000000000000, 0.000000000000000000, 0.000000000000000000, 0.000000000000000000, 0.000000000000000000 ) ;
#30 = PRESENTATION_STYLE_ASSIGNMENT (( #147 ) ) ;
#31 = AXIS2_PLACEMENT_3D ( 'NONE', #61, #231, #223 ) ;
#32 = DIRECTION ( 'NONE',  ( -0.000000000000000000, -1.000000000000000000, -0.000000000000000000 ) ) ;
#33 = ORIENTED_EDGE ( 'NONE', *, *, #190, .F. ) ;
#34 =( NAMED_UNIT ( * ) SI_UNIT ( $, .STERADIAN. ) SOLID_ANGLE_UNIT ( ) );
#35 = SURFACE_STYLE_FILL_AREA ( #253 ) ;
#36 = ORIENTED_EDGE ( 'NONE', *, *, #5, .F. ) ;
#37 = COLOUR_RGB ( '',1.000000000000000000, 0.000000000000000000, 0.000000000000000000 ) ;
#38 = ORIENTED_EDGE ( 'NONE', *, *, #281, .F. ) ;
#39 = DIRECTION ( 'NONE',  ( 1.000000000000000000, 0.000000000000000000, 0.000000000000000000 ) ) ;
#40 = DIRECTION ( 'NONE',  ( -1.000000000000000000, 0.000000000000000000, 0.000000000000000000 ) ) ;
#41 = EDGE_LOOP ( 'NONE', ( #38, #205, #299, #134 ) ) ;
#42 = SURFACE_STYLE_FILL_AREA ( #135 ) ;
#43 = STYLED_ITEM ( 'NONE', ( #48 ), #275 ) ;
#44 = UNCERTAINTY_MEASURE_WITH_UNIT (LENGTH_MEASURE( 1.000000000000000082E-05 ), #261, 'distance_accuracy_value', 'NONE');
#45 =( LENGTH_UNIT ( ) NAMED_UNIT ( * ) SI_UNIT ( $, .METRE. ) );
#46 =( LENGTH_UNIT ( ) NAMED_UNIT ( * ) SI_UNIT ( $, .METRE. ) );
#47 = PRODUCT_DEFINITION_SHAPE ( 'NONE', 'NONE',  #90 ) ;
#48 = PRESENTATION_STYLE_ASSIGNMENT (( #57 ) ) ;
#49 = FILL_AREA_STYLE_COLOUR ( '', #122 ) ;
#50 = PRODUCT_DEFINITION_FORMATION_WITH_SPECIFIED_SOURCE ( 'ANY', '', #222, .NOT_KNOWN. ) ;
#51 = FILL_AREA_STYLE_COLOUR ( '', #37 ) ;
#52 = LENGTH_MEASURE_WITH_UNIT ( LENGTH_MEASURE( 0.02539999999999999897 ), #95 );
#53 = ADVANCED_FACE ( 'NONE', ( #297 ), #162, .T. ) ;
#54 = DIMENSIONAL_EXPONENTS ( 1.000000000000000000, 0.000000000000000000, 0.000000000000000000, 0.000000000000000000, 0.000000000000000000, 0.000000000000000000, 0.000000000000000000 ) ;
#55 = CIRCLE ( 'NONE', #257, 0.3125000000000000000 ) ;
#56 = DIRECTION ( 'NONE',  ( -0.000000000000000000, -1.000000000000000000, -0.000000000000000000 ) ) ;
#57 = SURFACE_STYLE_USAGE ( .BOTH. , #100 ) ;
#58 = CARTESIAN_POINT ( 'NONE',  ( 0.000000000000000000, 1.625000000000000000, -0.3125000000000000000 ) ) ;
#59 = VERTEX_POINT ( 'NONE', #185 ) ;
#60 = VERTEX_POINT ( 'NONE', #300 ) ;
#61 = CARTESIAN_POINT ( 'NONE',  ( 0.000000000000000000, 0.000000000000000000, 0.000000000000000000 ) ) ;
#62 =( NAMED_UNIT ( * ) PLANE_ANGLE_UNIT ( ) SI_UNIT ( $, .RADIAN. ) );
#63 = PRODUCT_CONTEXT ( 'NONE', #124, 'mechanical' ) ;
#64 = ORIENTED_EDGE ( 'NONE', *, *, #70, .F. ) ;
#65 = CARTESIAN_POINT ( 'NONE',  ( -6.123233995736759873E-17, 3.500000000000000000, 0.000000000000000000 ) ) ;
#66 = MECHANICAL_DESIGN_GEOMETRIC_PRESENTATION_REPRESENTATION (  '', ( #196 ), #266 ) ;
#67 = ORIENTED_EDGE ( 'NONE', *, *, #302, .T. ) ;
#68 =( NAMED_UNIT ( * ) PLANE_ANGLE_UNIT ( ) SI_UNIT ( $, .RADIAN. ) );
#69 = SURFACE_STYLE_USAGE ( .BOTH. , #22 ) ;
#70 = EDGE_CURVE ( 'NONE', #60, #177, #178, .T. ) ;
#71 =( CONVERSION_BASED_UNIT ( 'INCH', #115 ) LENGTH_UNIT ( ) NAMED_UNIT ( #153 ) );
#72 =( LENGTH_UNIT ( ) NAMED_UNIT ( * ) SI_UNIT ( $, .METRE. ) );
#73 = EDGE_CURVE ( 'NONE', #295, #177, #138, .T. ) ;
#74 = DIRECTION ( 'NONE',  ( -3.265724797726272713E-17, 1.000000000000000000, -0.000000000000000000 ) ) ;
#75 = UNCERTAINTY_MEASURE_WITH_UNIT (LENGTH_MEASURE( 1.000000000000000082E-05 ), #23, 'distance_accuracy_value', 'NONE');
#76 = AXIS2_PLACEMENT_3D ( 'NONE', #120, #221, #200 ) ;
#77 = STYLED_ITEM ( 'NONE', ( #309 ), #271 ) ;
#78 = FACE_OUTER_BOUND ( 'NONE', #256, .T. ) ;
#79 = FILL_AREA_STYLE ('',( #201 ) ) ;
#80 = SURFACE_STYLE_FILL_AREA ( #79 ) ;
#81 = DIRECTION ( 'NONE',  ( -3.265724797726272713E-17, 1.000000000000000000, -0.000000000000000000 ) ) ;
#82 = ADVANCED_FACE ( 'NONE', ( #259 ), #83, .F. ) ;
#83 = PLANE ( 'NONE',  #131 ) ;
#84 = DIRECTION ( 'NONE',  ( -3.265724797726272713E-17, 1.000000000000000000, -0.000000000000000000 ) ) ;
#85 = LINE ( 'NONE', #294, #150 ) ;
#86 = EDGE_LOOP ( 'NONE', ( #67, #250, #14, #254 ) ) ;
#87 = DIRECTION ( 'NONE',  ( -0.000000000000000000, -1.000000000000000000, -0.000000000000000000 ) ) ;
#88 = VERTEX_POINT ( 'NONE', #58 ) ;
#89 = CARTESIAN_POINT ( 'NONE',  ( 0.3124999999999999445, 3.500000000000000000, 3.827021247335478926E-17 ) ) ;
#90 = PRODUCT_DEFINITION ( 'UNKNOWN', '', #50, #289 ) ;
#91 = UNCERTAINTY_MEASURE_WITH_UNIT (LENGTH_MEASURE( 1.000000000000000082E-05 ), #71, 'distance_accuracy_value', 'NONE');
#92 =( NAMED_UNIT ( * ) SI_UNIT ( $, .STERADIAN. ) SOLID_ANGLE_UNIT ( ) );
#93 = CARTESIAN_POINT ( 'NONE',  ( 0.000000000000000000, 0.000000000000000000, 0.000000000000000000 ) ) ;
#94 = DIRECTION ( 'NONE',  ( -0.000000000000000000, -1.000000000000000000, -0.000000000000000000 ) ) ;
#95 =( LENGTH_UNIT ( ) NAMED_UNIT ( * ) SI_UNIT ( $, .METRE. ) );
#96 = DIRECTION ( 'NONE',  ( -3.265724797726272713E-17, 1.000000000000000000, -0.000000000000000000 ) ) ;
#97 = MECHANICAL_DESIGN_GEOMETRIC_PRESENTATION_REPRESENTATION (  '', ( #1 ), #305 ) ;
#98 = LENGTH_MEASURE_WITH_UNIT ( LENGTH_MEASURE( 0.02539999999999999897 ), #217 );
#99 = SURFACE_STYLE_FILL_AREA ( #149 ) ;
#100 = SURFACE_SIDE_STYLE ('',( #263 ) ) ;
#101 = EDGE_CURVE ( 'NONE', #113, #156, #121, .T. ) ;
#102 = CARTESIAN_POINT ( 'NONE',  ( 1.666399758513172697E-34, 1.625000000000000000, 0.000000000000000000 ) ) ;
#103 = FACE_OUTER_BOUND ( 'NONE', #118, .T. ) ;
#104 = LINE ( 'NONE', #132, #151 ) ;
#105 = EDGE_CURVE ( 'NONE', #88, #113, #273, .T. ) ;
#106 = ORIENTED_EDGE ( 'NONE', *, *, #73, .F. ) ;
#107 = CIRCLE ( 'NONE', #213, 0.3125000000000000555 ) ;
#108 = EDGE_LOOP ( 'NONE', ( #207, #182, #106, #130 ) ) ;
#109 = DIRECTION ( 'NONE',  ( -1.000000000000000000, 0.000000000000000000, 0.000000000000000000 ) ) ;
#110 = ORIENTED_EDGE ( 'NONE', *, *, #73, .T. ) ;
#111 = PLANE ( 'NONE',  #230 ) ;
#112 = SURFACE_SIDE_STYLE ('',( #42 ) ) ;
#113 = VERTEX_POINT ( 'NONE', #10 ) ;
#114 = SURFACE_STYLE_FILL_AREA ( #239 ) ;
#115 = LENGTH_MEASURE_WITH_UNIT ( LENGTH_MEASURE( 0.02539999999999999897 ), #45 );
#116 = STYLED_ITEM ( 'NONE', ( #30 ), #216 ) ;
#117 = DIRECTION ( 'NONE',  ( 0.000000000000000000, -1.000000000000000000, -0.000000000000000000 ) ) ;
#118 = EDGE_LOOP ( 'NONE', ( #110, #228 ) ) ;
#119 =( NAMED_UNIT ( * ) SI_UNIT ( $, .STERADIAN. ) SOLID_ANGLE_UNIT ( ) );
#120 = CARTESIAN_POINT ( 'NONE',  ( 7.582401355855259480E-33, 1.625000000000000000, 0.000000000000000000 ) ) ;
#121 = CIRCLE ( 'NONE', #167, 0.3125000000000000000 ) ;
#122 = COLOUR_RGB ( '',0.7921568627450980005, 0.8196078431372548767, 0.9333333333333333481 ) ;
#123 = CARTESIAN_POINT ( 'NONE',  ( -6.123233995736759873E-17, 3.500000000000000000, 0.000000000000000000 ) ) ;
#124 = APPLICATION_CONTEXT ( 'automotive_design' ) ;
#125 = CLOSED_SHELL ( 'NONE', ( #148, #215, #275, #271 ) ) ;
#126 = MECHANICAL_DESIGN_GEOMETRIC_PRESENTATION_REPRESENTATION (  '', ( #116 ), #27 ) ;
#127 = AXIS2_PLACEMENT_3D ( 'NONE', #93, #277, #39 ) ;
#128 = CARTESIAN_POINT ( 'NONE',  ( 0.000000000000000000, 0.000000000000000000, -0.3125000000000000000 ) ) ;
#129 = EDGE_CURVE ( 'NONE', #19, #295, #85, .T. ) ;
#130 = ORIENTED_EDGE ( 'NONE', *, *, #129, .F. ) ;
#131 = AXIS2_PLACEMENT_3D ( 'NONE', #102, #203, #293 ) ;
#132 = CARTESIAN_POINT ( 'NONE',  ( 3.827021247335478926E-17, 0.000000000000000000, 0.3125000000000000000 ) ) ;
#133 = PRESENTATION_LAYER_ASSIGNMENT (  '', '', ( #77 ) ) ;
#134 = ORIENTED_EDGE ( 'NONE', *, *, #251, .F. ) ;
#135 = FILL_AREA_STYLE ('',( #49 ) ) ;
#136 = DIRECTION ( 'NONE',  ( -1.000000000000000000, 0.000000000000000000, 0.000000000000000000 ) ) ;
#137 = SURFACE_STYLE_USAGE ( .BOTH. , #112 ) ;
#138 = CIRCLE ( 'NONE', #219, 0.3125000000000000555 ) ;
#139 = CIRCLE ( 'NONE', #168, 0.3125000000000000000 ) ;
#140 = DIRECTION ( 'NONE',  ( 0.000000000000000000, 0.000000000000000000, -1.000000000000000000 ) ) ;
#141 = LENGTH_MEASURE_WITH_UNIT ( LENGTH_MEASURE( 0.02539999999999999897 ), #265 );
#142 = UNCERTAINTY_MEASURE_WITH_UNIT (LENGTH_MEASURE( 1.000000000000000082E-05 ), #226, 'distance_accuracy_value', 'NONE');
#143 = FILL_AREA_STYLE_COLOUR ( '', #24 ) ;
#144 = SURFACE_SIDE_STYLE ('',( #80 ) ) ;
#145 = PRESENTATION_LAYER_ASSIGNMENT (  '', '', ( #116 ) ) ;
#146 =( GEOMETRIC_REPRESENTATION_CONTEXT ( 3 ) GLOBAL_UNCERTAINTY_ASSIGNED_CONTEXT ( ( #142 ) ) GLOBAL_UNIT_ASSIGNED_CONTEXT ( ( #226, #62, #296 ) ) REPRESENTATION_CONTEXT ( 'NONE', 'WORKASPACE' ) );
#147 = SURFACE_STYLE_USAGE ( .BOTH. , #144 ) ;
#148 = ADVANCED_FACE ( 'NONE', ( #181 ), #276, .T. ) ;
#149 = FILL_AREA_STYLE ('',( #262 ) ) ;
#150 = VECTOR ( 'NONE', #84, 39.37007874015748143 ) ;
#151 = VECTOR ( 'NONE', #208, 39.37007874015748143 ) ;
#152 = EDGE_LOOP ( 'NONE', ( #36, #33 ) ) ;
#153 = DIMENSIONAL_EXPONENTS ( 1.000000000000000000, 0.000000000000000000, 0.000000000000000000, 0.000000000000000000, 0.000000000000000000, 0.000000000000000000, 0.000000000000000000 ) ;
#154 = STYLED_ITEM ( 'NONE', ( #170 ), #215 ) ;
#155 =( NAMED_UNIT ( * ) SI_UNIT ( $, .STERADIAN. ) SOLID_ANGLE_UNIT ( ) );
#156 = VERTEX_POINT ( 'NONE', #193 ) ;
#157 = CARTESIAN_POINT ( 'NONE',  ( -0.3125000000000001665, 3.500000000000000000, 0.000000000000000000 ) ) ;
#158 = FILL_AREA_STYLE_COLOUR ( '', #269 ) ;
#159 = ORIENTED_EDGE ( 'NONE', *, *, #251, .T. ) ;
#160 = APPLICATION_PROTOCOL_DEFINITION ( 'draft international standard', 'automotive_design', 1998, #233 ) ;
#161 = CARTESIAN_POINT ( 'NONE',  ( 0.000000000000000000, 1.625000000000000000, 0.000000000000000000 ) ) ;
#162 = CYLINDRICAL_SURFACE ( 'NONE', #3, 0.3125000000000000000 ) ;
#163 = CYLINDRICAL_SURFACE ( 'NONE', #194, 0.3125000000000000000 ) ;
#164 =( GEOMETRIC_REPRESENTATION_CONTEXT ( 3 ) GLOBAL_UNCERTAINTY_ASSIGNED_CONTEXT ( ( #282 ) ) GLOBAL_UNIT_ASSIGNED_CONTEXT ( ( #26, #243, #28 ) ) REPRESENTATION_CONTEXT ( 'NONE', 'WORKASPACE' ) );
#165 = DIRECTION ( 'NONE',  ( -1.000000000000000000, 0.000000000000000000, 0.000000000000000000 ) ) ;
#166 = SURFACE_STYLE_USAGE ( .BOTH. , #169 ) ;
#167 = AXIS2_PLACEMENT_3D ( 'NONE', #12, #32, #176 ) ;
#168 = AXIS2_PLACEMENT_3D ( 'NONE', #25, #56, #248 ) ;
#169 = SURFACE_SIDE_STYLE ('',( #35 ) ) ;
#170 = PRESENTATION_STYLE_ASSIGNMENT (( #267 ) ) ;
#171 = CARTESIAN_POINT ( 'NONE',  ( -6.123233995736759873E-17, 3.500000000000000000, 0.000000000000000000 ) ) ;
#172 = DIMENSIONAL_EXPONENTS ( 1.000000000000000000, 0.000000000000000000, 0.000000000000000000, 0.000000000000000000, 0.000000000000000000, 0.000000000000000000, 0.000000000000000000 ) ;
#173 = SURFACE_SIDE_STYLE ('',( #99 ) ) ;
#174 = PRESENTATION_LAYER_ASSIGNMENT (  '', '', ( #1 ) ) ;
#175 = COLOUR_RGB ( '',0.7921568627450980005, 0.8196078431372548767, 0.9333333333333333481 ) ;
#176 = DIRECTION ( 'NONE',  ( 0.000000000000000000, 0.000000000000000000, -1.000000000000000000 ) ) ;
#177 = VERTEX_POINT ( 'NONE', #191 ) ;
#178 = LINE ( 'NONE', #89, #15 ) ;
#179 = CLOSED_SHELL ( 'NONE', ( #264, #82, #53, #308 ) ) ;
#180 = AXIS2_PLACEMENT_3D ( 'NONE', #20, #117, #140 ) ;
#181 = FACE_OUTER_BOUND ( 'NONE', #86, .T. ) ;
#182 = ORIENTED_EDGE ( 'NONE', *, *, #70, .T. ) ;
#183 = DIRECTION ( 'NONE',  ( 0.000000000000000000, 0.000000000000000000, -1.000000000000000000 ) ) ;
#184 = FILL_AREA_STYLE ('',( #51 ) ) ;
#185 = CARTESIAN_POINT ( 'NONE',  ( 3.827021247335478926E-17, 1.625000000000000000, 0.3125000000000000000 ) ) ;
#186 = EDGE_LOOP ( 'NONE', ( #260, #159 ) ) ;
#187 = LENGTH_MEASURE_WITH_UNIT ( LENGTH_MEASURE( 0.02539999999999999897 ), #307 );
#188 = PRESENTATION_LAYER_ASSIGNMENT (  '', '', ( #43 ) ) ;
#189 = APPLICATION_PROTOCOL_DEFINITION ( 'draft international standard', 'automotive_design', 1998, #124 ) ;
#190 = EDGE_CURVE ( 'NONE', #60, #19, #16, .T. ) ;
#191 = CARTESIAN_POINT ( 'NONE',  ( 0.3125000000000000000, 3.500000000000000000, 3.827021247335478926E-17 ) ) ;
#192 = PLANE ( 'NONE',  #180 ) ;
#193 = CARTESIAN_POINT ( 'NONE',  ( 3.827021247335478926E-17, 0.000000000000000000, 0.3125000000000000000 ) ) ;
#194 = AXIS2_PLACEMENT_3D ( 'NONE', #11, #87, #183 ) ;
#195 = CARTESIAN_POINT ( 'NONE',  ( 0.000000000000000000, 0.000000000000000000, 0.000000000000000000 ) ) ;
#196 = STYLED_ITEM ( 'NONE', ( #235 ), #212 ) ;
#197 = DIRECTION ( 'NONE',  ( -1.000000000000000000, 0.000000000000000000, 0.000000000000000000 ) ) ;
#198 =( CONVERSION_BASED_UNIT ( 'INCH', #98 ) LENGTH_UNIT ( ) NAMED_UNIT ( #199 ) );
#199 = DIMENSIONAL_EXPONENTS ( 1.000000000000000000, 0.000000000000000000, 0.000000000000000000, 0.000000000000000000, 0.000000000000000000, 0.000000000000000000, 0.000000000000000000 ) ;
#200 = DIRECTION ( 'NONE',  ( -1.000000000000000000, 0.000000000000000000, 0.000000000000000000 ) ) ;
#201 = FILL_AREA_STYLE_COLOUR ( '', #175 ) ;
#202 = MECHANICAL_DESIGN_GEOMETRIC_PRESENTATION_REPRESENTATION (  '', ( #77 ), #7 ) ;
#203 = DIRECTION ( 'NONE',  ( -3.265724797726272713E-17, 1.000000000000000000, 0.000000000000000000 ) ) ;
#204 = DIMENSIONAL_EXPONENTS ( 1.000000000000000000, 0.000000000000000000, 0.000000000000000000, 0.000000000000000000, 0.000000000000000000, 0.000000000000000000, 0.000000000000000000 ) ;
#205 = ORIENTED_EDGE ( 'NONE', *, *, #225, .T. ) ;
#206 = CARTESIAN_POINT ( 'NONE',  ( -6.123233995736759873E-17, 3.500000000000000000, 0.000000000000000000 ) ) ;
#207 = ORIENTED_EDGE ( 'NONE', *, *, #5, .T. ) ;
#208 = DIRECTION ( 'NONE',  ( -0.000000000000000000, -1.000000000000000000, -0.000000000000000000 ) ) ;
#209 = DIRECTION ( 'NONE',  ( -3.265724797726272713E-17, 1.000000000000000000, -0.000000000000000000 ) ) ;
#210 =( NAMED_UNIT ( * ) PLANE_ANGLE_UNIT ( ) SI_UNIT ( $, .RADIAN. ) );
#211 = CIRCLE ( 'NONE', #76, 0.3125000000000000000 ) ;
#212 = MANIFOLD_SOLID_BREP ( 'Revolve - Cutting Edge', #125 ) ;
#213 = AXIS2_PLACEMENT_3D ( 'NONE', #171, #96, #197 ) ;
#214 =( NAMED_UNIT ( * ) PLANE_ANGLE_UNIT ( ) SI_UNIT ( $, .RADIAN. ) );
#215 = ADVANCED_FACE ( 'NONE', ( #78 ), #241, .T. ) ;
#216 = MANIFOLD_SOLID_BREP ( 'Revolve - Tool Body (Straight Shanked)', #179 ) ;
#217 =( LENGTH_UNIT ( ) NAMED_UNIT ( * ) SI_UNIT ( $, .METRE. ) );
#218 = DIRECTION ( 'NONE',  ( 0.000000000000000000, -0.000000000000000000, 1.000000000000000000 ) ) ;
#219 = AXIS2_PLACEMENT_3D ( 'NONE', #65, #209, #165 ) ;
#220 = MECHANICAL_DESIGN_GEOMETRIC_PRESENTATION_REPRESENTATION (  '', ( #43 ), #284 ) ;
#221 = DIRECTION ( 'NONE',  ( -3.265724797726272713E-17, 1.000000000000000000, -0.000000000000000000 ) ) ;
#222 = PRODUCT ( '59851', '59851', '', ( #63 ) ) ;
#223 = DIRECTION ( 'NONE',  ( 0.000000000000000000, 0.000000000000000000, -1.000000000000000000 ) ) ;
#224 = AXIS2_PLACEMENT_3D ( 'NONE', #195, #94, #285 ) ;
#225 = EDGE_CURVE ( 'NONE', #59, #88, #139, .T. ) ;
#226 =( CONVERSION_BASED_UNIT ( 'INCH', #18 ) LENGTH_UNIT ( ) NAMED_UNIT ( #54 ) );
#227 = DIMENSIONAL_EXPONENTS ( 1.000000000000000000, 0.000000000000000000, 0.000000000000000000, 0.000000000000000000, 0.000000000000000000, 0.000000000000000000, 0.000000000000000000 ) ;
#228 = ORIENTED_EDGE ( 'NONE', *, *, #2, .T. ) ;
#229 = SHAPE_DEFINITION_REPRESENTATION ( #47, #13 ) ;
#230 = AXIS2_PLACEMENT_3D ( 'NONE', #303, #232, #9 ) ;
#231 = DIRECTION ( 'NONE',  ( -0.000000000000000000, -1.000000000000000000, -0.000000000000000000 ) ) ;
#232 = DIRECTION ( 'NONE',  ( 3.265724797726272713E-17, -1.000000000000000000, 0.000000000000000000 ) ) ;
#233 = APPLICATION_CONTEXT ( 'automotive_design' ) ;
#234 = FACE_OUTER_BOUND ( 'NONE', #186, .T. ) ;
#235 = PRESENTATION_STYLE_ASSIGNMENT (( #137 ) ) ;
#236 =( NAMED_UNIT ( * ) PLANE_ANGLE_UNIT ( ) SI_UNIT ( $, .RADIAN. ) );
#237 = EDGE_LOOP ( 'NONE', ( #64, #278, #274, #17 ) ) ;
#238 = UNCERTAINTY_MEASURE_WITH_UNIT (LENGTH_MEASURE( 1.000000000000000082E-05 ), #4, 'distance_accuracy_value', 'NONE');
#239 = FILL_AREA_STYLE ('',( #143 ) ) ;
#240 = AXIS2_PLACEMENT_3D ( 'NONE', #206, #81, #136 ) ;
#241 = PLANE ( 'NONE',  #298 ) ;
#242 = CARTESIAN_POINT ( 'NONE',  ( -0.3125000000000000000, 1.625000000000000000, 0.000000000000000000 ) ) ;
#243 =( NAMED_UNIT ( * ) PLANE_ANGLE_UNIT ( ) SI_UNIT ( $, .RADIAN. ) );
#244 = DIRECTION ( 'NONE',  ( -3.265724797726272713E-17, 1.000000000000000000, -0.000000000000000000 ) ) ;
#245 = AXIS2_PLACEMENT_3D ( 'NONE', #304, #74, #40 ) ;
#246 = ORIENTED_EDGE ( 'NONE', *, *, #225, .F. ) ;
#247 = FACE_OUTER_BOUND ( 'NONE', #41, .T. ) ;
#248 = DIRECTION ( 'NONE',  ( 0.000000000000000000, 0.000000000000000000, -1.000000000000000000 ) ) ;
#249 = DIRECTION ( 'NONE',  ( -0.000000000000000000, -1.000000000000000000, -0.000000000000000000 ) ) ;
#250 = ORIENTED_EDGE ( 'NONE', *, *, #281, .T. ) ;
#251 = EDGE_CURVE ( 'NONE', #156, #113, #306, .T. ) ;
#252 = FACE_OUTER_BOUND ( 'NONE', #108, .T. ) ;
#253 = FILL_AREA_STYLE ('',( #158 ) ) ;
#254 = ORIENTED_EDGE ( 'NONE', *, *, #105, .F. ) ;
#255 = DIRECTION ( 'NONE',  ( 0.000000000000000000, 0.000000000000000000, -1.000000000000000000 ) ) ;
#256 = EDGE_LOOP ( 'NONE', ( #301, #246 ) ) ;
#257 = AXIS2_PLACEMENT_3D ( 'NONE', #161, #258, #255 ) ;
#258 = DIRECTION ( 'NONE',  ( -0.000000000000000000, -1.000000000000000000, -0.000000000000000000 ) ) ;
#259 = FACE_OUTER_BOUND ( 'NONE', #152, .T. ) ;
#260 = ORIENTED_EDGE ( 'NONE', *, *, #101, .T. ) ;
#261 =( CONVERSION_BASED_UNIT ( 'INCH', #187 ) LENGTH_UNIT ( ) NAMED_UNIT ( #227 ) );
#262 = FILL_AREA_STYLE_COLOUR ( '', #291 ) ;
#263 = SURFACE_STYLE_FILL_AREA ( #184 ) ;
#264 = ADVANCED_FACE ( 'NONE', ( #252 ), #292, .T. ) ;
#265 =( LENGTH_UNIT ( ) NAMED_UNIT ( * ) SI_UNIT ( $, .METRE. ) );
#266 =( GEOMETRIC_REPRESENTATION_CONTEXT ( 3 ) GLOBAL_UNCERTAINTY_ASSIGNED_CONTEXT ( ( #91 ) ) GLOBAL_UNIT_ASSIGNED_CONTEXT ( ( #71, #236, #21 ) ) REPRESENTATION_CONTEXT ( 'NONE', 'WORKASPACE' ) );
#267 = SURFACE_STYLE_USAGE ( .BOTH. , #173 ) ;
#268 =( NAMED_UNIT ( * ) PLANE_ANGLE_UNIT ( ) SI_UNIT ( $, .RADIAN. ) );
#269 = COLOUR_RGB ( '',1.000000000000000000, 0.000000000000000000, 0.000000000000000000 ) ;
#270 = PRESENTATION_LAYER_ASSIGNMENT (  '', '', ( #154 ) ) ;
#271 = ADVANCED_FACE ( 'NONE', ( #234 ), #192, .T. ) ;
#272 = LENGTH_MEASURE_WITH_UNIT ( LENGTH_MEASURE( 0.02539999999999999897 ), #46 );
#273 = LINE ( 'NONE', #128, #283 ) ;
#274 = ORIENTED_EDGE ( 'NONE', *, *, #129, .T. ) ;
#275 = ADVANCED_FACE ( 'NONE', ( #247 ), #163, .T. ) ;
#276 = CYLINDRICAL_SURFACE ( 'NONE', #224, 0.3125000000000000000 ) ;
#277 = DIRECTION ( 'NONE',  ( 0.000000000000000000, 0.000000000000000000, 1.000000000000000000 ) ) ;
#278 = ORIENTED_EDGE ( 'NONE', *, *, #190, .T. ) ;
#279 = MECHANICAL_DESIGN_GEOMETRIC_PRESENTATION_REPRESENTATION (  '', ( #154 ), #164 ) ;
#280 = PRESENTATION_STYLE_ASSIGNMENT (( #166 ) ) ;
#281 = EDGE_CURVE ( 'NONE', #59, #156, #104, .T. ) ;
#282 = UNCERTAINTY_MEASURE_WITH_UNIT (LENGTH_MEASURE( 1.000000000000000082E-05 ), #26, 'distance_accuracy_value', 'NONE');
#283 = VECTOR ( 'NONE', #249, 39.37007874015748143 ) ;
#284 =( GEOMETRIC_REPRESENTATION_CONTEXT ( 3 ) GLOBAL_UNCERTAINTY_ASSIGNED_CONTEXT ( ( #238 ) ) GLOBAL_UNIT_ASSIGNED_CONTEXT ( ( #4, #210, #34 ) ) REPRESENTATION_CONTEXT ( 'NONE', 'WORKASPACE' ) );
#285 = DIRECTION ( 'NONE',  ( 0.000000000000000000, 0.000000000000000000, -1.000000000000000000 ) ) ;
#286 = UNCERTAINTY_MEASURE_WITH_UNIT (LENGTH_MEASURE( 1.000000000000000082E-05 ), #198, 'distance_accuracy_value', 'NONE');
#287 = PRESENTATION_LAYER_ASSIGNMENT (  '', '', ( #196 ) ) ;
#288 = PRODUCT_RELATED_PRODUCT_CATEGORY ( 'part', '', ( #222 ) ) ;
#289 = PRODUCT_DEFINITION_CONTEXT ( 'detailed design', #233, 'design' ) ;
#290 = DIRECTION ( 'NONE',  ( 0.000000000000000000, 1.000000000000000000, 0.000000000000000000 ) ) ;
#291 = COLOUR_RGB ( '',1.000000000000000000, 0.000000000000000000, 0.000000000000000000 ) ;
#292 = CYLINDRICAL_SURFACE ( 'NONE', #240, 0.3125000000000000000 ) ;
#293 = DIRECTION ( 'NONE',  ( -1.000000000000000000, -3.265724797726272713E-17, 0.000000000000000000 ) ) ;
#294 = CARTESIAN_POINT ( 'NONE',  ( -0.3125000000000000555, 3.500000000000000000, 0.000000000000000000 ) ) ;
#295 = VERTEX_POINT ( 'NONE', #157 ) ;
#296 =( NAMED_UNIT ( * ) SI_UNIT ( $, .STERADIAN. ) SOLID_ANGLE_UNIT ( ) );
#297 = FACE_OUTER_BOUND ( 'NONE', #237, .T. ) ;
#298 = AXIS2_PLACEMENT_3D ( 'NONE', #6, #290, #218 ) ;
#299 = ORIENTED_EDGE ( 'NONE', *, *, #105, .T. ) ;
#300 = CARTESIAN_POINT ( 'NONE',  ( 0.3125000000000000000, 1.625000000000000000, 3.827021247335478926E-17 ) ) ;
#301 = ORIENTED_EDGE ( 'NONE', *, *, #302, .F. ) ;
#302 = EDGE_CURVE ( 'NONE', #88, #59, #55, .T. ) ;
#303 = CARTESIAN_POINT ( 'NONE',  ( 0.3125000000000000000, 3.500000000000000000, 0.000000000000000000 ) ) ;
#304 = CARTESIAN_POINT ( 'NONE',  ( 7.582401355855259480E-33, 1.625000000000000000, 0.000000000000000000 ) ) ;
#305 =( GEOMETRIC_REPRESENTATION_CONTEXT ( 3 ) GLOBAL_UNCERTAINTY_ASSIGNED_CONTEXT ( ( #75 ) ) GLOBAL_UNIT_ASSIGNED_CONTEXT ( ( #23, #214, #119 ) ) REPRESENTATION_CONTEXT ( 'NONE', 'WORKASPACE' ) );
#306 = CIRCLE ( 'NONE', #31, 0.3125000000000000000 ) ;
#307 =( LENGTH_UNIT ( ) NAMED_UNIT ( * ) SI_UNIT ( $, .METRE. ) );
#308 = ADVANCED_FACE ( 'NONE', ( #103 ), #111, .F. ) ;
#309 = PRESENTATION_STYLE_ASSIGNMENT (( #69 ) ) ;
ENDSEC;
END-ISO-10303-21;
