ISO-10303-21;
HEADER;
FILE_DESCRIPTION (( 'STEP AP214' ),
    '1' );
FILE_NAME ('59569.STEP',
    '2023-07-24T15:11:41',
    ( '' ),
    ( '' ),
    'SwSTEP 2.0',
    'SolidWorks 2023',
    '' );
FILE_SCHEMA (( 'AUTOMOTIVE_DESIGN' ));
ENDSEC;

DATA;
#1 = PRODUCT_DEFINITION ( 'UNKNOWN', '', #242, #204 ) ;
#2 = DIRECTION ( 'NONE',  ( -0.000000000000000000, -1.000000000000000000, -0.000000000000000000 ) ) ;
#3 = COLOUR_RGB ( '',1.000000000000000000, 0.000000000000000000, 0.000000000000000000 ) ;
#4 = MECHANICAL_DESIGN_GEOMETRIC_PRESENTATION_REPRESENTATION (  '', ( #272 ), #228 ) ;
#5 = UNCERTAINTY_MEASURE_WITH_UNIT (LENGTH_MEASURE( 1.000000000000000082E-05 ), #234, 'distance_accuracy_value', 'NONE');
#6 =( NAMED_UNIT ( * ) PLANE_ANGLE_UNIT ( ) SI_UNIT ( $, .RADIAN. ) );
#7 = CARTESIAN_POINT ( 'NONE',  ( 1.409462824231155764E-14, 18.00000000000000355, 0.000000000000000000 ) ) ;
#8 = LINE ( 'NONE', #216, #209 ) ;
#9 = UNCERTAINTY_MEASURE_WITH_UNIT (LENGTH_MEASURE( 1.000000000000000082E-05 ), #219, 'distance_accuracy_value', 'NONE');
#10 = DIRECTION ( 'NONE',  ( -1.444848463910660280E-16, 1.000000000000000000, -0.000000000000000000 ) ) ;
#11 = PRESENTATION_LAYER_ASSIGNMENT (  '', '', ( #263 ) ) ;
#12 = SURFACE_STYLE_USAGE ( .BOTH. , #349 ) ;
#13 = ADVANCED_FACE ( 'NONE', ( #189 ), #207, .F. ) ;
#14 = AXIS2_PLACEMENT_3D ( 'NONE', #169, #287, #256 ) ;
#15 = CIRCLE ( 'NONE', #86, 2.999999999999999112 ) ;
#16 = COLOUR_RGB ( '',0.7921568627450980005, 0.8196078431372548767, 0.9333333333333333481 ) ;
#17 = ORIENTED_EDGE ( 'NONE', *, *, #172, .T. ) ;
#18 = UNCERTAINTY_MEASURE_WITH_UNIT (LENGTH_MEASURE( 1.000000000000000082E-05 ), #32, 'distance_accuracy_value', 'NONE');
#19 = FACE_OUTER_BOUND ( 'NONE', #300, .T. ) ;
#20 = EDGE_CURVE ( 'NONE', #273, #180, #193, .T. ) ;
#21 = DIRECTION ( 'NONE',  ( 1.000000000000000000, 1.444848463910660280E-16, 0.000000000000000000 ) ) ;
#22 = FILL_AREA_STYLE ('',( #146 ) ) ;
#23 = SURFACE_STYLE_USAGE ( .BOTH. , #156 ) ;
#24 = SURFACE_STYLE_FILL_AREA ( #107 ) ;
#25 =( NAMED_UNIT ( * ) PLANE_ANGLE_UNIT ( ) SI_UNIT ( $, .RADIAN. ) );
#26 = CYLINDRICAL_SURFACE ( 'NONE', #131, 2.999999999999988454 ) ;
#27 = DIRECTION ( 'NONE',  ( 0.000000000000000000, 0.000000000000000000, -1.000000000000000000 ) ) ;
#28 = FILL_AREA_STYLE_COLOUR ( '', #151 ) ;
#29 = AXIS2_PLACEMENT_3D ( 'NONE', #109, #70, #283 ) ;
#30 = SURFACE_STYLE_USAGE ( .BOTH. , #237 ) ;
#31 =( GEOMETRIC_REPRESENTATION_CONTEXT ( 3 ) GLOBAL_UNCERTAINTY_ASSIGNED_CONTEXT ( ( #145 ) ) GLOBAL_UNIT_ASSIGNED_CONTEXT ( ( #125, #25, #159 ) ) REPRESENTATION_CONTEXT ( 'NONE', 'WORKASPACE' ) );
#32 =( LENGTH_UNIT ( ) NAMED_UNIT ( * ) SI_UNIT ( .MILLI., .METRE. ) );
#33 = CLOSED_SHELL ( 'NONE', ( #165, #194, #124, #238, #217, #316 ) ) ;
#34 = DIRECTION ( 'NONE',  ( -0.000000000000000000, -1.000000000000000000, -0.000000000000000000 ) ) ;
#35 = FILL_AREA_STYLE_COLOUR ( '', #171 ) ;
#36 = CIRCLE ( 'NONE', #279, 2.999999999999999112 ) ;
#37 = FACE_OUTER_BOUND ( 'NONE', #326, .T. ) ;
#38 = EDGE_CURVE ( 'NONE', #140, #54, #203, .T. ) ;
#39 = CARTESIAN_POINT ( 'NONE',  ( 3.673940397442058389E-16, 0.5000000000000000000, 2.999999999999999112 ) ) ;
#40 = ORIENTED_EDGE ( 'NONE', *, *, #188, .T. ) ;
#41 = ADVANCED_BREP_SHAPE_REPRESENTATION ( '59569', ( #352, #222, #48 ), #179 ) ;
#42 = SURFACE_STYLE_FILL_AREA ( #291 ) ;
#43 = DIRECTION ( 'NONE',  ( -1.444848463910660280E-16, 1.000000000000000000, -0.000000000000000000 ) ) ;
#44 =( GEOMETRIC_REPRESENTATION_CONTEXT ( 3 ) GLOBAL_UNCERTAINTY_ASSIGNED_CONTEXT ( ( #9 ) ) GLOBAL_UNIT_ASSIGNED_CONTEXT ( ( #219, #6, #93 ) ) REPRESENTATION_CONTEXT ( 'NONE', 'WORKASPACE' ) );
#45 = ORIENTED_EDGE ( 'NONE', *, *, #276, .F. ) ;
#46 = EDGE_CURVE ( 'NONE', #149, #221, #213, .T. ) ;
#47 =( NAMED_UNIT ( * ) PLANE_ANGLE_UNIT ( ) SI_UNIT ( $, .RADIAN. ) );
#48 = AXIS2_PLACEMENT_3D ( 'NONE', #117, #72, #168 ) ;
#49 = CIRCLE ( 'NONE', #319, 0.5000000000000004441 ) ;
#50 = CARTESIAN_POINT ( 'NONE',  ( 2.999999999999999112, 63.00000000000000000, 0.000000000000000000 ) ) ;
#51 = MECHANICAL_DESIGN_GEOMETRIC_PRESENTATION_REPRESENTATION (  '', ( #345 ), #31 ) ;
#52 =( NAMED_UNIT ( * ) PLANE_ANGLE_UNIT ( ) SI_UNIT ( $, .RADIAN. ) );
#53 = PRODUCT_CONTEXT ( 'NONE', #370, 'mechanical' ) ;
#54 = VERTEX_POINT ( 'NONE', #39 ) ;
#55 = SURFACE_SIDE_STYLE ('',( #335 ) ) ;
#56 = ORIENTED_EDGE ( 'NONE', *, *, #116, .F. ) ;
#57 = VERTEX_POINT ( 'NONE', #135 ) ;
#58 = AXIS2_PLACEMENT_3D ( 'NONE', #215, #359, #27 ) ;
#59 = CARTESIAN_POINT ( 'NONE',  ( 0.000000000000000000, 0.5000000000000000000, 0.000000000000000000 ) ) ;
#60 = SURFACE_SIDE_STYLE ('',( #313 ) ) ;
#61 =( LENGTH_UNIT ( ) NAMED_UNIT ( * ) SI_UNIT ( .MILLI., .METRE. ) );
#62 = CARTESIAN_POINT ( 'NONE',  ( 0.000000000000000000, 0.5000000000000000000, 0.000000000000000000 ) ) ;
#63 = ADVANCED_FACE ( 'NONE', ( #199 ), #26, .T. ) ;
#64 = SURFACE_SIDE_STYLE ('',( #342 ) ) ;
#65 = MECHANICAL_DESIGN_GEOMETRIC_PRESENTATION_REPRESENTATION (  '', ( #263 ), #254 ) ;
#66 = CARTESIAN_POINT ( 'NONE',  ( 0.000000000000000000, 18.00000000000000355, -2.999999999999999112 ) ) ;
#67 = AXIS2_PLACEMENT_3D ( 'NONE', #175, #170, #317 ) ;
#68 = DIRECTION ( 'NONE',  ( -1.000000000000000000, 0.000000000000000000, 0.000000000000000000 ) ) ;
#69 = SURFACE_STYLE_USAGE ( .BOTH. , #64 ) ;
#70 = DIRECTION ( 'NONE',  ( -0.000000000000000000, -1.000000000000000000, -0.000000000000000000 ) ) ;
#71 = ORIENTED_EDGE ( 'NONE', *, *, #343, .F. ) ;
#72 = DIRECTION ( 'NONE',  ( 0.000000000000000000, 0.000000000000000000, 1.000000000000000000 ) ) ;
#73 = CARTESIAN_POINT ( 'NONE',  ( 1.409462824231155764E-14, 18.00000000000000355, 0.000000000000000000 ) ) ;
#74 = EDGE_CURVE ( 'NONE', #155, #57, #147, .T. ) ;
#75 = APPLICATION_CONTEXT ( 'automotive_design' ) ;
#76 = PRESENTATION_STYLE_ASSIGNMENT (( #12 ) ) ;
#77 = APPLICATION_PROTOCOL_DEFINITION ( 'draft international standard', 'automotive_design', 1998, #370 ) ;
#78 = DIRECTION ( 'NONE',  ( 0.000000000000000000, 0.000000000000000000, -1.000000000000000000 ) ) ;
#79 = EDGE_LOOP ( 'NONE', ( #295, #290, #299, #127 ) ) ;
#80 = CARTESIAN_POINT ( 'NONE',  ( 0.000000000000000000, 0.5000000000000000000, 0.000000000000000000 ) ) ;
#81 = ORIENTED_EDGE ( 'NONE', *, *, #269, .F. ) ;
#82 = DIRECTION ( 'NONE',  ( -1.444848463910660280E-16, 1.000000000000000000, -0.000000000000000000 ) ) ;
#83 = ORIENTED_EDGE ( 'NONE', *, *, #38, .T. ) ;
#84 = EDGE_LOOP ( 'NONE', ( #182, #71 ) ) ;
#85 = DIRECTION ( 'NONE',  ( 1.000000000000000000, 0.000000000000000000, -1.224646799147353207E-16 ) ) ;
#86 = AXIS2_PLACEMENT_3D ( 'NONE', #174, #265, #296 ) ;
#87 = PRESENTATION_STYLE_ASSIGNMENT (( #108 ) ) ;
#88 = EDGE_CURVE ( 'NONE', #221, #149, #286, .T. ) ;
#89 = DIRECTION ( 'NONE',  ( -1.000000000000000000, -1.444848463910660280E-16, 0.000000000000000000 ) ) ;
#90 = PRESENTATION_STYLE_ASSIGNMENT (( #247 ) ) ;
#91 = SURFACE_SIDE_STYLE ('',( #246 ) ) ;
#92 = STYLED_ITEM ( 'NONE', ( #271 ), #217 ) ;
#93 =( NAMED_UNIT ( * ) SI_UNIT ( $, .STERADIAN. ) SOLID_ANGLE_UNIT ( ) );
#94 = DIRECTION ( 'NONE',  ( -0.000000000000000000, -1.000000000000000000, -0.000000000000000000 ) ) ;
#95 = MECHANICAL_DESIGN_GEOMETRIC_PRESENTATION_REPRESENTATION (  '', ( #92 ), #346 ) ;
#96 =( NAMED_UNIT ( * ) PLANE_ANGLE_UNIT ( ) SI_UNIT ( $, .RADIAN. ) );
#97 = SURFACE_STYLE_FILL_AREA ( #101 ) ;
#98 =( LENGTH_UNIT ( ) NAMED_UNIT ( * ) SI_UNIT ( .MILLI., .METRE. ) );
#99 = UNCERTAINTY_MEASURE_WITH_UNIT (LENGTH_MEASURE( 1.000000000000000082E-05 ), #61, 'distance_accuracy_value', 'NONE');
#100 = ORIENTED_EDGE ( 'NONE', *, *, #46, .T. ) ;
#101 = FILL_AREA_STYLE ('',( #224 ) ) ;
#102 = VECTOR ( 'NONE', #267, 1000.000000000000000 ) ;
#103 = CIRCLE ( 'NONE', #307, 2.999999999999991562 ) ;
#104 = EDGE_LOOP ( 'NONE', ( #344, #40, #292, #336 ) ) ;
#105 = AXIS2_PLACEMENT_3D ( 'NONE', #73, #10, #323 ) ;
#106 = CARTESIAN_POINT ( 'NONE',  ( 3.673940397442058882E-16, 0.000000000000000000, 2.999999999999999112 ) ) ;
#107 = FILL_AREA_STYLE ('',( #268 ) ) ;
#108 = SURFACE_STYLE_USAGE ( .BOTH. , #60 ) ;
#109 = CARTESIAN_POINT ( 'NONE',  ( 0.000000000000000000, 0.000000000000000000, 0.000000000000000000 ) ) ;
#110 = PRESENTATION_LAYER_ASSIGNMENT (  '', '', ( #92 ) ) ;
#111 = DIRECTION ( 'NONE',  ( 0.000000000000000000, -0.000000000000000000, 1.000000000000000000 ) ) ;
#112 = PRESENTATION_STYLE_ASSIGNMENT (( #69 ) ) ;
#113 = DIRECTION ( 'NONE',  ( -1.000000000000000000, 0.000000000000000000, 0.000000000000000000 ) ) ;
#114 = PRESENTATION_LAYER_ASSIGNMENT (  '', '', ( #272 ) ) ;
#115 = CARTESIAN_POINT ( 'NONE',  ( 1.409462824231155764E-14, 18.00000000000000355, 0.000000000000000000 ) ) ;
#116 = EDGE_CURVE ( 'NONE', #261, #270, #200, .T. ) ;
#117 = CARTESIAN_POINT ( 'NONE',  ( 0.000000000000000000, 0.000000000000000000, 0.000000000000000000 ) ) ;
#118 = DIRECTION ( 'NONE',  ( -1.000000000000000000, 0.000000000000000000, 0.000000000000000000 ) ) ;
#119 = FACE_OUTER_BOUND ( 'NONE', #364, .T. ) ;
#120 = ORIENTED_EDGE ( 'NONE', *, *, #88, .F. ) ;
#121 = ORIENTED_EDGE ( 'NONE', *, *, #206, .T. ) ;
#122 = MECHANICAL_DESIGN_GEOMETRIC_PRESENTATION_REPRESENTATION (  '', ( #366 ), #363 ) ;
#123 = PRESENTATION_STYLE_ASSIGNMENT (( #304 ) ) ;
#124 = ADVANCED_FACE ( 'NONE', ( #119 ), #285, .T. ) ;
#125 =( LENGTH_UNIT ( ) NAMED_UNIT ( * ) SI_UNIT ( .MILLI., .METRE. ) );
#126 = AXIS2_PLACEMENT_3D ( 'NONE', #62, #34, #197 ) ;
#127 = ORIENTED_EDGE ( 'NONE', *, *, #188, .F. ) ;
#128 =( NAMED_UNIT ( * ) PLANE_ANGLE_UNIT ( ) SI_UNIT ( $, .RADIAN. ) );
#129 = STYLED_ITEM ( 'NONE', ( #123 ), #194 ) ;
#130 = CARTESIAN_POINT ( 'NONE',  ( 0.000000000000000000, 0.5000000000000000000, -2.499999999999998668 ) ) ;
#131 = AXIS2_PLACEMENT_3D ( 'NONE', #240, #186, #303 ) ;
#132 = UNCERTAINTY_MEASURE_WITH_UNIT (LENGTH_MEASURE( 1.000000000000000082E-05 ), #143, 'distance_accuracy_value', 'NONE');
#133 = CIRCLE ( 'NONE', #178, 2.999999999999999112 ) ;
#134 =( NAMED_UNIT ( * ) SI_UNIT ( $, .STERADIAN. ) SOLID_ANGLE_UNIT ( ) );
#135 = CARTESIAN_POINT ( 'NONE',  ( 2.999999999999999556, 63.00000000000000000, 3.673940397442047542E-16 ) ) ;
#136 = EDGE_CURVE ( 'NONE', #273, #140, #257, .T. ) ;
#137 = FACE_OUTER_BOUND ( 'NONE', #334, .T. ) ;
#138 = AXIS2_PLACEMENT_3D ( 'NONE', #347, #43, #118 ) ;
#139 =( NAMED_UNIT ( * ) SI_UNIT ( $, .STERADIAN. ) SOLID_ANGLE_UNIT ( ) );
#140 = VERTEX_POINT ( 'NONE', #230 ) ;
#141 = AXIS2_PLACEMENT_3D ( 'NONE', #157, #277, #111 ) ;
#142 = ORIENTED_EDGE ( 'NONE', *, *, #74, .F. ) ;
#143 =( LENGTH_UNIT ( ) NAMED_UNIT ( * ) SI_UNIT ( .MILLI., .METRE. ) );
#144 = ADVANCED_FACE ( 'NONE', ( #19 ), #355, .T. ) ;
#145 = UNCERTAINTY_MEASURE_WITH_UNIT (LENGTH_MEASURE( 1.000000000000000082E-05 ), #125, 'distance_accuracy_value', 'NONE');
#146 = FILL_AREA_STYLE_COLOUR ( '', #198 ) ;
#147 = CIRCLE ( 'NONE', #225, 2.999999999999991562 ) ;
#148 = DIRECTION ( 'NONE',  ( 0.000000000000000000, 0.000000000000000000, -1.000000000000000000 ) ) ;
#149 = VERTEX_POINT ( 'NONE', #252 ) ;
#150 = DIRECTION ( 'NONE',  ( 0.000000000000000000, 0.000000000000000000, -1.000000000000000000 ) ) ;
#151 = COLOUR_RGB ( '',1.000000000000000000, 0.000000000000000000, 0.000000000000000000 ) ;
#152 = TOROIDAL_SURFACE ( 'NONE', #126, 2.499999999999998668, 0.5000000000000002220 ) ;
#153 = EDGE_LOOP ( 'NONE', ( #121, #17, #120, #315 ) ) ;
#154 = CARTESIAN_POINT ( 'NONE',  ( 0.000000000000000000, 0.000000000000000000, 0.000000000000000000 ) ) ;
#155 = VERTEX_POINT ( 'NONE', #201 ) ;
#156 = SURFACE_SIDE_STYLE ('',( #24 ) ) ;
#157 = CARTESIAN_POINT ( 'NONE',  ( 0.000000000000000000, 18.00000000000000355, 0.000000000000000000 ) ) ;
#158 = PRODUCT ( '59569', '59569', '', ( #53 ) ) ;
#159 =( NAMED_UNIT ( * ) SI_UNIT ( $, .STERADIAN. ) SOLID_ANGLE_UNIT ( ) );
#160 = CIRCLE ( 'NONE', #301, 0.5000000000000004441 ) ;
#161 = DIRECTION ( 'NONE',  ( -1.444848463910660280E-16, 1.000000000000000000, -0.000000000000000000 ) ) ;
#162 =( NAMED_UNIT ( * ) PLANE_ANGLE_UNIT ( ) SI_UNIT ( $, .RADIAN. ) );
#163 = CARTESIAN_POINT ( 'NONE',  ( 0.000000000000000000, 0.000000000000000000, 0.000000000000000000 ) ) ;
#164 = FACE_OUTER_BOUND ( 'NONE', #104, .T. ) ;
#165 = ADVANCED_FACE ( 'NONE', ( #137 ), #226, .T. ) ;
#166 = TOROIDAL_SURFACE ( 'NONE', #58, 2.499999999999998668, 0.5000000000000002220 ) ;
#167 =( LENGTH_UNIT ( ) NAMED_UNIT ( * ) SI_UNIT ( .MILLI., .METRE. ) );
#168 = DIRECTION ( 'NONE',  ( 1.000000000000000000, 0.000000000000000000, 0.000000000000000000 ) ) ;
#169 = CARTESIAN_POINT ( 'NONE',  ( 0.000000000000000000, 0.000000000000000000, 0.000000000000000000 ) ) ;
#170 = DIRECTION ( 'NONE',  ( -0.000000000000000000, -1.000000000000000000, -0.000000000000000000 ) ) ;
#171 = COLOUR_RGB ( '',1.000000000000000000, 0.000000000000000000, 0.000000000000000000 ) ;
#172 = EDGE_CURVE ( 'NONE', #54, #149, #160, .T. ) ;
#173 = AXIS2_PLACEMENT_3D ( 'NONE', #50, #264, #21 ) ;
#174 = CARTESIAN_POINT ( 'NONE',  ( 0.000000000000000000, 18.00000000000000355, 0.000000000000000000 ) ) ;
#175 = CARTESIAN_POINT ( 'NONE',  ( 0.000000000000000000, 18.00000000000000355, 0.000000000000000000 ) ) ;
#176 = EDGE_CURVE ( 'NONE', #261, #57, #190, .T. ) ;
#177 = FACE_OUTER_BOUND ( 'NONE', #153, .T. ) ;
#178 = AXIS2_PLACEMENT_3D ( 'NONE', #80, #181, #150 ) ;
#179 =( GEOMETRIC_REPRESENTATION_CONTEXT ( 3 ) GLOBAL_UNCERTAINTY_ASSIGNED_CONTEXT ( ( #318 ) ) GLOBAL_UNIT_ASSIGNED_CONTEXT ( ( #245, #162, #310 ) ) REPRESENTATION_CONTEXT ( 'NONE', 'WORKASPACE' ) );
#180 = VERTEX_POINT ( 'NONE', #293 ) ;
#181 = DIRECTION ( 'NONE',  ( -0.000000000000000000, -1.000000000000000000, -0.000000000000000000 ) ) ;
#182 = ORIENTED_EDGE ( 'NONE', *, *, #136, .F. ) ;
#183 = PRESENTATION_LAYER_ASSIGNMENT (  '', '', ( #220 ) ) ;
#184 = ORIENTED_EDGE ( 'NONE', *, *, #74, .T. ) ;
#185 =( NAMED_UNIT ( * ) SI_UNIT ( $, .STERADIAN. ) SOLID_ANGLE_UNIT ( ) );
#186 = DIRECTION ( 'NONE',  ( -1.444848463910660280E-16, 1.000000000000000000, -0.000000000000000000 ) ) ;
#187 = AXIS2_PLACEMENT_3D ( 'NONE', #154, #214, #327 ) ;
#188 = EDGE_CURVE ( 'NONE', #54, #180, #133, .T. ) ;
#189 = FACE_OUTER_BOUND ( 'NONE', #275, .T. ) ;
#190 = LINE ( 'NONE', #369, #337 ) ;
#191 =( NAMED_UNIT ( * ) PLANE_ANGLE_UNIT ( ) SI_UNIT ( $, .RADIAN. ) );
#192 = CARTESIAN_POINT ( 'NONE',  ( 0.000000000000000000, 0.000000000000000000, -2.499999999999998668 ) ) ;
#193 = LINE ( 'NONE', #223, #102 ) ;
#194 = ADVANCED_FACE ( 'NONE', ( #177 ), #166, .T. ) ;
#195 =( NAMED_UNIT ( * ) SI_UNIT ( $, .STERADIAN. ) SOLID_ANGLE_UNIT ( ) );
#196 = PRESENTATION_LAYER_ASSIGNMENT (  '', '', ( #366 ) ) ;
#197 = DIRECTION ( 'NONE',  ( 0.000000000000000000, 0.000000000000000000, -1.000000000000000000 ) ) ;
#198 = COLOUR_RGB ( '',0.7921568627450980005, 0.8196078431372548767, 0.9333333333333333481 ) ;
#199 = FACE_OUTER_BOUND ( 'NONE', #229, .T. ) ;
#200 = CIRCLE ( 'NONE', #105, 2.999999999999984457 ) ;
#201 = CARTESIAN_POINT ( 'NONE',  ( -2.999999999999983569, 63.00000000000000000, 0.000000000000000000 ) ) ;
#202 =( GEOMETRIC_REPRESENTATION_CONTEXT ( 3 ) GLOBAL_UNCERTAINTY_ASSIGNED_CONTEXT ( ( #132 ) ) GLOBAL_UNIT_ASSIGNED_CONTEXT ( ( #143, #128, #208 ) ) REPRESENTATION_CONTEXT ( 'NONE', 'WORKASPACE' ) );
#203 = LINE ( 'NONE', #106, #357 ) ;
#204 = PRODUCT_DEFINITION_CONTEXT ( 'detailed design', #75, 'design' ) ;
#205 = DIRECTION ( 'NONE',  ( 0.000000000000000000, -1.000000000000000000, -0.000000000000000000 ) ) ;
#206 = EDGE_CURVE ( 'NONE', #180, #54, #36, .T. ) ;
#207 = PLANE ( 'NONE',  #173 ) ;
#208 =( NAMED_UNIT ( * ) SI_UNIT ( $, .STERADIAN. ) SOLID_ANGLE_UNIT ( ) );
#209 = VECTOR ( 'NONE', #322, 1000.000000000000000 ) ;
#210 = AXIS2_PLACEMENT_3D ( 'NONE', #163, #2, #306 ) ;
#211 = ORIENTED_EDGE ( 'NONE', *, *, #116, .T. ) ;
#212 = ORIENTED_EDGE ( 'NONE', *, *, #20, .F. ) ;
#213 = CIRCLE ( 'NONE', #29, 2.499999999999998668 ) ;
#214 = DIRECTION ( 'NONE',  ( -0.000000000000000000, -1.000000000000000000, -0.000000000000000000 ) ) ;
#215 = CARTESIAN_POINT ( 'NONE',  ( 0.000000000000000000, 0.5000000000000000000, 0.000000000000000000 ) ) ;
#216 = CARTESIAN_POINT ( 'NONE',  ( -2.999999999999980460, 63.00000000000000000, 0.000000000000000000 ) ) ;
#217 = ADVANCED_FACE ( 'NONE', ( #362 ), #241, .T. ) ;
#218 = CARTESIAN_POINT ( 'NONE',  ( -2.999999999999970690, 18.00000000000000355, 0.000000000000000000 ) ) ;
#219 =( LENGTH_UNIT ( ) NAMED_UNIT ( * ) SI_UNIT ( .MILLI., .METRE. ) );
#220 = STYLED_ITEM ( 'NONE', ( #76 ), #124 ) ;
#221 = VERTEX_POINT ( 'NONE', #192 ) ;
#222 = MANIFOLD_SOLID_BREP ( 'Revolve - Tool Body (Straight Shanked)', #251 ) ;
#223 = CARTESIAN_POINT ( 'NONE',  ( 0.000000000000000000, 0.000000000000000000, -2.999999999999999112 ) ) ;
#224 = FILL_AREA_STYLE_COLOUR ( '', #311 ) ;
#225 = AXIS2_PLACEMENT_3D ( 'NONE', #262, #258, #320 ) ;
#226 = CYLINDRICAL_SURFACE ( 'NONE', #187, 2.999999999999999112 ) ;
#227 = CARTESIAN_POINT ( 'NONE',  ( 0.000000000000000000, 0.000000000000000000, 0.000000000000000000 ) ) ;
#228 =( GEOMETRIC_REPRESENTATION_CONTEXT ( 3 ) GLOBAL_UNCERTAINTY_ASSIGNED_CONTEXT ( ( #99 ) ) GLOBAL_UNIT_ASSIGNED_CONTEXT ( ( #61, #191, #134 ) ) REPRESENTATION_CONTEXT ( 'NONE', 'WORKASPACE' ) );
#229 = EDGE_LOOP ( 'NONE', ( #358, #367, #142, #232 ) ) ;
#230 = CARTESIAN_POINT ( 'NONE',  ( 3.673940397442058882E-16, 18.00000000000000355, 2.999999999999999112 ) ) ;
#231 = COLOUR_RGB ( '',1.000000000000000000, 0.000000000000000000, 0.000000000000000000 ) ;
#232 = ORIENTED_EDGE ( 'NONE', *, *, #321, .F. ) ;
#233 = CARTESIAN_POINT ( 'NONE',  ( 3.061616997868381662E-16, 0.5000000000000000000, 2.499999999999998668 ) ) ;
#234 =( LENGTH_UNIT ( ) NAMED_UNIT ( * ) SI_UNIT ( .MILLI., .METRE. ) );
#235 = PRESENTATION_LAYER_ASSIGNMENT (  '', '', ( #129 ) ) ;
#236 = ORIENTED_EDGE ( 'NONE', *, *, #321, .T. ) ;
#237 = SURFACE_SIDE_STYLE ('',( #331 ) ) ;
#238 = ADVANCED_FACE ( 'NONE', ( #164 ), #152, .T. ) ;
#239 = PRODUCT_DEFINITION_SHAPE ( 'NONE', 'NONE',  #1 ) ;
#240 = CARTESIAN_POINT ( 'NONE',  ( 7.592810154713587074E-15, 63.00000000000000000, 0.000000000000000000 ) ) ;
#241 = CYLINDRICAL_SURFACE ( 'NONE', #210, 2.999999999999999112 ) ;
#242 = PRODUCT_DEFINITION_FORMATION_WITH_SPECIFIED_SOURCE ( 'ANY', '', #158, .NOT_KNOWN. ) ;
#243 = CIRCLE ( 'NONE', #294, 2.999999999999984457 ) ;
#244 = CARTESIAN_POINT ( 'NONE',  ( 2.999999999999999112, 18.00000000000000355, 3.673940397442046556E-16 ) ) ;
#245 =( LENGTH_UNIT ( ) NAMED_UNIT ( * ) SI_UNIT ( .MILLI., .METRE. ) );
#246 = SURFACE_STYLE_FILL_AREA ( #280 ) ;
#247 = SURFACE_STYLE_USAGE ( .BOTH. , #91 ) ;
#248 = DIRECTION ( 'NONE',  ( 0.000000000000000000, 0.000000000000000000, 1.000000000000000000 ) ) ;
#249 = DIRECTION ( 'NONE',  ( -1.444848463910660280E-16, 1.000000000000000000, -0.000000000000000000 ) ) ;
#250 = PLANE ( 'NONE',  #141 ) ;
#251 = CLOSED_SHELL ( 'NONE', ( #63, #309, #144, #13 ) ) ;
#252 = CARTESIAN_POINT ( 'NONE',  ( 3.367778697655220026E-16, 0.000000000000000000, 2.499999999999998668 ) ) ;
#253 = EDGE_CURVE ( 'NONE', #180, #221, #49, .T. ) ;
#254 =( GEOMETRIC_REPRESENTATION_CONTEXT ( 3 ) GLOBAL_UNCERTAINTY_ASSIGNED_CONTEXT ( ( #18 ) ) GLOBAL_UNIT_ASSIGNED_CONTEXT ( ( #32, #340, #195 ) ) REPRESENTATION_CONTEXT ( 'NONE', 'WORKASPACE' ) );
#255 = PRESENTATION_STYLE_ASSIGNMENT (( #325 ) ) ;
#256 = DIRECTION ( 'NONE',  ( 0.000000000000000000, 0.000000000000000000, -1.000000000000000000 ) ) ;
#257 = CIRCLE ( 'NONE', #67, 2.999999999999999112 ) ;
#258 = DIRECTION ( 'NONE',  ( -1.444848463910660280E-16, 1.000000000000000000, -0.000000000000000000 ) ) ;
#259 = UNCERTAINTY_MEASURE_WITH_UNIT (LENGTH_MEASURE( 1.000000000000000082E-05 ), #98, 'distance_accuracy_value', 'NONE');
#260 = PRESENTATION_LAYER_ASSIGNMENT (  '', '', ( #345 ) ) ;
#261 = VERTEX_POINT ( 'NONE', #244 ) ;
#262 = CARTESIAN_POINT ( 'NONE',  ( 7.592810154713587074E-15, 63.00000000000000000, 0.000000000000000000 ) ) ;
#263 = STYLED_ITEM ( 'NONE', ( #112 ), #238 ) ;
#264 = DIRECTION ( 'NONE',  ( 1.444848463910660280E-16, -1.000000000000000000, 0.000000000000000000 ) ) ;
#265 = DIRECTION ( 'NONE',  ( -0.000000000000000000, -1.000000000000000000, -0.000000000000000000 ) ) ;
#266 = DIRECTION ( 'NONE',  ( -1.224646799147352468E-16, 0.000000000000000000, -1.000000000000000000 ) ) ;
#267 = DIRECTION ( 'NONE',  ( -0.000000000000000000, -1.000000000000000000, -0.000000000000000000 ) ) ;
#268 = FILL_AREA_STYLE_COLOUR ( '', #350 ) ;
#269 = EDGE_CURVE ( 'NONE', #57, #155, #103, .T. ) ;
#270 = VERTEX_POINT ( 'NONE', #218 ) ;
#271 = PRESENTATION_STYLE_ASSIGNMENT (( #23 ) ) ;
#272 = STYLED_ITEM ( 'NONE', ( #87 ), #316 ) ;
#273 = VERTEX_POINT ( 'NONE', #66 ) ;
#274 = DIRECTION ( 'NONE',  ( -0.000000000000000000, -1.000000000000000000, -0.000000000000000000 ) ) ;
#275 = EDGE_LOOP ( 'NONE', ( #184, #284 ) ) ;
#276 = EDGE_CURVE ( 'NONE', #270, #261, #243, .T. ) ;
#277 = DIRECTION ( 'NONE',  ( 0.000000000000000000, 1.000000000000000000, 0.000000000000000000 ) ) ;
#278 = FILL_AREA_STYLE_COLOUR ( '', #16 ) ;
#279 = AXIS2_PLACEMENT_3D ( 'NONE', #59, #274, #148 ) ;
#280 = FILL_AREA_STYLE ('',( #278 ) ) ;
#281 = PRESENTATION_LAYER_ASSIGNMENT (  '', '', ( #328 ) ) ;
#282 = FILL_AREA_STYLE ('',( #35 ) ) ;
#283 = DIRECTION ( 'NONE',  ( 0.000000000000000000, 0.000000000000000000, -1.000000000000000000 ) ) ;
#284 = ORIENTED_EDGE ( 'NONE', *, *, #269, .T. ) ;
#285 = PLANE ( 'NONE',  #348 ) ;
#286 = CIRCLE ( 'NONE', #14, 2.499999999999998668 ) ;
#287 = DIRECTION ( 'NONE',  ( -0.000000000000000000, -1.000000000000000000, -0.000000000000000000 ) ) ;
#288 = MECHANICAL_DESIGN_GEOMETRIC_PRESENTATION_REPRESENTATION (  '', ( #328 ), #44 ) ;
#289 = SURFACE_SIDE_STYLE ('',( #97 ) ) ;
#290 = ORIENTED_EDGE ( 'NONE', *, *, #343, .T. ) ;
#291 = FILL_AREA_STYLE ('',( #351 ) ) ;
#292 = ORIENTED_EDGE ( 'NONE', *, *, #253, .T. ) ;
#293 = CARTESIAN_POINT ( 'NONE',  ( 0.000000000000000000, 0.5000000000000000000, -2.999999999999999112 ) ) ;
#294 = AXIS2_PLACEMENT_3D ( 'NONE', #115, #161, #113 ) ;
#295 = ORIENTED_EDGE ( 'NONE', *, *, #38, .F. ) ;
#296 = DIRECTION ( 'NONE',  ( 0.000000000000000000, 0.000000000000000000, -1.000000000000000000 ) ) ;
#297 = FILL_AREA_STYLE ('',( #365 ) ) ;
#298 = PRODUCT_RELATED_PRODUCT_CATEGORY ( 'part', '', ( #158 ) ) ;
#299 = ORIENTED_EDGE ( 'NONE', *, *, #20, .T. ) ;
#300 = EDGE_LOOP ( 'NONE', ( #330, #211, #236, #81 ) ) ;
#301 = AXIS2_PLACEMENT_3D ( 'NONE', #233, #85, #266 ) ;
#302 = FILL_AREA_STYLE ('',( #28 ) ) ;
#303 = DIRECTION ( 'NONE',  ( -1.000000000000000000, 0.000000000000000000, 0.000000000000000000 ) ) ;
#304 = SURFACE_STYLE_USAGE ( .BOTH. , #55 ) ;
#305 = FACE_OUTER_BOUND ( 'NONE', #84, .T. ) ;
#306 = DIRECTION ( 'NONE',  ( 0.000000000000000000, 0.000000000000000000, -1.000000000000000000 ) ) ;
#307 = AXIS2_PLACEMENT_3D ( 'NONE', #308, #249, #312 ) ;
#308 = CARTESIAN_POINT ( 'NONE',  ( 7.592810154713587074E-15, 63.00000000000000000, 0.000000000000000000 ) ) ;
#309 = ADVANCED_FACE ( 'NONE', ( #37 ), #339, .F. ) ;
#310 =( NAMED_UNIT ( * ) SI_UNIT ( $, .STERADIAN. ) SOLID_ANGLE_UNIT ( ) );
#311 = COLOUR_RGB ( '',1.000000000000000000, 0.000000000000000000, 0.000000000000000000 ) ;
#312 = DIRECTION ( 'NONE',  ( -1.000000000000000000, 0.000000000000000000, 0.000000000000000000 ) ) ;
#313 = SURFACE_STYLE_FILL_AREA ( #302 ) ;
#314 = MECHANICAL_DESIGN_GEOMETRIC_PRESENTATION_REPRESENTATION (  '', ( #129 ), #202 ) ;
#315 = ORIENTED_EDGE ( 'NONE', *, *, #253, .F. ) ;
#316 = ADVANCED_FACE ( 'NONE', ( #305 ), #250, .T. ) ;
#317 = DIRECTION ( 'NONE',  ( 0.000000000000000000, 0.000000000000000000, -1.000000000000000000 ) ) ;
#318 = UNCERTAINTY_MEASURE_WITH_UNIT (LENGTH_MEASURE( 1.000000000000000082E-05 ), #245, 'distance_accuracy_value', 'NONE');
#319 = AXIS2_PLACEMENT_3D ( 'NONE', #130, #68, #248 ) ;
#320 = DIRECTION ( 'NONE',  ( -1.000000000000000000, 0.000000000000000000, 0.000000000000000000 ) ) ;
#321 = EDGE_CURVE ( 'NONE', #270, #155, #8, .T. ) ;
#322 = DIRECTION ( 'NONE',  ( -1.444848463910660280E-16, 1.000000000000000000, -0.000000000000000000 ) ) ;
#323 = DIRECTION ( 'NONE',  ( -1.000000000000000000, 0.000000000000000000, 0.000000000000000000 ) ) ;
#324 = ORIENTED_EDGE ( 'NONE', *, *, #136, .T. ) ;
#325 = SURFACE_STYLE_USAGE ( .BOTH. , #289 ) ;
#326 = EDGE_LOOP ( 'NONE', ( #45, #56 ) ) ;
#327 = DIRECTION ( 'NONE',  ( 0.000000000000000000, 0.000000000000000000, -1.000000000000000000 ) ) ;
#328 = STYLED_ITEM ( 'NONE', ( #90 ), #222 ) ;
#329 = SHAPE_DEFINITION_REPRESENTATION ( #239, #41 ) ;
#330 = ORIENTED_EDGE ( 'NONE', *, *, #176, .F. ) ;
#331 = SURFACE_STYLE_FILL_AREA ( #22 ) ;
#332 =( NAMED_UNIT ( * ) SI_UNIT ( $, .STERADIAN. ) SOLID_ANGLE_UNIT ( ) );
#333 =( GEOMETRIC_REPRESENTATION_CONTEXT ( 3 ) GLOBAL_UNCERTAINTY_ASSIGNED_CONTEXT ( ( #259 ) ) GLOBAL_UNIT_ASSIGNED_CONTEXT ( ( #98, #47, #139 ) ) REPRESENTATION_CONTEXT ( 'NONE', 'WORKASPACE' ) );
#334 = EDGE_LOOP ( 'NONE', ( #324, #83, #361, #212 ) ) ;
#335 = SURFACE_STYLE_FILL_AREA ( #297 ) ;
#336 = ORIENTED_EDGE ( 'NONE', *, *, #46, .F. ) ;
#337 = VECTOR ( 'NONE', #82, 1000.000000000000000 ) ;
#338 = DIRECTION ( 'NONE',  ( -1.444848463910660280E-16, 1.000000000000000000, 0.000000000000000000 ) ) ;
#339 = PLANE ( 'NONE',  #341 ) ;
#340 =( NAMED_UNIT ( * ) PLANE_ANGLE_UNIT ( ) SI_UNIT ( $, .RADIAN. ) );
#341 = AXIS2_PLACEMENT_3D ( 'NONE', #7, #338, #89 ) ;
#342 = SURFACE_STYLE_FILL_AREA ( #282 ) ;
#343 = EDGE_CURVE ( 'NONE', #140, #273, #15, .T. ) ;
#344 = ORIENTED_EDGE ( 'NONE', *, *, #172, .F. ) ;
#345 = STYLED_ITEM ( 'NONE', ( #368 ), #352 ) ;
#346 =( GEOMETRIC_REPRESENTATION_CONTEXT ( 3 ) GLOBAL_UNCERTAINTY_ASSIGNED_CONTEXT ( ( #5 ) ) GLOBAL_UNIT_ASSIGNED_CONTEXT ( ( #234, #52, #332 ) ) REPRESENTATION_CONTEXT ( 'NONE', 'WORKASPACE' ) );
#347 = CARTESIAN_POINT ( 'NONE',  ( 7.592810154713587074E-15, 63.00000000000000000, 0.000000000000000000 ) ) ;
#348 = AXIS2_PLACEMENT_3D ( 'NONE', #227, #205, #78 ) ;
#349 = SURFACE_SIDE_STYLE ('',( #42 ) ) ;
#350 = COLOUR_RGB ( '',1.000000000000000000, 0.000000000000000000, 0.000000000000000000 ) ;
#351 = FILL_AREA_STYLE_COLOUR ( '', #231 ) ;
#352 = MANIFOLD_SOLID_BREP ( 'Revolve - Cutting Edge', #33 ) ;
#353 = UNCERTAINTY_MEASURE_WITH_UNIT (LENGTH_MEASURE( 1.000000000000000082E-05 ), #167, 'distance_accuracy_value', 'NONE');
#354 = ORIENTED_EDGE ( 'NONE', *, *, #88, .T. ) ;
#355 = CYLINDRICAL_SURFACE ( 'NONE', #138, 2.999999999999988454 ) ;
#356 = MECHANICAL_DESIGN_GEOMETRIC_PRESENTATION_REPRESENTATION (  '', ( #220 ), #333 ) ;
#357 = VECTOR ( 'NONE', #94, 1000.000000000000000 ) ;
#358 = ORIENTED_EDGE ( 'NONE', *, *, #276, .T. ) ;
#359 = DIRECTION ( 'NONE',  ( -0.000000000000000000, -1.000000000000000000, -0.000000000000000000 ) ) ;
#360 = APPLICATION_PROTOCOL_DEFINITION ( 'draft international standard', 'automotive_design', 1998, #75 ) ;
#361 = ORIENTED_EDGE ( 'NONE', *, *, #206, .F. ) ;
#362 = FACE_OUTER_BOUND ( 'NONE', #79, .T. ) ;
#363 =( GEOMETRIC_REPRESENTATION_CONTEXT ( 3 ) GLOBAL_UNCERTAINTY_ASSIGNED_CONTEXT ( ( #353 ) ) GLOBAL_UNIT_ASSIGNED_CONTEXT ( ( #167, #96, #185 ) ) REPRESENTATION_CONTEXT ( 'NONE', 'WORKASPACE' ) );
#364 = EDGE_LOOP ( 'NONE', ( #354, #100 ) ) ;
#365 = FILL_AREA_STYLE_COLOUR ( '', #3 ) ;
#366 = STYLED_ITEM ( 'NONE', ( #255 ), #165 ) ;
#367 = ORIENTED_EDGE ( 'NONE', *, *, #176, .T. ) ;
#368 = PRESENTATION_STYLE_ASSIGNMENT (( #30 ) ) ;
#369 = CARTESIAN_POINT ( 'NONE',  ( 2.999999999999996003, 63.00000000000000000, 3.673940397442045077E-16 ) ) ;
#370 = APPLICATION_CONTEXT ( 'automotive_design' ) ;
ENDSEC;
END-ISO-10303-21;
