ISO-10303-21;
HEADER;
FILE_DESCRIPTION (( 'STEP AP214' ),
    '1' );
FILE_NAME ('Micro_SEM-062-03.STEP',
    '2021-09-02T00:48:45',
    ( '' ),
    ( '' ),
    'SwSTEP 2.0',
    'SolidWorks 2020',
    '' );
FILE_SCHEMA (( 'AUTOMOTIVE_DESIGN' ));
ENDSEC;

DATA;
#1 = CARTESIAN_POINT ( 'NONE',  ( 4.682062571497488738E-34, 0.0000000000000000000, 3.823194226088144458E-18 ) ) ;
#2 = DIRECTION ( 'NONE',  ( -1.224646799147353454E-16, -0.0000000000000000000, -1.000000000000000000 ) ) ;
#3 = ADVANCED_FACE ( 'NONE', ( #84 ), #273, .T. ) ;
#4 = CARTESIAN_POINT ( 'NONE',  ( 0.03121874999999999997, 3.823194226088143687E-18, -4.739000847409537175E-34 ) ) ;
#5 = DIRECTION ( 'NONE',  ( -1.000000000000000000, 0.0000000000000000000, 0.0000000000000000000 ) ) ;
#6 = MECHANICAL_DESIGN_GEOMETRIC_PRESENTATION_REPRESENTATION (  '', ( #138 ), #157 ) ;
#7 = EDGE_CURVE ( 'NONE', #114, #272, #236, .T. ) ;
#8 = DIRECTION ( 'NONE',  ( 0.1736481776669314137, 0.0000000000000000000, 0.9848077530122077983 ) ) ;
#9 = ORIENTED_EDGE ( 'NONE', *, *, #72, .T. ) ;
#10 = LENGTH_MEASURE_WITH_UNIT ( LENGTH_MEASURE( 0.02539999999999999897 ), #132 );
#11 = CARTESIAN_POINT ( 'NONE',  ( 0.0000000000000000000, 0.0000000000000000000, 1.500000000000000222 ) ) ;
#12 = PRODUCT_CONTEXT ( 'NONE', #169, 'mechanical' ) ;
#13 = ORIENTED_EDGE ( 'NONE', *, *, #26, .F. ) ;
#14 = DIMENSIONAL_EXPONENTS ( 1.000000000000000000, 0.0000000000000000000, 0.0000000000000000000, 0.0000000000000000000, 0.0000000000000000000, 0.0000000000000000000, 0.0000000000000000000 ) ;
#15 = ORIENTED_EDGE ( 'NONE', *, *, #208, .F. ) ;
#16 = AXIS2_PLACEMENT_3D ( 'NONE', #1, #171, #227 ) ;
#17 = PRODUCT_DEFINITION_CONTEXT ( 'detailed design', #240, 'design' ) ;
#18 = VECTOR ( 'NONE', #128, 39.37007874015748143 ) ;
#19 = EDGE_CURVE ( 'NONE', #46, #133, #87, .T. ) ;
#20 = ORIENTED_EDGE ( 'NONE', *, *, #291, .T. ) ;
#21 = CARTESIAN_POINT ( 'NONE',  ( 0.0000000000000000000, 0.0000000000000000000, 0.0000000000000000000 ) ) ;
#22 = AXIS2_PLACEMENT_3D ( 'NONE', #260, #111, #107 ) ;
#23 = FILL_AREA_STYLE ('',( #274 ) ) ;
#24 = CARTESIAN_POINT ( 'NONE',  ( 0.0000000000000000000, 0.0000000000000000000, 0.0000000000000000000 ) ) ;
#25 = ADVANCED_BREP_SHAPE_REPRESENTATION ( 'Micro_SEM-062-03', ( #69, #221 ), #184 ) ;
#26 = EDGE_CURVE ( 'NONE', #120, #205, #45, .T. ) ;
#27 = DIRECTION ( 'NONE',  ( -0.1736481776669312194, 2.126576849575783625E-17, 0.9848077530122080203 ) ) ;
#28 = PRODUCT ( 'Micro_SEM-062-03', 'Micro_SEM-062-03', '', ( #12 ) ) ;
#29 = AXIS2_PLACEMENT_3D ( 'NONE', #193, #191, #75 ) ;
#30 = CONICAL_SURFACE ( 'NONE', #297, 0.03121875000000000691, 0.1745329251994339192 ) ;
#31 = DIRECTION ( 'NONE',  ( -1.000000000000000000, 0.0000000000000000000, 1.224646799147353207E-16 ) ) ;
#32 = DIRECTION ( 'NONE',  ( 0.0000000000000000000, 0.0000000000000000000, -1.000000000000000000 ) ) ;
#33 = DIRECTION ( 'NONE',  ( 1.000000000000000000, 0.0000000000000000000, 0.0000000000000000000 ) ) ;
#34 = EDGE_CURVE ( 'NONE', #242, #223, #212, .T. ) ;
#35 = DIRECTION ( 'NONE',  ( -1.000000000000000000, 0.0000000000000000000, 0.0000000000000000000 ) ) ;
#36 = ORIENTED_EDGE ( 'NONE', *, *, #170, .F. ) ;
#37 = CARTESIAN_POINT ( 'NONE',  ( 0.06250000000000002776, 7.654042494670959086E-18, 0.3024047844199154178 ) ) ;
#38 = DIRECTION ( 'NONE',  ( 0.0000000000000000000, 0.0000000000000000000, -1.000000000000000000 ) ) ;
#39 = EDGE_CURVE ( 'NONE', #133, #223, #164, .T. ) ;
#40 = ORIENTED_EDGE ( 'NONE', *, *, #299, .F. ) ;
#41 = APPLICATION_PROTOCOL_DEFINITION ( 'draft international standard', 'automotive_design', 1998, #240 ) ;
#42 = AXIS2_PLACEMENT_3D ( 'NONE', #286, #109, #199 ) ;
#43 = ORIENTED_EDGE ( 'NONE', *, *, #170, .T. ) ;
#44 =( NAMED_UNIT ( * ) PLANE_ANGLE_UNIT ( ) SI_UNIT ( $, .RADIAN. ) );
#45 = CIRCLE ( 'NONE', #88, 0.04750000000000064587 ) ;
#46 = VERTEX_POINT ( 'NONE', #124 ) ;
#47 = EDGE_CURVE ( 'NONE', #223, #133, #277, .T. ) ;
#48 =( CONVERSION_BASED_UNIT ( 'INCH', #77 ) LENGTH_UNIT ( ) NAMED_UNIT ( #94 ) );
#49 = UNCERTAINTY_MEASURE_WITH_UNIT (LENGTH_MEASURE( 1.000000000000000082E-05 ), #271, 'distance_accuracy_value', 'NONE');
#50 = SURFACE_STYLE_USAGE ( .BOTH. , #122 ) ;
#51 = CARTESIAN_POINT ( 'NONE',  ( 0.0000000000000000000, 0.0000000000000000000, 1.500000000000000222 ) ) ;
#52 =( GEOMETRIC_REPRESENTATION_CONTEXT ( 3 ) GLOBAL_UNCERTAINTY_ASSIGNED_CONTEXT ( ( #97 ) ) GLOBAL_UNIT_ASSIGNED_CONTEXT ( ( #48, #168, #250 ) ) REPRESENTATION_CONTEXT ( 'NONE', 'WORKASPACE' ) );
#53 = LINE ( 'NONE', #152, #228 ) ;
#54 = DIRECTION ( 'NONE',  ( -0.0000000000000000000, -0.0000000000000000000, -1.000000000000000000 ) ) ;
#55 = EDGE_CURVE ( 'NONE', #46, #242, #150, .T. ) ;
#56 = ORIENTED_EDGE ( 'NONE', *, *, #295, .F. ) ;
#57 = LINE ( 'NONE', #134, #18 ) ;
#58 = DIRECTION ( 'NONE',  ( -1.224646799147353454E-16, -0.0000000000000000000, -1.000000000000000000 ) ) ;
#59 = MECHANICAL_DESIGN_GEOMETRIC_PRESENTATION_REPRESENTATION (  '', ( #71 ), #52 ) ;
#60 = CARTESIAN_POINT ( 'NONE',  ( 0.0000000000000000000, 0.0000000000000000000, 1.500000000000000222 ) ) ;
#61 = DIRECTION ( 'NONE',  ( 0.0000000000000000000, 0.0000000000000000000, 1.000000000000000000 ) ) ;
#62 = CARTESIAN_POINT ( 'NONE',  ( -0.06250000000000000000, 0.0000000000000000000, 1.500000000000000222 ) ) ;
#63 = ORIENTED_EDGE ( 'NONE', *, *, #139, .F. ) ;
#64 =( NAMED_UNIT ( * ) PLANE_ANGLE_UNIT ( ) SI_UNIT ( $, .RADIAN. ) );
#65 = ORIENTED_EDGE ( 'NONE', *, *, #39, .F. ) ;
#66 = SURFACE_STYLE_FILL_AREA ( #292 ) ;
#67 = CIRCLE ( 'NONE', #96, 0.06250000000000000000 ) ;
#68 = DIRECTION ( 'NONE',  ( 1.000000000000000000, 0.0000000000000000000, 0.0000000000000000000 ) ) ;
#69 = MANIFOLD_SOLID_BREP ( 'Cut-Revolve1', #261 ) ;
#70 = ORIENTED_EDGE ( 'NONE', *, *, #262, .F. ) ;
#71 = STYLED_ITEM ( 'NONE', ( #251 ), #69 ) ;
#72 = EDGE_CURVE ( 'NONE', #272, #114, #245, .T. ) ;
#73 = CARTESIAN_POINT ( 'NONE',  ( 4.682062571497488738E-34, 0.0000000000000000000, 3.823194226088144458E-18 ) ) ;
#74 = DIRECTION ( 'NONE',  ( -1.224646799147353454E-16, -0.0000000000000000000, -1.000000000000000000 ) ) ;
#75 = DIRECTION ( 'NONE',  ( -1.000000000000000000, 0.0000000000000000000, 0.0000000000000000000 ) ) ;
#76 = VERTEX_POINT ( 'NONE', #144 ) ;
#77 = LENGTH_MEASURE_WITH_UNIT ( LENGTH_MEASURE( 0.02539999999999999897 ), #252 );
#78 = ADVANCED_FACE ( 'NONE', ( #146 ), #229, .T. ) ;
#79 = DIRECTION ( 'NONE',  ( 1.000000000000000000, 0.0000000000000000000, 0.0000000000000000000 ) ) ;
#80 = EDGE_CURVE ( 'NONE', #242, #46, #119, .T. ) ;
#81 = CIRCLE ( 'NONE', #22, 0.04750000000000064587 ) ;
#82 = DIRECTION ( 'NONE',  ( 0.0000000000000000000, 0.0000000000000000000, -1.000000000000000000 ) ) ;
#83 = CARTESIAN_POINT ( 'NONE',  ( 0.03121875000000002426, 0.0000000000000000000, 0.1250000000000000000 ) ) ;
#84 = FACE_OUTER_BOUND ( 'NONE', #163, .T. ) ;
#85 = LINE ( 'NONE', #62, #278 ) ;
#86 = PRODUCT_RELATED_PRODUCT_CATEGORY ( 'part', '', ( #28 ) ) ;
#87 = LINE ( 'NONE', #266, #137 ) ;
#88 = AXIS2_PLACEMENT_3D ( 'NONE', #264, #61, #160 ) ;
#89 = CARTESIAN_POINT ( 'NONE',  ( 1.530808498934191817E-17, 0.0000000000000000000, 0.1250000000000000000 ) ) ;
#90 = CIRCLE ( 'NONE', #210, 0.06250000000000000000 ) ;
#91 = CARTESIAN_POINT ( 'NONE',  ( 3.703390512866948185E-17, 0.0000000000000000000, 0.3024047844199154178 ) ) ;
#92 = DIRECTION ( 'NONE',  ( 0.0000000000000000000, 0.0000000000000000000, 1.000000000000000000 ) ) ;
#93 = ORIENTED_EDGE ( 'NONE', *, *, #55, .F. ) ;
#94 = DIMENSIONAL_EXPONENTS ( 1.000000000000000000, 0.0000000000000000000, 0.0000000000000000000, 0.0000000000000000000, 0.0000000000000000000, 0.0000000000000000000, 0.0000000000000000000 ) ;
#95 =( LENGTH_UNIT ( ) NAMED_UNIT ( * ) SI_UNIT ( $, .METRE. ) );
#96 = AXIS2_PLACEMENT_3D ( 'NONE', #172, #177, #33 ) ;
#97 = UNCERTAINTY_MEASURE_WITH_UNIT (LENGTH_MEASURE( 1.000000000000000082E-05 ), #48, 'distance_accuracy_value', 'NONE');
#98 = ORIENTED_EDGE ( 'NONE', *, *, #139, .T. ) ;
#99 = EDGE_CURVE ( 'NONE', #46, #114, #231, .T. ) ;
#100 = LINE ( 'NONE', #265, #233 ) ;
#101 = VECTOR ( 'NONE', #27, 39.37007874015747433 ) ;
#102 = DIRECTION ( 'NONE',  ( -1.224646799147353454E-16, -0.0000000000000000000, -1.000000000000000000 ) ) ;
#103 = ADVANCED_FACE ( 'NONE', ( #125 ), #226, .T. ) ;
#104 = DIRECTION ( 'NONE',  ( -1.224646799147353454E-16, -0.0000000000000000000, -1.000000000000000000 ) ) ;
#105 = DIRECTION ( 'NONE',  ( -1.000000000000000000, 0.0000000000000000000, 1.224646799147353207E-16 ) ) ;
#106 = DIRECTION ( 'NONE',  ( 1.224646799147353454E-16, 0.0000000000000000000, 1.000000000000000000 ) ) ;
#107 = DIRECTION ( 'NONE',  ( 1.000000000000000000, 0.0000000000000000000, 0.0000000000000000000 ) ) ;
#108 = PRESENTATION_LAYER_ASSIGNMENT (  '', '', ( #138 ) ) ;
#109 = DIRECTION ( 'NONE',  ( 0.0000000000000000000, 0.0000000000000000000, 1.000000000000000000 ) ) ;
#110 = ORIENTED_EDGE ( 'NONE', *, *, #34, .F. ) ;
#111 = DIRECTION ( 'NONE',  ( 0.0000000000000000000, 0.0000000000000000000, 1.000000000000000000 ) ) ;
#112 = ORIENTED_EDGE ( 'NONE', *, *, #26, .T. ) ;
#113 =( CONVERSION_BASED_UNIT ( 'INCH', #10 ) LENGTH_UNIT ( ) NAMED_UNIT ( #130 ) );
#114 = VERTEX_POINT ( 'NONE', #195 ) ;
#115 = PRESENTATION_STYLE_ASSIGNMENT (( #222 ) ) ;
#116 = ORIENTED_EDGE ( 'NONE', *, *, #299, .T. ) ;
#117 = ORIENTED_EDGE ( 'NONE', *, *, #80, .T. ) ;
#118 = AXIS2_PLACEMENT_3D ( 'NONE', #11, #38, #289 ) ;
#119 = CIRCLE ( 'NONE', #145, 0.03121875000000000691 ) ;
#120 = VERTEX_POINT ( 'NONE', #121 ) ;
#121 = CARTESIAN_POINT ( 'NONE',  ( -0.04750000000000064587, 0.0000000000000000000, 1.500000000000000222 ) ) ;
#122 = SURFACE_SIDE_STYLE ('',( #232 ) ) ;
#123 = ADVANCED_FACE ( 'NONE', ( #298 ), #279, .T. ) ;
#124 = CARTESIAN_POINT ( 'NONE',  ( -0.03121874999999998956, 5.738618360379551386E-18, 0.1250000000000000000 ) ) ;
#125 = FACE_OUTER_BOUND ( 'NONE', #135, .T. ) ;
#126 = AXIS2_PLACEMENT_3D ( 'NONE', #21, #2, #105 ) ;
#127 = DIRECTION ( 'NONE',  ( -0.0000000000000000000, -0.0000000000000000000, -1.000000000000000000 ) ) ;
#128 = DIRECTION ( 'NONE',  ( -0.0000000000000000000, -0.0000000000000000000, -1.000000000000000000 ) ) ;
#129 = CARTESIAN_POINT ( 'NONE',  ( 0.0000000000000000000, 0.0000000000000000000, 1.500000000000000222 ) ) ;
#130 = DIMENSIONAL_EXPONENTS ( 1.000000000000000000, 0.0000000000000000000, 0.0000000000000000000, 0.0000000000000000000, 0.0000000000000000000, 0.0000000000000000000, 0.0000000000000000000 ) ;
#131 = AXIS2_PLACEMENT_3D ( 'NONE', #91, #259, #181 ) ;
#132 =( LENGTH_UNIT ( ) NAMED_UNIT ( * ) SI_UNIT ( $, .METRE. ) );
#133 = VERTEX_POINT ( 'NONE', #167 ) ;
#134 = CARTESIAN_POINT ( 'NONE',  ( 0.06250000000000000000, 7.654042494670956004E-18, 1.500000000000000222 ) ) ;
#135 = EDGE_LOOP ( 'NONE', ( #218, #165, #65, #237 ) ) ;
#136 = EDGE_LOOP ( 'NONE', ( #202, #116, #293, #176 ) ) ;
#137 = VECTOR ( 'NONE', #58, 39.37007874015748143 ) ;
#138 = STYLED_ITEM ( 'NONE', ( #115 ), #25 ) ;
#139 = EDGE_CURVE ( 'NONE', #120, #76, #100, .T. ) ;
#140 = EDGE_LOOP ( 'NONE', ( #40, #20, #267, #178 ) ) ;
#141 = ADVANCED_FACE ( 'NONE', ( #234 ), #30, .T. ) ;
#142 =( NAMED_UNIT ( * ) SI_UNIT ( $, .STERADIAN. ) SOLID_ANGLE_UNIT ( ) );
#143 = EDGE_LOOP ( 'NONE', ( #112, #43 ) ) ;
#144 = CARTESIAN_POINT ( 'NONE',  ( -0.06250000000000000000, 0.0000000000000000000, 1.485000000000000764 ) ) ;
#145 = AXIS2_PLACEMENT_3D ( 'NONE', #253, #207, #147 ) ;
#146 = FACE_OUTER_BOUND ( 'NONE', #203, .T. ) ;
#147 = DIRECTION ( 'NONE',  ( -1.000000000000000000, 0.0000000000000000000, 0.0000000000000000000 ) ) ;
#148 = ADVANCED_FACE ( 'NONE', ( #257 ), #281, .T. ) ;
#149 = DIRECTION ( 'NONE',  ( 0.0000000000000000000, 0.0000000000000000000, 1.000000000000000000 ) ) ;
#150 = CIRCLE ( 'NONE', #29, 0.03121875000000000691 ) ;
#151 = CONICAL_SURFACE ( 'NONE', #217, 0.03121875000000000691, 0.1745329251994339192 ) ;
#152 = CARTESIAN_POINT ( 'NONE',  ( 0.04750000000000064587, 5.817072295950006528E-18, 1.500000000000000222 ) ) ;
#153 = FACE_OUTER_BOUND ( 'NONE', #136, .T. ) ;
#154 = VERTEX_POINT ( 'NONE', #284 ) ;
#155 = ORIENTED_EDGE ( 'NONE', *, *, #295, .T. ) ;
#156 = COLOUR_RGB ( '',0.7921568627450980005, 0.8196078431372548767, 0.9333333333333333481 ) ;
#157 =( GEOMETRIC_REPRESENTATION_CONTEXT ( 3 ) GLOBAL_UNCERTAINTY_ASSIGNED_CONTEXT ( ( #49 ) ) GLOBAL_UNIT_ASSIGNED_CONTEXT ( ( #271, #44, #142 ) ) REPRESENTATION_CONTEXT ( 'NONE', 'WORKASPACE' ) );
#158 = AXIS2_PLACEMENT_3D ( 'NONE', #51, #149, #296 ) ;
#159 = PLANE ( 'NONE',  #42 ) ;
#160 = DIRECTION ( 'NONE',  ( 1.000000000000000000, 0.0000000000000000000, 0.0000000000000000000 ) ) ;
#161 = DIRECTION ( 'NONE',  ( 1.224646799147353454E-16, 0.0000000000000000000, 1.000000000000000000 ) ) ;
#162 = ORIENTED_EDGE ( 'NONE', *, *, #80, .F. ) ;
#163 = EDGE_LOOP ( 'NONE', ( #56, #13, #98, #225 ) ) ;
#164 = CIRCLE ( 'NONE', #16, 0.03121874999999999997 ) ;
#165 = ORIENTED_EDGE ( 'NONE', *, *, #34, .T. ) ;
#166 = COLOUR_RGB ( '',0.7921568627450980005, 0.8196078431372548767, 0.9333333333333333481 ) ;
#167 = CARTESIAN_POINT ( 'NONE',  ( -0.03121874999999999997, 0.0000000000000000000, 7.646388452176288915E-18 ) ) ;
#168 =( NAMED_UNIT ( * ) PLANE_ANGLE_UNIT ( ) SI_UNIT ( $, .RADIAN. ) );
#169 = APPLICATION_CONTEXT ( 'automotive_design' ) ;
#170 = EDGE_CURVE ( 'NONE', #205, #120, #81, .T. ) ;
#171 = DIRECTION ( 'NONE',  ( -1.224646799147353454E-16, -0.0000000000000000000, -1.000000000000000000 ) ) ;
#172 = CARTESIAN_POINT ( 'NONE',  ( 0.0000000000000000000, 0.0000000000000000000, 1.485000000000000764 ) ) ;
#173 = FACE_OUTER_BOUND ( 'NONE', #290, .T. ) ;
#174 = FACE_OUTER_BOUND ( 'NONE', #200, .T. ) ;
#175 = EDGE_CURVE ( 'NONE', #76, #114, #85, .T. ) ;
#176 = ORIENTED_EDGE ( 'NONE', *, *, #175, .F. ) ;
#177 = DIRECTION ( 'NONE',  ( 0.0000000000000000000, 0.0000000000000000000, -1.000000000000000000 ) ) ;
#178 = ORIENTED_EDGE ( 'NONE', *, *, #72, .F. ) ;
#179 = AXIS2_PLACEMENT_3D ( 'NONE', #24, #102, #31 ) ;
#180 = CARTESIAN_POINT ( 'NONE',  ( 0.0000000000000000000, 0.0000000000000000000, 1.485000000000000764 ) ) ;
#181 = DIRECTION ( 'NONE',  ( 1.000000000000000000, 0.0000000000000000000, 0.0000000000000000000 ) ) ;
#182 = ORIENTED_EDGE ( 'NONE', *, *, #47, .F. ) ;
#183 =( NAMED_UNIT ( * ) SI_UNIT ( $, .STERADIAN. ) SOLID_ANGLE_UNIT ( ) );
#184 =( GEOMETRIC_REPRESENTATION_CONTEXT ( 3 ) GLOBAL_UNCERTAINTY_ASSIGNED_CONTEXT ( ( #185 ) ) GLOBAL_UNIT_ASSIGNED_CONTEXT ( ( #113, #64, #183 ) ) REPRESENTATION_CONTEXT ( 'NONE', 'WORKASPACE' ) );
#185 = UNCERTAINTY_MEASURE_WITH_UNIT (LENGTH_MEASURE( 1.000000000000000082E-05 ), #113, 'distance_accuracy_value', 'NONE');
#186 = SURFACE_SIDE_STYLE ('',( #66 ) ) ;
#187 = EDGE_LOOP ( 'NONE', ( #93, #219, #287, #15 ) ) ;
#188 = PRESENTATION_LAYER_ASSIGNMENT (  '', '', ( #71 ) ) ;
#189 = CARTESIAN_POINT ( 'NONE',  ( -0.03121874999999998956, 3.823194226088144458E-18, 0.1250000000000000000 ) ) ;
#190 = AXIS2_PLACEMENT_3D ( 'NONE', #60, #82, #35 ) ;
#191 = DIRECTION ( 'NONE',  ( -1.224646799147353454E-16, -0.0000000000000000000, -1.000000000000000000 ) ) ;
#192 = CARTESIAN_POINT ( 'NONE',  ( 0.03121875000000000691, 3.823194226088144458E-18, -3.823194226088144458E-18 ) ) ;
#193 = CARTESIAN_POINT ( 'NONE',  ( 1.530808498934191817E-17, 0.0000000000000000000, 0.1250000000000000000 ) ) ;
#194 = ADVANCED_FACE ( 'NONE', ( #153 ), #201, .T. ) ;
#195 = CARTESIAN_POINT ( 'NONE',  ( -0.06249999999999996531, 0.0000000000000000000, 0.3024047844199154178 ) ) ;
#196 = DIRECTION ( 'NONE',  ( 1.000000000000000000, 0.0000000000000000000, 0.0000000000000000000 ) ) ;
#197 = LINE ( 'NONE', #83, #268 ) ;
#198 = CONICAL_SURFACE ( 'NONE', #190, 0.04750000000000064587, 0.7853981633974457255 ) ;
#199 = DIRECTION ( 'NONE',  ( 1.000000000000000000, 0.0000000000000000000, -0.0000000000000000000 ) ) ;
#200 = EDGE_LOOP ( 'NONE', ( #36, #155, #70, #63 ) ) ;
#201 = CYLINDRICAL_SURFACE ( 'NONE', #213, 0.06250000000000000000 ) ;
#202 = ORIENTED_EDGE ( 'NONE', *, *, #262, .T. ) ;
#203 = EDGE_LOOP ( 'NONE', ( #110, #117, #244, #182 ) ) ;
#204 = ORIENTED_EDGE ( 'NONE', *, *, #99, .F. ) ;
#205 = VERTEX_POINT ( 'NONE', #288 ) ;
#206 = VECTOR ( 'NONE', #211, 39.37007874015748143 ) ;
#207 = DIRECTION ( 'NONE',  ( -1.224646799147353454E-16, -0.0000000000000000000, -1.000000000000000000 ) ) ;
#208 = EDGE_CURVE ( 'NONE', #242, #272, #197, .T. ) ;
#209 = DIRECTION ( 'NONE',  ( 1.000000000000000000, 0.0000000000000000000, 0.0000000000000000000 ) ) ;
#210 = AXIS2_PLACEMENT_3D ( 'NONE', #180, #32, #256 ) ;
#211 = DIRECTION ( 'NONE',  ( -1.224646799147353454E-16, -0.0000000000000000000, -1.000000000000000000 ) ) ;
#212 = LINE ( 'NONE', #192, #206 ) ;
#213 = AXIS2_PLACEMENT_3D ( 'NONE', #214, #127, #5 ) ;
#214 = CARTESIAN_POINT ( 'NONE',  ( 0.0000000000000000000, 0.0000000000000000000, 1.500000000000000222 ) ) ;
#215 = DIRECTION ( 'NONE',  ( -0.0000000000000000000, -0.0000000000000000000, -1.000000000000000000 ) ) ;
#216 = CARTESIAN_POINT ( 'NONE',  ( 1.530808498934191817E-17, 0.0000000000000000000, 0.1250000000000000000 ) ) ;
#217 = AXIS2_PLACEMENT_3D ( 'NONE', #89, #106, #79 ) ;
#218 = ORIENTED_EDGE ( 'NONE', *, *, #55, .T. ) ;
#219 = ORIENTED_EDGE ( 'NONE', *, *, #99, .T. ) ;
#220 = ORIENTED_EDGE ( 'NONE', *, *, #39, .T. ) ;
#221 = AXIS2_PLACEMENT_3D ( 'NONE', #224, #92, #68 ) ;
#222 = SURFACE_STYLE_USAGE ( .BOTH. , #186 ) ;
#223 = VERTEX_POINT ( 'NONE', #4 ) ;
#224 = CARTESIAN_POINT ( 'NONE',  ( 0.0000000000000000000, 0.0000000000000000000, 0.0000000000000000000 ) ) ;
#225 = ORIENTED_EDGE ( 'NONE', *, *, #291, .F. ) ;
#226 = CYLINDRICAL_SURFACE ( 'NONE', #126, 0.03121875000000000691 ) ;
#227 = DIRECTION ( 'NONE',  ( -1.000000000000000000, 0.0000000000000000000, 1.224646799147353700E-16 ) ) ;
#228 = VECTOR ( 'NONE', #258, 39.37007874015748143 ) ;
#229 = CYLINDRICAL_SURFACE ( 'NONE', #179, 0.03121875000000000691 ) ;
#230 = ADVANCED_FACE ( 'NONE', ( #174 ), #198, .T. ) ;
#231 = LINE ( 'NONE', #189, #101 ) ;
#232 = SURFACE_STYLE_FILL_AREA ( #23 ) ;
#233 = VECTOR ( 'NONE', #238, 39.37007874015748143 ) ;
#234 = FACE_OUTER_BOUND ( 'NONE', #187, .T. ) ;
#235 = FACE_OUTER_BOUND ( 'NONE', #239, .T. ) ;
#236 = CIRCLE ( 'NONE', #131, 0.06250000000000000000 ) ;
#237 = ORIENTED_EDGE ( 'NONE', *, *, #19, .F. ) ;
#238 = DIRECTION ( 'NONE',  ( -0.7071067811865456854, 0.0000000000000000000, -0.7071067811865493491 ) ) ;
#239 = EDGE_LOOP ( 'NONE', ( #204, #162, #249, #9 ) ) ;
#240 = APPLICATION_CONTEXT ( 'automotive_design' ) ;
#241 = DIRECTION ( 'NONE',  ( -1.000000000000000000, 0.0000000000000000000, 0.0000000000000000000 ) ) ;
#242 = VERTEX_POINT ( 'NONE', #282 ) ;
#243 = APPLICATION_PROTOCOL_DEFINITION ( 'draft international standard', 'automotive_design', 1998, #169 ) ;
#244 = ORIENTED_EDGE ( 'NONE', *, *, #19, .T. ) ;
#245 = CIRCLE ( 'NONE', #283, 0.06250000000000000000 ) ;
#246 = FILL_AREA_STYLE_COLOUR ( '', #166 ) ;
#247 = SHAPE_DEFINITION_REPRESENTATION ( #280, #25 ) ;
#248 = PRODUCT_DEFINITION ( 'UNKNOWN', '', #294, #17 ) ;
#249 = ORIENTED_EDGE ( 'NONE', *, *, #208, .T. ) ;
#250 =( NAMED_UNIT ( * ) SI_UNIT ( $, .STERADIAN. ) SOLID_ANGLE_UNIT ( ) );
#251 = PRESENTATION_STYLE_ASSIGNMENT (( #50 ) ) ;
#252 =( LENGTH_UNIT ( ) NAMED_UNIT ( * ) SI_UNIT ( $, .METRE. ) );
#253 = CARTESIAN_POINT ( 'NONE',  ( 1.530808498934191817E-17, 0.0000000000000000000, 0.1250000000000000000 ) ) ;
#254 = CARTESIAN_POINT ( 'NONE',  ( 3.703390512866948185E-17, 0.0000000000000000000, 0.3024047844199154178 ) ) ;
#255 = ADVANCED_FACE ( 'NONE', ( #235 ), #151, .T. ) ;
#256 = DIRECTION ( 'NONE',  ( 1.000000000000000000, 0.0000000000000000000, 0.0000000000000000000 ) ) ;
#257 = FACE_OUTER_BOUND ( 'NONE', #140, .T. ) ;
#258 = DIRECTION ( 'NONE',  ( 0.7071067811865456854, 8.659560562354911904E-17, -0.7071067811865493491 ) ) ;
#259 = DIRECTION ( 'NONE',  ( -1.224646799147353454E-16, -0.0000000000000000000, -1.000000000000000000 ) ) ;
#260 = CARTESIAN_POINT ( 'NONE',  ( 0.0000000000000000000, 0.0000000000000000000, 1.500000000000000222 ) ) ;
#261 = CLOSED_SHELL ( 'NONE', ( #103, #141, #230, #194, #148, #123, #3, #255, #78, #270 ) ) ;
#262 = EDGE_CURVE ( 'NONE', #76, #154, #67, .T. ) ;
#263 = AXIS2_PLACEMENT_3D ( 'NONE', #129, #215, #241 ) ;
#264 = CARTESIAN_POINT ( 'NONE',  ( 0.0000000000000000000, 0.0000000000000000000, 1.500000000000000222 ) ) ;
#265 = CARTESIAN_POINT ( 'NONE',  ( -0.04750000000000064587, 0.0000000000000000000, 1.500000000000000222 ) ) ;
#266 = CARTESIAN_POINT ( 'NONE',  ( -0.03121875000000000691, 0.0000000000000000000, 3.823194226088144458E-18 ) ) ;
#267 = ORIENTED_EDGE ( 'NONE', *, *, #175, .T. ) ;
#268 = VECTOR ( 'NONE', #8, 39.37007874015748143 ) ;
#269 = LENGTH_MEASURE_WITH_UNIT ( LENGTH_MEASURE( 0.02539999999999999897 ), #95 );
#270 = ADVANCED_FACE ( 'NONE', ( #173 ), #159, .F. ) ;
#271 =( CONVERSION_BASED_UNIT ( 'INCH', #269 ) LENGTH_UNIT ( ) NAMED_UNIT ( #14 ) );
#272 = VERTEX_POINT ( 'NONE', #37 ) ;
#273 = CONICAL_SURFACE ( 'NONE', #118, 0.04750000000000064587, 0.7853981633974457255 ) ;
#274 = FILL_AREA_STYLE_COLOUR ( '', #156 ) ;
#275 = DIRECTION ( 'NONE',  ( -1.000000000000000000, 0.0000000000000000000, 1.224646799147353700E-16 ) ) ;
#276 = AXIS2_PLACEMENT_3D ( 'NONE', #73, #104, #275 ) ;
#277 = CIRCLE ( 'NONE', #276, 0.03121874999999999997 ) ;
#278 = VECTOR ( 'NONE', #54, 39.37007874015748143 ) ;
#279 = PLANE ( 'NONE',  #158 ) ;
#280 = PRODUCT_DEFINITION_SHAPE ( 'NONE', 'NONE',  #248 ) ;
#281 = CYLINDRICAL_SURFACE ( 'NONE', #263, 0.06250000000000000000 ) ;
#282 = CARTESIAN_POINT ( 'NONE',  ( 0.03121875000000002426, 0.0000000000000000000, 0.1250000000000000000 ) ) ;
#283 = AXIS2_PLACEMENT_3D ( 'NONE', #254, #74, #209 ) ;
#284 = CARTESIAN_POINT ( 'NONE',  ( 0.06250000000000000000, 7.654042494670956004E-18, 1.485000000000000764 ) ) ;
#285 = ORIENTED_EDGE ( 'NONE', *, *, #47, .T. ) ;
#286 = CARTESIAN_POINT ( 'NONE',  ( 0.0000000000000000000, 0.0000000000000000000, 0.0000000000000000000 ) ) ;
#287 = ORIENTED_EDGE ( 'NONE', *, *, #7, .T. ) ;
#288 = CARTESIAN_POINT ( 'NONE',  ( 0.04750000000000064587, 6.735557395310482421E-18, 1.500000000000000222 ) ) ;
#289 = DIRECTION ( 'NONE',  ( -1.000000000000000000, 0.0000000000000000000, 0.0000000000000000000 ) ) ;
#290 = EDGE_LOOP ( 'NONE', ( #220, #285 ) ) ;
#291 = EDGE_CURVE ( 'NONE', #154, #76, #90, .T. ) ;
#292 = FILL_AREA_STYLE ('',( #246 ) ) ;
#293 = ORIENTED_EDGE ( 'NONE', *, *, #7, .F. ) ;
#294 = PRODUCT_DEFINITION_FORMATION_WITH_SPECIFIED_SOURCE ( 'ANY', '', #28, .NOT_KNOWN. ) ;
#295 = EDGE_CURVE ( 'NONE', #205, #154, #53, .T. ) ;
#296 = DIRECTION ( 'NONE',  ( 1.000000000000000000, 0.0000000000000000000, -0.0000000000000000000 ) ) ;
#297 = AXIS2_PLACEMENT_3D ( 'NONE', #216, #161, #196 ) ;
#298 = FACE_OUTER_BOUND ( 'NONE', #143, .T. ) ;
#299 = EDGE_CURVE ( 'NONE', #154, #272, #57, .T. ) ;
ENDSEC;
END-ISO-10303-21;
