ISO-10303-21;
HEADER;
FILE_DESCRIPTION (( 'STEP AP214' ),
    '1' );
FILE_NAME ('59457.STEP',
    '2023-06-30T22:21:59',
    ( '' ),
    ( '' ),
    'SwSTEP 2.0',
    'SolidWorks 2023',
    '' );
FILE_SCHEMA (( 'AUTOMOTIVE_DESIGN' ));
ENDSEC;

DATA;
#1 =( LENGTH_UNIT ( ) NAMED_UNIT ( * ) SI_UNIT ( $, .METRE. ) );
#2 = DIRECTION ( 'NONE',  ( -0.000000000000000000, -1.000000000000000000, -0.000000000000000000 ) ) ;
#3 = AXIS2_PLACEMENT_3D ( 'NONE', #127, #362, #209 ) ;
#4 = STYLED_ITEM ( 'NONE', ( #215 ), #225 ) ;
#5 = CARTESIAN_POINT ( 'NONE',  ( -0.5000000000000000000, 0.5000000000000000000, 6.123233995736764803E-17 ) ) ;
#6 =( NAMED_UNIT ( * ) SI_UNIT ( $, .STERADIAN. ) SOLID_ANGLE_UNIT ( ) );
#7 = PRESENTATION_STYLE_ASSIGNMENT (( #352 ) ) ;
#8 = ORIENTED_EDGE ( 'NONE', *, *, #263, .T. ) ;
#9 = DIRECTION ( 'NONE',  ( -1.000000000000000000, 0.000000000000000000, 0.000000000000000000 ) ) ;
#10 = ORIENTED_EDGE ( 'NONE', *, *, #274, .T. ) ;
#11 = ORIENTED_EDGE ( 'NONE', *, *, #111, .F. ) ;
#12 =( CONVERSION_BASED_UNIT ( 'INCH', #98 ) LENGTH_UNIT ( ) NAMED_UNIT ( #319 ) );
#13 = ORIENTED_EDGE ( 'NONE', *, *, #116, .T. ) ;
#14 = DIRECTION ( 'NONE',  ( 0.000000000000000000, 0.000000000000000000, 1.000000000000000000 ) ) ;
#15 = CARTESIAN_POINT ( 'NONE',  ( 3.679796394944015742E-16, 2.000000000000000000, 0.000000000000000000 ) ) ;
#16 = EDGE_CURVE ( 'NONE', #140, #230, #203, .T. ) ;
#17 = VECTOR ( 'NONE', #50, 39.37007874015748143 ) ;
#18 = APPLICATION_PROTOCOL_DEFINITION ( 'draft international standard', 'automotive_design', 1998, #310 ) ;
#19 = ORIENTED_EDGE ( 'NONE', *, *, #263, .F. ) ;
#20 = FILL_AREA_STYLE_COLOUR ( '', #131 ) ;
#21 = AXIS2_PLACEMENT_3D ( 'NONE', #314, #42, #71 ) ;
#22 = DIRECTION ( 'NONE',  ( 0.000000000000000000, -0.000000000000000000, 1.000000000000000000 ) ) ;
#23 = SURFACE_SIDE_STYLE ('',( #367 ) ) ;
#24 = ORIENTED_EDGE ( 'NONE', *, *, #38, .T. ) ;
#25 = MECHANICAL_DESIGN_GEOMETRIC_PRESENTATION_REPRESENTATION (  '', ( #60 ), #283 ) ;
#26 = PRODUCT_DEFINITION_FORMATION_WITH_SPECIFIED_SOURCE ( 'ANY', '', #92, .NOT_KNOWN. ) ;
#27 = EDGE_LOOP ( 'NONE', ( #129, #255, #348, #8 ) ) ;
#28 = CYLINDRICAL_SURFACE ( 'NONE', #333, 0.4999999999999998335 ) ;
#29 = SURFACE_SIDE_STYLE ('',( #292 ) ) ;
#30 = DIRECTION ( 'NONE',  ( 0.000000000000000000, 0.000000000000000000, -1.000000000000000000 ) ) ;
#31 = DIRECTION ( 'NONE',  ( 1.000000000000000000, 0.000000000000000000, 0.000000000000000000 ) ) ;
#32 = EDGE_LOOP ( 'NONE', ( #328, #10, #142, #182 ) ) ;
#33 = DIRECTION ( 'NONE',  ( 0.000000000000000000, 0.000000000000000000, -1.000000000000000000 ) ) ;
#34 = UNCERTAINTY_MEASURE_WITH_UNIT (LENGTH_MEASURE( 1.000000000000000082E-05 ), #12, 'distance_accuracy_value', 'NONE');
#35 = AXIS2_PLACEMENT_3D ( 'NONE', #91, #261, #52 ) ;
#36 = DIRECTION ( 'NONE',  ( 0.000000000000000000, 0.000000000000000000, -1.000000000000000000 ) ) ;
#37 = DIRECTION ( 'NONE',  ( 1.226989198148135951E-16, -1.000000000000000000, 0.000000000000000000 ) ) ;
#38 = EDGE_CURVE ( 'NONE', #285, #282, #137, .T. ) ;
#39 = SURFACE_SIDE_STYLE ('',( #58 ) ) ;
#40 = AXIS2_PLACEMENT_3D ( 'NONE', #269, #2, #179 ) ;
#41 = AXIS2_PLACEMENT_3D ( 'NONE', #93, #187, #36 ) ;
#42 = DIRECTION ( 'NONE',  ( -0.000000000000000000, -1.000000000000000000, -0.000000000000000000 ) ) ;
#43 = CYLINDRICAL_SURFACE ( 'NONE', #298, 0.4999999999999995004 ) ;
#44 = CIRCLE ( 'NONE', #154, 0.4999999999999996669 ) ;
#45 = CARTESIAN_POINT ( 'NONE',  ( -6.123233995736766036E-17, 0.5000000000000000000, 0.000000000000000000 ) ) ;
#46 = EDGE_CURVE ( 'NONE', #59, #361, #278, .T. ) ;
#47 = STYLED_ITEM ( 'NONE', ( #109 ), #250 ) ;
#48 = DIRECTION ( 'NONE',  ( -0.000000000000000000, -1.000000000000000000, -0.000000000000000000 ) ) ;
#49 = EDGE_CURVE ( 'NONE', #140, #266, #112, .T. ) ;
#50 = DIRECTION ( 'NONE',  ( -0.000000000000000000, -1.000000000000000000, -0.000000000000000000 ) ) ;
#51 = CARTESIAN_POINT ( 'NONE',  ( -6.123233995736766036E-17, 0.5000000000000000000, 0.000000000000000000 ) ) ;
#52 = DIRECTION ( 'NONE',  ( 0.000000000000000000, 0.000000000000000000, -1.000000000000000000 ) ) ;
#53 = PRESENTATION_LAYER_ASSIGNMENT (  '', '', ( #212 ) ) ;
#54 = AXIS2_PLACEMENT_3D ( 'NONE', #126, #190, #33 ) ;
#55 = SURFACE_STYLE_USAGE ( .BOTH. , #258 ) ;
#56 = DIRECTION ( 'NONE',  ( -1.000000000000000000, 0.000000000000000000, 0.000000000000000000 ) ) ;
#57 = CARTESIAN_POINT ( 'NONE',  ( 3.679796394944015742E-16, 2.000000000000000000, 0.000000000000000000 ) ) ;
#58 = SURFACE_STYLE_FILL_AREA ( #245 ) ;
#59 = VERTEX_POINT ( 'NONE', #289 ) ;
#60 = STYLED_ITEM ( 'NONE', ( #277 ), #217 ) ;
#61 = AXIS2_PLACEMENT_3D ( 'NONE', #51, #30, #9 ) ;
#62 = EDGE_CURVE ( 'NONE', #330, #252, #363, .T. ) ;
#63 = PLANE ( 'NONE',  #318 ) ;
#64 =( CONVERSION_BASED_UNIT ( 'INCH', #239 ) LENGTH_UNIT ( ) NAMED_UNIT ( #246 ) );
#65 =( NAMED_UNIT ( * ) SI_UNIT ( $, .STERADIAN. ) SOLID_ANGLE_UNIT ( ) );
#66 = LENGTH_MEASURE_WITH_UNIT ( LENGTH_MEASURE( 0.02539999999999999897 ), #364 );
#67 = CARTESIAN_POINT ( 'NONE',  ( 0.4999999999999997224, 4.500000000000000000, 0.000000000000000000 ) ) ;
#68 = AXIS2_PLACEMENT_3D ( 'NONE', #139, #254, #171 ) ;
#69 = DIMENSIONAL_EXPONENTS ( 1.000000000000000000, 0.000000000000000000, 0.000000000000000000, 0.000000000000000000, 0.000000000000000000, 0.000000000000000000, 0.000000000000000000 ) ;
#70 =( LENGTH_UNIT ( ) NAMED_UNIT ( * ) SI_UNIT ( $, .METRE. ) );
#71 = DIRECTION ( 'NONE',  ( 0.000000000000000000, 0.000000000000000000, -1.000000000000000000 ) ) ;
#72 = CARTESIAN_POINT ( 'NONE',  ( 6.123233995736759873E-17, 4.500000000000000000, 0.000000000000000000 ) ) ;
#73 = AXIS2_PLACEMENT_3D ( 'NONE', #80, #237, #84 ) ;
#74 =( GEOMETRIC_REPRESENTATION_CONTEXT ( 3 ) GLOBAL_UNCERTAINTY_ASSIGNED_CONTEXT ( ( #206 ) ) GLOBAL_UNIT_ASSIGNED_CONTEXT ( ( #145, #201, #6 ) ) REPRESENTATION_CONTEXT ( 'NONE', 'WORKASPACE' ) );
#75 = ORIENTED_EDGE ( 'NONE', *, *, #191, .F. ) ;
#76 = SURFACE_STYLE_USAGE ( .BOTH. , #169 ) ;
#77 = ORIENTED_EDGE ( 'NONE', *, *, #231, .T. ) ;
#78 = FILL_AREA_STYLE_COLOUR ( '', #96 ) ;
#79 = AXIS2_PLACEMENT_3D ( 'NONE', #197, #135, #22 ) ;
#80 = CARTESIAN_POINT ( 'NONE',  ( 6.123233995736761105E-17, 4.500000000000000000, 0.000000000000000000 ) ) ;
#81 = AXIS2_PLACEMENT_3D ( 'NONE', #264, #204, #323 ) ;
#82 = VERTEX_POINT ( 'NONE', #5 ) ;
#83 = CYLINDRICAL_SURFACE ( 'NONE', #81, 0.4999999999999995004 ) ;
#84 = DIRECTION ( 'NONE',  ( -1.000000000000000000, 0.000000000000000000, 0.000000000000000000 ) ) ;
#85 = FILL_AREA_STYLE ('',( #198 ) ) ;
#86 = DIRECTION ( 'NONE',  ( -0.000000000000000000, -1.000000000000000000, -0.000000000000000000 ) ) ;
#87 = AXIS2_PLACEMENT_3D ( 'NONE', #143, #305, #275 ) ;
#88 = AXIS2_PLACEMENT_3D ( 'NONE', #15, #166, #164 ) ;
#89 = ORIENTED_EDGE ( 'NONE', *, *, #113, .T. ) ;
#90 = CARTESIAN_POINT ( 'NONE',  ( 0.4999999999999996114, 4.500000000000000000, 6.123233995736759873E-17 ) ) ;
#91 = CARTESIAN_POINT ( 'NONE',  ( 0.000000000000000000, 0.5000000000000000000, 0.000000000000000000 ) ) ;
#92 = PRODUCT ( '59457', '59457', '', ( #219 ) ) ;
#93 = CARTESIAN_POINT ( 'NONE',  ( 0.000000000000000000, 0.000000000000000000, 0.000000000000000000 ) ) ;
#94 = CARTESIAN_POINT ( 'NONE',  ( 0.5000000000000000000, 0.5000000000000000000, 0.000000000000000000 ) ) ;
#95 = FACE_OUTER_BOUND ( 'NONE', #183, .T. ) ;
#96 = COLOUR_RGB ( '',0.7921568627450980005, 0.8196078431372548767, 0.9333333333333333481 ) ;
#97 = CIRCLE ( 'NONE', #61, 0.5000000000000000000 ) ;
#98 = LENGTH_MEASURE_WITH_UNIT ( LENGTH_MEASURE( 0.02539999999999999897 ), #160 );
#99 =( CONVERSION_BASED_UNIT ( 'INCH', #66 ) LENGTH_UNIT ( ) NAMED_UNIT ( #276 ) );
#100 = ADVANCED_BREP_SHAPE_REPRESENTATION ( '59457', ( #221, #217, #335 ), #351 ) ;
#101 = PRESENTATION_LAYER_ASSIGNMENT (  '', '', ( #60 ) ) ;
#102 = LENGTH_MEASURE_WITH_UNIT ( LENGTH_MEASURE( 0.02539999999999999897 ), #130 );
#103 = ADVANCED_FACE ( 'NONE', ( #208 ), #28, .T. ) ;
#104 = UNCERTAINTY_MEASURE_WITH_UNIT (LENGTH_MEASURE( 1.000000000000000082E-05 ), #64, 'distance_accuracy_value', 'NONE');
#105 = CIRCLE ( 'NONE', #68, 0.5000000000000000000 ) ;
#106 = SURFACE_STYLE_FILL_AREA ( #165 ) ;
#107 = EDGE_LOOP ( 'NONE', ( #11, #151, #144, #370, #295 ) ) ;
#108 =( CONVERSION_BASED_UNIT ( 'INCH', #102 ) LENGTH_UNIT ( ) NAMED_UNIT ( #163 ) );
#109 = PRESENTATION_STYLE_ASSIGNMENT (( #55 ) ) ;
#110 =( NAMED_UNIT ( * ) SI_UNIT ( $, .STERADIAN. ) SOLID_ANGLE_UNIT ( ) );
#111 = EDGE_CURVE ( 'NONE', #266, #252, #356, .T. ) ;
#112 = CIRCLE ( 'NONE', #40, 0.4999999999999997224 ) ;
#113 = EDGE_CURVE ( 'NONE', #82, #148, #371, .T. ) ;
#114 = DIRECTION ( 'NONE',  ( 0.000000000000000000, 0.000000000000000000, 1.000000000000000000 ) ) ;
#115 = EDGE_LOOP ( 'NONE', ( #265, #146 ) ) ;
#116 = EDGE_CURVE ( 'NONE', #252, #82, #153, .T. ) ;
#117 = CARTESIAN_POINT ( 'NONE',  ( 6.123233995736763571E-17, 2.000000000000000000, 0.4999999999999997224 ) ) ;
#118 =( GEOMETRIC_REPRESENTATION_CONTEXT ( 3 ) GLOBAL_UNCERTAINTY_ASSIGNED_CONTEXT ( ( #353 ) ) GLOBAL_UNIT_ASSIGNED_CONTEXT ( ( #272, #159, #65 ) ) REPRESENTATION_CONTEXT ( 'NONE', 'WORKASPACE' ) );
#119 = ORIENTED_EDGE ( 'NONE', *, *, #274, .F. ) ;
#120 =( NAMED_UNIT ( * ) PLANE_ANGLE_UNIT ( ) SI_UNIT ( $, .RADIAN. ) );
#121 = FACE_OUTER_BOUND ( 'NONE', #226, .T. ) ;
#122 = CARTESIAN_POINT ( 'NONE',  ( -3.061616997868383018E-17, 0.000000000000000000, 0.000000000000000000 ) ) ;
#123 = SURFACE_SIDE_STYLE ('',( #300 ) ) ;
#124 = STYLED_ITEM ( 'NONE', ( #7 ), #103 ) ;
#125 =( GEOMETRIC_REPRESENTATION_CONTEXT ( 3 ) GLOBAL_UNCERTAINTY_ASSIGNED_CONTEXT ( ( #296 ) ) GLOBAL_UNIT_ASSIGNED_CONTEXT ( ( #99, #128, #341 ) ) REPRESENTATION_CONTEXT ( 'NONE', 'WORKASPACE' ) );
#126 = CARTESIAN_POINT ( 'NONE',  ( 0.000000000000000000, 2.000000000000000000, 0.000000000000000000 ) ) ;
#127 = CARTESIAN_POINT ( 'NONE',  ( 0.000000000000000000, 0.5000000000000000000, 0.000000000000000000 ) ) ;
#128 =( NAMED_UNIT ( * ) PLANE_ANGLE_UNIT ( ) SI_UNIT ( $, .RADIAN. ) );
#129 = ORIENTED_EDGE ( 'NONE', *, *, #113, .F. ) ;
#130 =( LENGTH_UNIT ( ) NAMED_UNIT ( * ) SI_UNIT ( $, .METRE. ) );
#131 = COLOUR_RGB ( '',1.000000000000000000, 0.000000000000000000, 0.000000000000000000 ) ;
#132 = PRESENTATION_LAYER_ASSIGNMENT (  '', '', ( #47 ) ) ;
#133 =( NAMED_UNIT ( * ) SI_UNIT ( $, .STERADIAN. ) SOLID_ANGLE_UNIT ( ) );
#134 =( NAMED_UNIT ( * ) SI_UNIT ( $, .STERADIAN. ) SOLID_ANGLE_UNIT ( ) );
#135 = DIRECTION ( 'NONE',  ( 0.000000000000000000, 1.000000000000000000, 0.000000000000000000 ) ) ;
#136 = ORIENTED_EDGE ( 'NONE', *, *, #286, .F. ) ;
#137 = CIRCLE ( 'NONE', #73, 0.4999999999999996669 ) ;
#138 = VECTOR ( 'NONE', #365, 39.37007874015748143 ) ;
#139 = CARTESIAN_POINT ( 'NONE',  ( 0.000000000000000000, 0.5000000000000000000, 0.000000000000000000 ) ) ;
#140 = VERTEX_POINT ( 'NONE', #337 ) ;
#141 = SURFACE_STYLE_USAGE ( .BOTH. , #200 ) ;
#142 = ORIENTED_EDGE ( 'NONE', *, *, #38, .F. ) ;
#143 = CARTESIAN_POINT ( 'NONE',  ( -6.123233995736766036E-17, 0.5000000000000000000, 0.000000000000000000 ) ) ;
#144 = ORIENTED_EDGE ( 'NONE', *, *, #16, .T. ) ;
#145 =( CONVERSION_BASED_UNIT ( 'INCH', #322 ) LENGTH_UNIT ( ) NAMED_UNIT ( #291 ) );
#146 = ORIENTED_EDGE ( 'NONE', *, *, #231, .F. ) ;
#147 = CIRCLE ( 'NONE', #88, 0.4999999999999993894 ) ;
#148 = VERTEX_POINT ( 'NONE', #122 ) ;
#149 = UNCERTAINTY_MEASURE_WITH_UNIT (LENGTH_MEASURE( 1.000000000000000082E-05 ), #108, 'distance_accuracy_value', 'NONE');
#150 = CARTESIAN_POINT ( 'NONE',  ( 3.679796394944015742E-16, 2.000000000000000000, 0.000000000000000000 ) ) ;
#151 = ORIENTED_EDGE ( 'NONE', *, *, #286, .T. ) ;
#152 =( NAMED_UNIT ( * ) PLANE_ANGLE_UNIT ( ) SI_UNIT ( $, .RADIAN. ) );
#153 = CIRCLE ( 'NONE', #3, 0.5000000000000000000 ) ;
#154 = AXIS2_PLACEMENT_3D ( 'NONE', #242, #186, #301 ) ;
#155 = PLANE ( 'NONE',  #313 ) ;
#156 = LENGTH_MEASURE_WITH_UNIT ( LENGTH_MEASURE( 0.02539999999999999897 ), #70 );
#157 = CARTESIAN_POINT ( 'NONE',  ( 0.000000000000000000, 0.5000000000000000000, -0.5000000000000000000 ) ) ;
#158 = CARTESIAN_POINT ( 'NONE',  ( 0.4999999999999997780, 2.000000000000000000, 6.123233995736761105E-17 ) ) ;
#159 =( NAMED_UNIT ( * ) PLANE_ANGLE_UNIT ( ) SI_UNIT ( $, .RADIAN. ) );
#160 =( LENGTH_UNIT ( ) NAMED_UNIT ( * ) SI_UNIT ( $, .METRE. ) );
#161 =( NAMED_UNIT ( * ) PLANE_ANGLE_UNIT ( ) SI_UNIT ( $, .RADIAN. ) );
#162 = PRESENTATION_LAYER_ASSIGNMENT (  '', '', ( #369 ) ) ;
#163 = DIMENSIONAL_EXPONENTS ( 1.000000000000000000, 0.000000000000000000, 0.000000000000000000, 0.000000000000000000, 0.000000000000000000, 0.000000000000000000, 0.000000000000000000 ) ;
#164 = DIRECTION ( 'NONE',  ( -1.000000000000000000, 0.000000000000000000, 0.000000000000000000 ) ) ;
#165 = FILL_AREA_STYLE ('',( #308 ) ) ;
#166 = DIRECTION ( 'NONE',  ( -1.226989198148135951E-16, 1.000000000000000000, -0.000000000000000000 ) ) ;
#167 = CLOSED_SHELL ( 'NONE', ( #256, #317, #172, #360 ) ) ;
#168 = CLOSED_SHELL ( 'NONE', ( #250, #225, #170, #103, #185 ) ) ;
#169 = SURFACE_SIDE_STYLE ('',( #106 ) ) ;
#170 = ADVANCED_FACE ( 'NONE', ( #95 ), #359, .T. ) ;
#171 = DIRECTION ( 'NONE',  ( 0.000000000000000000, 0.000000000000000000, -1.000000000000000000 ) ) ;
#172 = ADVANCED_FACE ( 'NONE', ( #173 ), #43, .T. ) ;
#173 = FACE_OUTER_BOUND ( 'NONE', #325, .T. ) ;
#174 = ORIENTED_EDGE ( 'NONE', *, *, #293, .T. ) ;
#175 = FILL_AREA_STYLE ('',( #78 ) ) ;
#176 = DIRECTION ( 'NONE',  ( -1.226989198148135951E-16, 1.000000000000000000, -0.000000000000000000 ) ) ;
#177 = SPHERICAL_SURFACE ( 'NONE', #213, 0.5000000000000000000 ) ;
#178 = LENGTH_MEASURE_WITH_UNIT ( LENGTH_MEASURE( 0.02539999999999999897 ), #297 );
#179 = DIRECTION ( 'NONE',  ( 0.000000000000000000, 0.000000000000000000, -1.000000000000000000 ) ) ;
#180 = FILL_AREA_STYLE_COLOUR ( '', #304 ) ;
#181 = COLOUR_RGB ( '',1.000000000000000000, 0.000000000000000000, 0.000000000000000000 ) ;
#182 = ORIENTED_EDGE ( 'NONE', *, *, #293, .F. ) ;
#183 = EDGE_LOOP ( 'NONE', ( #372, #136 ) ) ;
#184 = ORIENTED_EDGE ( 'NONE', *, *, #16, .F. ) ;
#185 = ADVANCED_FACE ( 'NONE', ( #249 ), #342, .T. ) ;
#186 = DIRECTION ( 'NONE',  ( -1.226989198148135951E-16, 1.000000000000000000, -0.000000000000000000 ) ) ;
#187 = DIRECTION ( 'NONE',  ( -0.000000000000000000, -1.000000000000000000, -0.000000000000000000 ) ) ;
#188 = DIRECTION ( 'NONE',  ( -1.000000000000000000, -1.226989198148135951E-16, 0.000000000000000000 ) ) ;
#189 = UNCERTAINTY_MEASURE_WITH_UNIT (LENGTH_MEASURE( 1.000000000000000082E-05 ), #262, 'distance_accuracy_value', 'NONE');
#190 = DIRECTION ( 'NONE',  ( -0.000000000000000000, -1.000000000000000000, -0.000000000000000000 ) ) ;
#191 = EDGE_CURVE ( 'NONE', #230, #330, #340, .T. ) ;
#192 = AXIS2_PLACEMENT_3D ( 'NONE', #45, #345, #196 ) ;
#193 = EDGE_CURVE ( 'NONE', #82, #230, #105, .T. ) ;
#194 = CYLINDRICAL_SURFACE ( 'NONE', #41, 0.4999999999999998335 ) ;
#195 = STYLED_ITEM ( 'NONE', ( #316 ), #185 ) ;
#196 = DIRECTION ( 'NONE',  ( 1.000000000000000000, 0.000000000000000000, 0.000000000000000000 ) ) ;
#197 = CARTESIAN_POINT ( 'NONE',  ( 0.000000000000000000, 2.000000000000000000, 0.000000000000000000 ) ) ;
#198 = FILL_AREA_STYLE_COLOUR ( '', #181 ) ;
#199 = MECHANICAL_DESIGN_GEOMETRIC_PRESENTATION_REPRESENTATION (  '', ( #212 ), #118 ) ;
#200 = SURFACE_SIDE_STYLE ('',( #284 ) ) ;
#201 =( NAMED_UNIT ( * ) PLANE_ANGLE_UNIT ( ) SI_UNIT ( $, .RADIAN. ) );
#202 = PRODUCT_DEFINITION_SHAPE ( 'NONE', 'NONE',  #234 ) ;
#203 = LINE ( 'NONE', #355, #17 ) ;
#204 = DIRECTION ( 'NONE',  ( -1.226989198148135951E-16, 1.000000000000000000, -0.000000000000000000 ) ) ;
#205 = DIRECTION ( 'NONE',  ( 0.000000000000000000, 0.000000000000000000, -1.000000000000000000 ) ) ;
#206 = UNCERTAINTY_MEASURE_WITH_UNIT (LENGTH_MEASURE( 1.000000000000000082E-05 ), #145, 'distance_accuracy_value', 'NONE');
#207 = DIRECTION ( 'NONE',  ( 1.000000000000000000, 1.226989198148135951E-16, 0.000000000000000000 ) ) ;
#208 = FACE_OUTER_BOUND ( 'NONE', #107, .T. ) ;
#209 = DIRECTION ( 'NONE',  ( 0.000000000000000000, 0.000000000000000000, -1.000000000000000000 ) ) ;
#210 = SURFACE_STYLE_USAGE ( .BOTH. , #123 ) ;
#211 = FACE_OUTER_BOUND ( 'NONE', #115, .T. ) ;
#212 = STYLED_ITEM ( 'NONE', ( #366 ), #170 ) ;
#213 = AXIS2_PLACEMENT_3D ( 'NONE', #228, #114, #31 ) ;
#214 = FILL_AREA_STYLE ('',( #320 ) ) ;
#215 = PRESENTATION_STYLE_ASSIGNMENT (( #210 ) ) ;
#216 = DIMENSIONAL_EXPONENTS ( 1.000000000000000000, 0.000000000000000000, 0.000000000000000000, 0.000000000000000000, 0.000000000000000000, 0.000000000000000000, 0.000000000000000000 ) ;
#217 = MANIFOLD_SOLID_BREP ( 'Revolve - Tool Body (Straight Shanked)', #167 ) ;
#218 =( LENGTH_UNIT ( ) NAMED_UNIT ( * ) SI_UNIT ( $, .METRE. ) );
#219 = PRODUCT_CONTEXT ( 'NONE', #310, 'mechanical' ) ;
#220 =( NAMED_UNIT ( * ) PLANE_ANGLE_UNIT ( ) SI_UNIT ( $, .RADIAN. ) );
#221 = MANIFOLD_SOLID_BREP ( 'Revolve - Cutting Edge', #168 ) ;
#222 = DIRECTION ( 'NONE',  ( -1.000000000000000000, 0.000000000000000000, 0.000000000000000000 ) ) ;
#223 =( GEOMETRIC_REPRESENTATION_CONTEXT ( 3 ) GLOBAL_UNCERTAINTY_ASSIGNED_CONTEXT ( ( #271 ) ) GLOBAL_UNIT_ASSIGNED_CONTEXT ( ( #368, #347, #133 ) ) REPRESENTATION_CONTEXT ( 'NONE', 'WORKASPACE' ) );
#224 = VECTOR ( 'NONE', #176, 39.37007874015748143 ) ;
#225 = ADVANCED_FACE ( 'NONE', ( #303 ), #194, .T. ) ;
#226 = EDGE_LOOP ( 'NONE', ( #24, #257 ) ) ;
#227 = COLOUR_RGB ( '',0.7921568627450980005, 0.8196078431372548767, 0.9333333333333333481 ) ;
#228 = CARTESIAN_POINT ( 'NONE',  ( -6.123233995736766036E-17, 0.5000000000000000000, 0.000000000000000000 ) ) ;
#229 = FACE_OUTER_BOUND ( 'NONE', #32, .T. ) ;
#230 = VERTEX_POINT ( 'NONE', #157 ) ;
#231 = EDGE_CURVE ( 'NONE', #361, #59, #147, .T. ) ;
#232 = ORIENTED_EDGE ( 'NONE', *, *, #354, .F. ) ;
#233 =( GEOMETRIC_REPRESENTATION_CONTEXT ( 3 ) GLOBAL_UNCERTAINTY_ASSIGNED_CONTEXT ( ( #189 ) ) GLOBAL_UNIT_ASSIGNED_CONTEXT ( ( #262, #152, #110 ) ) REPRESENTATION_CONTEXT ( 'NONE', 'WORKASPACE' ) );
#234 = PRODUCT_DEFINITION ( 'UNKNOWN', '', #26, #331 ) ;
#235 = PRESENTATION_LAYER_ASSIGNMENT (  '', '', ( #4 ) ) ;
#236 = LINE ( 'NONE', #90, #224 ) ;
#237 = DIRECTION ( 'NONE',  ( -1.226989198148135951E-16, 1.000000000000000000, -0.000000000000000000 ) ) ;
#238 = SURFACE_STYLE_USAGE ( .BOTH. , #39 ) ;
#239 = LENGTH_MEASURE_WITH_UNIT ( LENGTH_MEASURE( 0.02539999999999999897 ), #241 );
#240 = DIRECTION ( 'NONE',  ( 1.000000000000000000, 0.000000000000000000, 0.000000000000000000 ) ) ;
#241 =( LENGTH_UNIT ( ) NAMED_UNIT ( * ) SI_UNIT ( $, .METRE. ) );
#242 = CARTESIAN_POINT ( 'NONE',  ( 6.123233995736761105E-17, 4.500000000000000000, 0.000000000000000000 ) ) ;
#243 = PRESENTATION_LAYER_ASSIGNMENT (  '', '', ( #195 ) ) ;
#244 = LINE ( 'NONE', #302, #138 ) ;
#245 = FILL_AREA_STYLE ('',( #339 ) ) ;
#246 = DIMENSIONAL_EXPONENTS ( 1.000000000000000000, 0.000000000000000000, 0.000000000000000000, 0.000000000000000000, 0.000000000000000000, 0.000000000000000000, 0.000000000000000000 ) ;
#247 = PRESENTATION_LAYER_ASSIGNMENT (  '', '', ( #124 ) ) ;
#248 = LENGTH_MEASURE_WITH_UNIT ( LENGTH_MEASURE( 0.02539999999999999897 ), #218 );
#249 = FACE_OUTER_BOUND ( 'NONE', #27, .T. ) ;
#250 = ADVANCED_FACE ( 'NONE', ( #279 ), #177, .T. ) ;
#251 = DIRECTION ( 'NONE',  ( -1.226989198148135951E-16, 1.000000000000000000, -0.000000000000000000 ) ) ;
#252 = VERTEX_POINT ( 'NONE', #346 ) ;
#253 =( GEOMETRIC_REPRESENTATION_CONTEXT ( 3 ) GLOBAL_UNCERTAINTY_ASSIGNED_CONTEXT ( ( #104 ) ) GLOBAL_UNIT_ASSIGNED_CONTEXT ( ( #64, #161, #273 ) ) REPRESENTATION_CONTEXT ( 'NONE', 'WORKASPACE' ) );
#254 = DIRECTION ( 'NONE',  ( -0.000000000000000000, -1.000000000000000000, -0.000000000000000000 ) ) ;
#255 = ORIENTED_EDGE ( 'NONE', *, *, #193, .T. ) ;
#256 = ADVANCED_FACE ( 'NONE', ( #229 ), #83, .T. ) ;
#257 = ORIENTED_EDGE ( 'NONE', *, *, #354, .T. ) ;
#258 = SURFACE_SIDE_STYLE ('',( #287 ) ) ;
#259 = CARTESIAN_POINT ( 'NONE',  ( 0.000000000000000000, 0.000000000000000000, 0.000000000000000000 ) ) ;
#260 = MECHANICAL_DESIGN_GEOMETRIC_PRESENTATION_REPRESENTATION (  '', ( #195 ), #223 ) ;
#261 = DIRECTION ( 'NONE',  ( -0.000000000000000000, -1.000000000000000000, -0.000000000000000000 ) ) ;
#262 =( CONVERSION_BASED_UNIT ( 'INCH', #178 ) LENGTH_UNIT ( ) NAMED_UNIT ( #216 ) );
#263 = EDGE_CURVE ( 'NONE', #330, #148, #97, .T. ) ;
#264 = CARTESIAN_POINT ( 'NONE',  ( 6.123233995736759873E-17, 4.500000000000000000, 0.000000000000000000 ) ) ;
#265 = ORIENTED_EDGE ( 'NONE', *, *, #46, .F. ) ;
#266 = VERTEX_POINT ( 'NONE', #117 ) ;
#267 = COLOUR_RGB ( '',1.000000000000000000, 0.000000000000000000, 0.000000000000000000 ) ;
#268 = CARTESIAN_POINT ( 'NONE',  ( 0.4999999999999997780, 4.500000000000000000, 6.123233995736761105E-17 ) ) ;
#269 = CARTESIAN_POINT ( 'NONE',  ( 0.000000000000000000, 2.000000000000000000, 0.000000000000000000 ) ) ;
#270 = ORIENTED_EDGE ( 'NONE', *, *, #49, .T. ) ;
#271 = UNCERTAINTY_MEASURE_WITH_UNIT (LENGTH_MEASURE( 1.000000000000000082E-05 ), #368, 'distance_accuracy_value', 'NONE');
#272 =( CONVERSION_BASED_UNIT ( 'INCH', #156 ) LENGTH_UNIT ( ) NAMED_UNIT ( #334 ) );
#273 =( NAMED_UNIT ( * ) SI_UNIT ( $, .STERADIAN. ) SOLID_ANGLE_UNIT ( ) );
#274 = EDGE_CURVE ( 'NONE', #361, #282, #236, .T. ) ;
#275 = DIRECTION ( 'NONE',  ( 1.000000000000000000, 0.000000000000000000, -1.224646799147353207E-16 ) ) ;
#276 = DIMENSIONAL_EXPONENTS ( 1.000000000000000000, 0.000000000000000000, 0.000000000000000000, 0.000000000000000000, 0.000000000000000000, 0.000000000000000000, 0.000000000000000000 ) ;
#277 = PRESENTATION_STYLE_ASSIGNMENT (( #76 ) ) ;
#278 = CIRCLE ( 'NONE', #350, 0.4999999999999993894 ) ;
#279 = FACE_OUTER_BOUND ( 'NONE', #315, .T. ) ;
#280 = PRODUCT_RELATED_PRODUCT_CATEGORY ( 'part', '', ( #92 ) ) ;
#281 = FILL_AREA_STYLE ('',( #20 ) ) ;
#282 = VERTEX_POINT ( 'NONE', #268 ) ;
#283 =( GEOMETRIC_REPRESENTATION_CONTEXT ( 3 ) GLOBAL_UNCERTAINTY_ASSIGNED_CONTEXT ( ( #149 ) ) GLOBAL_UNIT_ASSIGNED_CONTEXT ( ( #108, #220, #134 ) ) REPRESENTATION_CONTEXT ( 'NONE', 'WORKASPACE' ) );
#284 = SURFACE_STYLE_FILL_AREA ( #175 ) ;
#285 = VERTEX_POINT ( 'NONE', #336 ) ;
#286 = EDGE_CURVE ( 'NONE', #266, #140, #306, .T. ) ;
#287 = SURFACE_STYLE_FILL_AREA ( #85 ) ;
#288 = EDGE_LOOP ( 'NONE', ( #270, #309, #324, #75, #184 ) ) ;
#289 = CARTESIAN_POINT ( 'NONE',  ( -0.4999999999999990563, 2.000000000000000000, 0.000000000000000000 ) ) ;
#290 = COLOUR_RGB ( '',1.000000000000000000, 0.000000000000000000, 0.000000000000000000 ) ;
#291 = DIMENSIONAL_EXPONENTS ( 1.000000000000000000, 0.000000000000000000, 0.000000000000000000, 0.000000000000000000, 0.000000000000000000, 0.000000000000000000, 0.000000000000000000 ) ;
#292 = SURFACE_STYLE_FILL_AREA ( #329 ) ;
#293 = EDGE_CURVE ( 'NONE', #59, #285, #244, .T. ) ;
#294 = ORIENTED_EDGE ( 'NONE', *, *, #62, .T. ) ;
#295 = ORIENTED_EDGE ( 'NONE', *, *, #116, .F. ) ;
#296 = UNCERTAINTY_MEASURE_WITH_UNIT (LENGTH_MEASURE( 1.000000000000000082E-05 ), #99, 'distance_accuracy_value', 'NONE');
#297 =( LENGTH_UNIT ( ) NAMED_UNIT ( * ) SI_UNIT ( $, .METRE. ) );
#298 = AXIS2_PLACEMENT_3D ( 'NONE', #72, #251, #222 ) ;
#299 = MECHANICAL_DESIGN_GEOMETRIC_PRESENTATION_REPRESENTATION (  '', ( #4 ), #125 ) ;
#300 = SURFACE_STYLE_FILL_AREA ( #214 ) ;
#301 = DIRECTION ( 'NONE',  ( -1.000000000000000000, 0.000000000000000000, 0.000000000000000000 ) ) ;
#302 = CARTESIAN_POINT ( 'NONE',  ( -0.4999999999999994449, 4.500000000000000000, 0.000000000000000000 ) ) ;
#303 = FACE_OUTER_BOUND ( 'NONE', #288, .T. ) ;
#304 = COLOUR_RGB ( '',1.000000000000000000, 0.000000000000000000, 0.000000000000000000 ) ;
#305 = DIRECTION ( 'NONE',  ( 1.224646799147353207E-16, -0.000000000000000000, 1.000000000000000000 ) ) ;
#306 = CIRCLE ( 'NONE', #54, 0.4999999999999997224 ) ;
#307 = APPLICATION_PROTOCOL_DEFINITION ( 'draft international standard', 'automotive_design', 1998, #349 ) ;
#308 = FILL_AREA_STYLE_COLOUR ( '', #227 ) ;
#309 = ORIENTED_EDGE ( 'NONE', *, *, #111, .T. ) ;
#310 = APPLICATION_CONTEXT ( 'automotive_design' ) ;
#311 = SHAPE_DEFINITION_REPRESENTATION ( #202, #100 ) ;
#312 = MECHANICAL_DESIGN_GEOMETRIC_PRESENTATION_REPRESENTATION (  '', ( #369 ), #253 ) ;
#313 = AXIS2_PLACEMENT_3D ( 'NONE', #67, #37, #207 ) ;
#314 = CARTESIAN_POINT ( 'NONE',  ( 0.000000000000000000, 0.5000000000000000000, 0.000000000000000000 ) ) ;
#315 = EDGE_LOOP ( 'NONE', ( #13, #89, #19, #294 ) ) ;
#316 = PRESENTATION_STYLE_ASSIGNMENT (( #343 ) ) ;
#317 = ADVANCED_FACE ( 'NONE', ( #211 ), #63, .F. ) ;
#318 = AXIS2_PLACEMENT_3D ( 'NONE', #57, #338, #188 ) ;
#319 = DIMENSIONAL_EXPONENTS ( 1.000000000000000000, 0.000000000000000000, 0.000000000000000000, 0.000000000000000000, 0.000000000000000000, 0.000000000000000000, 0.000000000000000000 ) ;
#320 = FILL_AREA_STYLE_COLOUR ( '', #290 ) ;
#321 = CARTESIAN_POINT ( 'NONE',  ( 6.123233995736764803E-17, 0.000000000000000000, 0.4999999999999998335 ) ) ;
#322 = LENGTH_MEASURE_WITH_UNIT ( LENGTH_MEASURE( 0.02539999999999999897 ), #1 );
#323 = DIRECTION ( 'NONE',  ( -1.000000000000000000, 0.000000000000000000, 0.000000000000000000 ) ) ;
#324 = ORIENTED_EDGE ( 'NONE', *, *, #62, .F. ) ;
#325 = EDGE_LOOP ( 'NONE', ( #119, #77, #174, #232 ) ) ;
#326 = VECTOR ( 'NONE', #48, 39.37007874015748143 ) ;
#327 = MECHANICAL_DESIGN_GEOMETRIC_PRESENTATION_REPRESENTATION (  '', ( #47 ), #74 ) ;
#328 = ORIENTED_EDGE ( 'NONE', *, *, #46, .T. ) ;
#329 = FILL_AREA_STYLE ('',( #180 ) ) ;
#330 = VERTEX_POINT ( 'NONE', #94 ) ;
#331 = PRODUCT_DEFINITION_CONTEXT ( 'detailed design', #349, 'design' ) ;
#332 = CARTESIAN_POINT ( 'NONE',  ( 0.000000000000000000, 0.000000000000000000, 0.000000000000000000 ) ) ;
#333 = AXIS2_PLACEMENT_3D ( 'NONE', #259, #86, #205 ) ;
#334 = DIMENSIONAL_EXPONENTS ( 1.000000000000000000, 0.000000000000000000, 0.000000000000000000, 0.000000000000000000, 0.000000000000000000, 0.000000000000000000, 0.000000000000000000 ) ;
#335 = AXIS2_PLACEMENT_3D ( 'NONE', #332, #14, #240 ) ;
#336 = CARTESIAN_POINT ( 'NONE',  ( -0.4999999999999996114, 4.500000000000000000, 0.000000000000000000 ) ) ;
#337 = CARTESIAN_POINT ( 'NONE',  ( 0.000000000000000000, 2.000000000000000000, -0.4999999999999997224 ) ) ;
#338 = DIRECTION ( 'NONE',  ( -1.226989198148135951E-16, 1.000000000000000000, 0.000000000000000000 ) ) ;
#339 = FILL_AREA_STYLE_COLOUR ( '', #267 ) ;
#340 = CIRCLE ( 'NONE', #21, 0.5000000000000000000 ) ;
#341 =( NAMED_UNIT ( * ) SI_UNIT ( $, .STERADIAN. ) SOLID_ANGLE_UNIT ( ) );
#342 = SPHERICAL_SURFACE ( 'NONE', #192, 0.5000000000000000000 ) ;
#343 = SURFACE_STYLE_USAGE ( .BOTH. , #23 ) ;
#344 = MECHANICAL_DESIGN_GEOMETRIC_PRESENTATION_REPRESENTATION (  '', ( #124 ), #233 ) ;
#345 = DIRECTION ( 'NONE',  ( 0.000000000000000000, 0.000000000000000000, 1.000000000000000000 ) ) ;
#346 = CARTESIAN_POINT ( 'NONE',  ( 6.123233995736766036E-17, 0.5000000000000000000, 0.5000000000000000000 ) ) ;
#347 =( NAMED_UNIT ( * ) PLANE_ANGLE_UNIT ( ) SI_UNIT ( $, .RADIAN. ) );
#348 = ORIENTED_EDGE ( 'NONE', *, *, #191, .T. ) ;
#349 = APPLICATION_CONTEXT ( 'automotive_design' ) ;
#350 = AXIS2_PLACEMENT_3D ( 'NONE', #150, #357, #56 ) ;
#351 =( GEOMETRIC_REPRESENTATION_CONTEXT ( 3 ) GLOBAL_UNCERTAINTY_ASSIGNED_CONTEXT ( ( #34 ) ) GLOBAL_UNIT_ASSIGNED_CONTEXT ( ( #12, #120, #358 ) ) REPRESENTATION_CONTEXT ( 'NONE', 'WORKASPACE' ) );
#352 = SURFACE_STYLE_USAGE ( .BOTH. , #29 ) ;
#353 = UNCERTAINTY_MEASURE_WITH_UNIT (LENGTH_MEASURE( 1.000000000000000082E-05 ), #272, 'distance_accuracy_value', 'NONE');
#354 = EDGE_CURVE ( 'NONE', #282, #285, #44, .T. ) ;
#355 = CARTESIAN_POINT ( 'NONE',  ( 0.000000000000000000, 0.000000000000000000, -0.4999999999999998335 ) ) ;
#356 = LINE ( 'NONE', #321, #326 ) ;
#357 = DIRECTION ( 'NONE',  ( -1.226989198148135951E-16, 1.000000000000000000, -0.000000000000000000 ) ) ;
#358 =( NAMED_UNIT ( * ) SI_UNIT ( $, .STERADIAN. ) SOLID_ANGLE_UNIT ( ) );
#359 = PLANE ( 'NONE',  #79 ) ;
#360 = ADVANCED_FACE ( 'NONE', ( #121 ), #155, .F. ) ;
#361 = VERTEX_POINT ( 'NONE', #158 ) ;
#362 = DIRECTION ( 'NONE',  ( -0.000000000000000000, -1.000000000000000000, -0.000000000000000000 ) ) ;
#363 = CIRCLE ( 'NONE', #35, 0.5000000000000000000 ) ;
#364 =( LENGTH_UNIT ( ) NAMED_UNIT ( * ) SI_UNIT ( $, .METRE. ) );
#365 = DIRECTION ( 'NONE',  ( -1.226989198148135951E-16, 1.000000000000000000, -0.000000000000000000 ) ) ;
#366 = PRESENTATION_STYLE_ASSIGNMENT (( #238 ) ) ;
#367 = SURFACE_STYLE_FILL_AREA ( #281 ) ;
#368 =( CONVERSION_BASED_UNIT ( 'INCH', #248 ) LENGTH_UNIT ( ) NAMED_UNIT ( #69 ) );
#369 = STYLED_ITEM ( 'NONE', ( #373 ), #221 ) ;
#370 = ORIENTED_EDGE ( 'NONE', *, *, #193, .F. ) ;
#371 = CIRCLE ( 'NONE', #87, 0.5000000000000000000 ) ;
#372 = ORIENTED_EDGE ( 'NONE', *, *, #49, .F. ) ;
#373 = PRESENTATION_STYLE_ASSIGNMENT (( #141 ) ) ;
ENDSEC;
END-ISO-10303-21;
