ISO-10303-21;
HEADER;
FILE_DESCRIPTION (( 'STEP AP214' ),
    '1' );
FILE_NAME ('01677.STEP',
    '2023-06-22T14:43:28',
    ( '' ),
    ( '' ),
    'SwSTEP 2.0',
    'SolidWorks 2023',
    '' );
FILE_SCHEMA (( 'AUTOMOTIVE_DESIGN' ));
ENDSEC;

DATA;
#1 = STYLED_ITEM ( 'NONE', ( #248 ), #87 ) ;
#2 =( LENGTH_UNIT ( ) NAMED_UNIT ( * ) SI_UNIT ( $, .METRE. ) );
#3 = CARTESIAN_POINT ( 'NONE',  ( -0.3750000000000000555, 2.250000000000000444, 0.000000000000000000 ) ) ;
#4 = PRESENTATION_STYLE_ASSIGNMENT (( #109 ) ) ;
#5 = CLOSED_SHELL ( 'NONE', ( #50, #36, #165, #179 ) ) ;
#6 =( NAMED_UNIT ( * ) PLANE_ANGLE_UNIT ( ) SI_UNIT ( $, .RADIAN. ) );
#7 =( NAMED_UNIT ( * ) SI_UNIT ( $, .STERADIAN. ) SOLID_ANGLE_UNIT ( ) );
#8 = LINE ( 'NONE', #9, #172 ) ;
#9 = CARTESIAN_POINT ( 'NONE',  ( 0.3749999999999999445, 5.000000000000000000, 4.592425496802576068E-17 ) ) ;
#10 = EDGE_CURVE ( 'NONE', #85, #64, #282, .T. ) ;
#11 = COLOUR_RGB ( '',1.000000000000000000, 0.000000000000000000, 0.000000000000000000 ) ;
#12 = STYLED_ITEM ( 'NONE', ( #212 ), #184 ) ;
#13 = FILL_AREA_STYLE_COLOUR ( '', #254 ) ;
#14 = DIRECTION ( 'NONE',  ( 1.000000000000000000, 4.453261087808557677E-17, 0.000000000000000000 ) ) ;
#15 = CARTESIAN_POINT ( 'NONE',  ( 0.000000000000000000, 0.000000000000000000, 0.000000000000000000 ) ) ;
#16 = ORIENTED_EDGE ( 'NONE', *, *, #224, .T. ) ;
#17 = CIRCLE ( 'NONE', #137, 0.3750000000000001665 ) ;
#18 = CARTESIAN_POINT ( 'NONE',  ( 0.000000000000000000, 0.000000000000000000, 0.000000000000000000 ) ) ;
#19 = VECTOR ( 'NONE', #27, 39.37007874015748143 ) ;
#20 =( CONVERSION_BASED_UNIT ( 'INCH', #118 ) LENGTH_UNIT ( ) NAMED_UNIT ( #52 ) );
#21 = FILL_AREA_STYLE ('',( #74 ) ) ;
#22 = LINE ( 'NONE', #47, #91 ) ;
#23 = DIRECTION ( 'NONE',  ( -4.453261087808557677E-17, 1.000000000000000000, -0.000000000000000000 ) ) ;
#24 = UNCERTAINTY_MEASURE_WITH_UNIT (LENGTH_MEASURE( 1.000000000000000082E-05 ), #20, 'distance_accuracy_value', 'NONE');
#25 = APPLICATION_PROTOCOL_DEFINITION ( 'draft international standard', 'automotive_design', 1998, #155 ) ;
#26 = CARTESIAN_POINT ( 'NONE',  ( 3.718412684285598933E-34, 2.250000000000000000, 0.000000000000000000 ) ) ;
#27 = DIRECTION ( 'NONE',  ( -0.000000000000000000, -1.000000000000000000, -0.000000000000000000 ) ) ;
#28 = FILL_AREA_STYLE ('',( #154 ) ) ;
#29 = CARTESIAN_POINT ( 'NONE',  ( 0.000000000000000000, 0.000000000000000000, 0.000000000000000000 ) ) ;
#30 = PRODUCT_RELATED_PRODUCT_CATEGORY ( 'part', '', ( #163 ) ) ;
#31 = DIRECTION ( 'NONE',  ( 0.000000000000000000, -0.000000000000000000, 1.000000000000000000 ) ) ;
#32 = AXIS2_PLACEMENT_3D ( 'NONE', #140, #186, #86 ) ;
#33 = DIRECTION ( 'NONE',  ( -0.000000000000000000, -1.000000000000000000, -0.000000000000000000 ) ) ;
#34 = PRODUCT_DEFINITION_FORMATION_WITH_SPECIFIED_SOURCE ( 'ANY', '', #163, .NOT_KNOWN. ) ;
#35 =( NAMED_UNIT ( * ) SI_UNIT ( $, .STERADIAN. ) SOLID_ANGLE_UNIT ( ) );
#36 = ADVANCED_FACE ( 'NONE', ( #78 ), #84, .F. ) ;
#37 = DIRECTION ( 'NONE',  ( -4.453261087808557677E-17, 1.000000000000000000, -0.000000000000000000 ) ) ;
#38 = AXIS2_PLACEMENT_3D ( 'NONE', #18, #216, #193 ) ;
#39 = LENGTH_MEASURE_WITH_UNIT ( LENGTH_MEASURE( 0.02539999999999999897 ), #89 );
#40 = AXIS2_PLACEMENT_3D ( 'NONE', #57, #37, #63 ) ;
#41 = DIRECTION ( 'NONE',  ( 4.453261087808557677E-17, -1.000000000000000000, 0.000000000000000000 ) ) ;
#42 = AXIS2_PLACEMENT_3D ( 'NONE', #53, #82, #240 ) ;
#43 = SURFACE_STYLE_FILL_AREA ( #112 ) ;
#44 = EDGE_CURVE ( 'NONE', #207, #220, #17, .T. ) ;
#45 =( CONVERSION_BASED_UNIT ( 'INCH', #257 ) LENGTH_UNIT ( ) NAMED_UNIT ( #104 ) );
#46 =( GEOMETRIC_REPRESENTATION_CONTEXT ( 3 ) GLOBAL_UNCERTAINTY_ASSIGNED_CONTEXT ( ( #127 ) ) GLOBAL_UNIT_ASSIGNED_CONTEXT ( ( #246, #223, #103 ) ) REPRESENTATION_CONTEXT ( 'NONE', 'WORKASPACE' ) );
#47 = CARTESIAN_POINT ( 'NONE',  ( -0.3750000000000002220, 5.000000000000000000, 0.000000000000000000 ) ) ;
#48 = EDGE_LOOP ( 'NONE', ( #287, #305 ) ) ;
#49 = DIRECTION ( 'NONE',  ( 0.000000000000000000, 0.000000000000000000, 1.000000000000000000 ) ) ;
#50 = ADVANCED_FACE ( 'NONE', ( #111 ), #263, .T. ) ;
#51 = DIRECTION ( 'NONE',  ( -4.453261087808557677E-17, 1.000000000000000000, -0.000000000000000000 ) ) ;
#52 = DIMENSIONAL_EXPONENTS ( 1.000000000000000000, 0.000000000000000000, 0.000000000000000000, 0.000000000000000000, 0.000000000000000000, 0.000000000000000000, 0.000000000000000000 ) ;
#53 = CARTESIAN_POINT ( 'NONE',  ( -1.224646799147353207E-16, 5.000000000000000000, 0.000000000000000000 ) ) ;
#54 = CARTESIAN_POINT ( 'NONE',  ( 0.000000000000000000, 2.250000000000000000, 0.000000000000000000 ) ) ;
#55 = SURFACE_STYLE_USAGE ( .BOTH. , #219 ) ;
#56 = CARTESIAN_POINT ( 'NONE',  ( 0.000000000000000000, 0.000000000000000000, -0.3750000000000000555 ) ) ;
#57 = CARTESIAN_POINT ( 'NONE',  ( 1.516480271171051896E-32, 2.250000000000000444, 0.000000000000000000 ) ) ;
#58 = EDGE_CURVE ( 'NONE', #64, #197, #175, .T. ) ;
#59 = CARTESIAN_POINT ( 'NONE',  ( 0.000000000000000000, 0.000000000000000000, 0.000000000000000000 ) ) ;
#60 = FACE_OUTER_BOUND ( 'NONE', #189, .T. ) ;
#61 = ADVANCED_FACE ( 'NONE', ( #153 ), #157, .T. ) ;
#62 = AXIS2_PLACEMENT_3D ( 'NONE', #29, #217, #170 ) ;
#63 = DIRECTION ( 'NONE',  ( -1.000000000000000000, 0.000000000000000000, 0.000000000000000000 ) ) ;
#64 = VERTEX_POINT ( 'NONE', #293 ) ;
#65 =( NAMED_UNIT ( * ) SI_UNIT ( $, .STERADIAN. ) SOLID_ANGLE_UNIT ( ) );
#66 = EDGE_CURVE ( 'NONE', #279, #227, #129, .T. ) ;
#67 = PRESENTATION_LAYER_ASSIGNMENT (  '', '', ( #204 ) ) ;
#68 = SURFACE_STYLE_FILL_AREA ( #21 ) ;
#69 = DIRECTION ( 'NONE',  ( -0.000000000000000000, -1.000000000000000000, -0.000000000000000000 ) ) ;
#70 =( GEOMETRIC_REPRESENTATION_CONTEXT ( 3 ) GLOBAL_UNCERTAINTY_ASSIGNED_CONTEXT ( ( #24 ) ) GLOBAL_UNIT_ASSIGNED_CONTEXT ( ( #20, #214, #162 ) ) REPRESENTATION_CONTEXT ( 'NONE', 'WORKASPACE' ) );
#71 =( GEOMETRIC_REPRESENTATION_CONTEXT ( 3 ) GLOBAL_UNCERTAINTY_ASSIGNED_CONTEXT ( ( #188 ) ) GLOBAL_UNIT_ASSIGNED_CONTEXT ( ( #45, #102, #142 ) ) REPRESENTATION_CONTEXT ( 'NONE', 'WORKASPACE' ) );
#72 = CARTESIAN_POINT ( 'NONE',  ( 0.3750000000000000555, 2.250000000000000444, 4.592425496802576684E-17 ) ) ;
#73 = PRESENTATION_LAYER_ASSIGNMENT (  '', '', ( #1 ) ) ;
#74 = FILL_AREA_STYLE_COLOUR ( '', #11 ) ;
#75 = ORIENTED_EDGE ( 'NONE', *, *, #251, .F. ) ;
#76 = ORIENTED_EDGE ( 'NONE', *, *, #144, .T. ) ;
#77 = SHAPE_DEFINITION_REPRESENTATION ( #96, #110 ) ;
#78 = FACE_OUTER_BOUND ( 'NONE', #309, .T. ) ;
#79 = CARTESIAN_POINT ( 'NONE',  ( 0.000000000000000000, 2.250000000000000000, 0.000000000000000000 ) ) ;
#80 = UNCERTAINTY_MEASURE_WITH_UNIT (LENGTH_MEASURE( 1.000000000000000082E-05 ), #202, 'distance_accuracy_value', 'NONE');
#81 = AXIS2_PLACEMENT_3D ( 'NONE', #15, #284, #100 ) ;
#82 = DIRECTION ( 'NONE',  ( -4.453261087808557677E-17, 1.000000000000000000, -0.000000000000000000 ) ) ;
#83 = PRESENTATION_LAYER_ASSIGNMENT (  '', '', ( #12 ) ) ;
#84 = PLANE ( 'NONE',  #125 ) ;
#85 = VERTEX_POINT ( 'NONE', #106 ) ;
#86 = DIRECTION ( 'NONE',  ( -1.000000000000000000, 0.000000000000000000, 0.000000000000000000 ) ) ;
#87 = MANIFOLD_SOLID_BREP ( 'Revolve - Cutting Edge', #131 ) ;
#88 = EDGE_LOOP ( 'NONE', ( #141, #99, #120, #101 ) ) ;
#89 =( LENGTH_UNIT ( ) NAMED_UNIT ( * ) SI_UNIT ( $, .METRE. ) );
#90 = AXIS2_PLACEMENT_3D ( 'NONE', #54, #290, #173 ) ;
#91 = VECTOR ( 'NONE', #124, 39.37007874015748143 ) ;
#92 = AXIS2_PLACEMENT_3D ( 'NONE', #59, #33, #160 ) ;
#93 = ORIENTED_EDGE ( 'NONE', *, *, #276, .T. ) ;
#94 = COLOUR_RGB ( '',1.000000000000000000, 0.000000000000000000, 0.000000000000000000 ) ;
#95 = VECTOR ( 'NONE', #241, 39.37007874015748143 ) ;
#96 = PRODUCT_DEFINITION_SHAPE ( 'NONE', 'NONE',  #107 ) ;
#97 = DIRECTION ( 'NONE',  ( 0.000000000000000000, 0.000000000000000000, -1.000000000000000000 ) ) ;
#98 = CIRCLE ( 'NONE', #62, 0.3750000000000000555 ) ;
#99 = ORIENTED_EDGE ( 'NONE', *, *, #105, .T. ) ;
#100 = DIRECTION ( 'NONE',  ( 0.000000000000000000, 0.000000000000000000, -1.000000000000000000 ) ) ;
#101 = ORIENTED_EDGE ( 'NONE', *, *, #44, .F. ) ;
#102 =( NAMED_UNIT ( * ) PLANE_ANGLE_UNIT ( ) SI_UNIT ( $, .RADIAN. ) );
#103 =( NAMED_UNIT ( * ) SI_UNIT ( $, .STERADIAN. ) SOLID_ANGLE_UNIT ( ) );
#104 = DIMENSIONAL_EXPONENTS ( 1.000000000000000000, 0.000000000000000000, 0.000000000000000000, 0.000000000000000000, 0.000000000000000000, 0.000000000000000000, 0.000000000000000000 ) ;
#105 = EDGE_CURVE ( 'NONE', #227, #279, #266, .T. ) ;
#106 = CARTESIAN_POINT ( 'NONE',  ( 4.592425496802575451E-17, 2.250000000000000000, 0.3750000000000000555 ) ) ;
#107 = PRODUCT_DEFINITION ( 'UNKNOWN', '', #34, #306 ) ;
#108 =( NAMED_UNIT ( * ) PLANE_ANGLE_UNIT ( ) SI_UNIT ( $, .RADIAN. ) );
#109 = SURFACE_STYLE_USAGE ( .BOTH. , #267 ) ;
#110 = ADVANCED_BREP_SHAPE_REPRESENTATION ( '01677', ( #87, #296, #249 ), #116 ) ;
#111 = FACE_OUTER_BOUND ( 'NONE', #169, .T. ) ;
#112 = FILL_AREA_STYLE ('',( #138 ) ) ;
#113 = ADVANCED_FACE ( 'NONE', ( #229 ), #297, .T. ) ;
#114 = CIRCLE ( 'NONE', #283, 0.3750000000000000555 ) ;
#115 = FILL_AREA_STYLE ('',( #13 ) ) ;
#116 =( GEOMETRIC_REPRESENTATION_CONTEXT ( 3 ) GLOBAL_UNCERTAINTY_ASSIGNED_CONTEXT ( ( #80 ) ) GLOBAL_UNIT_ASSIGNED_CONTEXT ( ( #202, #6, #194 ) ) REPRESENTATION_CONTEXT ( 'NONE', 'WORKASPACE' ) );
#117 = SURFACE_STYLE_USAGE ( .BOTH. , #272 ) ;
#118 = LENGTH_MEASURE_WITH_UNIT ( LENGTH_MEASURE( 0.02539999999999999897 ), #308 );
#119 = STYLED_ITEM ( 'NONE', ( #166 ), #181 ) ;
#120 = ORIENTED_EDGE ( 'NONE', *, *, #230, .T. ) ;
#121 = PRESENTATION_LAYER_ASSIGNMENT (  '', '', ( #148 ) ) ;
#122 = FACE_OUTER_BOUND ( 'NONE', #203, .T. ) ;
#123 = ORIENTED_EDGE ( 'NONE', *, *, #274, .F. ) ;
#124 = DIRECTION ( 'NONE',  ( -4.453261087808557677E-17, 1.000000000000000000, -0.000000000000000000 ) ) ;
#125 = AXIS2_PLACEMENT_3D ( 'NONE', #26, #135, #178 ) ;
#126 = ORIENTED_EDGE ( 'NONE', *, *, #195, .F. ) ;
#127 = UNCERTAINTY_MEASURE_WITH_UNIT (LENGTH_MEASURE( 1.000000000000000082E-05 ), #246, 'distance_accuracy_value', 'NONE');
#128 = ORIENTED_EDGE ( 'NONE', *, *, #58, .F. ) ;
#129 = CIRCLE ( 'NONE', #278, 0.3750000000000000555 ) ;
#130 = SURFACE_STYLE_FILL_AREA ( #222 ) ;
#131 = CLOSED_SHELL ( 'NONE', ( #184, #61, #113, #181 ) ) ;
#132 = SURFACE_STYLE_FILL_AREA ( #244 ) ;
#133 = DIRECTION ( 'NONE',  ( -1.000000000000000000, 0.000000000000000000, 0.000000000000000000 ) ) ;
#134 = DIMENSIONAL_EXPONENTS ( 1.000000000000000000, 0.000000000000000000, 0.000000000000000000, 0.000000000000000000, 0.000000000000000000, 0.000000000000000000, 0.000000000000000000 ) ;
#135 = DIRECTION ( 'NONE',  ( -4.453261087808557677E-17, 1.000000000000000000, 0.000000000000000000 ) ) ;
#136 = CARTESIAN_POINT ( 'NONE',  ( -1.224646799147353207E-16, 5.000000000000000000, 0.000000000000000000 ) ) ;
#137 = AXIS2_PLACEMENT_3D ( 'NONE', #291, #264, #182 ) ;
#138 = FILL_AREA_STYLE_COLOUR ( '', #262 ) ;
#139 = FACE_OUTER_BOUND ( 'NONE', #88, .T. ) ;
#140 = CARTESIAN_POINT ( 'NONE',  ( -1.224646799147353207E-16, 5.000000000000000000, 0.000000000000000000 ) ) ;
#141 = ORIENTED_EDGE ( 'NONE', *, *, #144, .F. ) ;
#142 =( NAMED_UNIT ( * ) SI_UNIT ( $, .STERADIAN. ) SOLID_ANGLE_UNIT ( ) );
#143 = MECHANICAL_DESIGN_GEOMETRIC_PRESENTATION_REPRESENTATION (  '', ( #204 ), #236 ) ;
#144 = EDGE_CURVE ( 'NONE', #227, #207, #8, .T. ) ;
#145 = DIRECTION ( 'NONE',  ( 0.000000000000000000, -1.000000000000000000, -0.000000000000000000 ) ) ;
#146 = ORIENTED_EDGE ( 'NONE', *, *, #105, .F. ) ;
#147 = UNCERTAINTY_MEASURE_WITH_UNIT (LENGTH_MEASURE( 1.000000000000000082E-05 ), #200, 'distance_accuracy_value', 'NONE');
#148 = STYLED_ITEM ( 'NONE', ( #4 ), #61 ) ;
#149 = PRESENTATION_STYLE_ASSIGNMENT (( #55 ) ) ;
#150 = CARTESIAN_POINT ( 'NONE',  ( 1.516480271171051896E-32, 2.250000000000000444, 0.000000000000000000 ) ) ;
#151 =( LENGTH_UNIT ( ) NAMED_UNIT ( * ) SI_UNIT ( $, .METRE. ) );
#152 = FILL_AREA_STYLE_COLOUR ( '', #94 ) ;
#153 = FACE_OUTER_BOUND ( 'NONE', #48, .T. ) ;
#154 = FILL_AREA_STYLE_COLOUR ( '', #260 ) ;
#155 = APPLICATION_CONTEXT ( 'automotive_design' ) ;
#156 = PRODUCT_CONTEXT ( 'NONE', #253, 'mechanical' ) ;
#157 = PLANE ( 'NONE',  #234 ) ;
#158 = DIMENSIONAL_EXPONENTS ( 1.000000000000000000, 0.000000000000000000, 0.000000000000000000, 0.000000000000000000, 0.000000000000000000, 0.000000000000000000, 0.000000000000000000 ) ;
#159 = PLANE ( 'NONE',  #243 ) ;
#160 = DIRECTION ( 'NONE',  ( 0.000000000000000000, 0.000000000000000000, -1.000000000000000000 ) ) ;
#161 = SURFACE_STYLE_USAGE ( .BOTH. , #213 ) ;
#162 =( NAMED_UNIT ( * ) SI_UNIT ( $, .STERADIAN. ) SOLID_ANGLE_UNIT ( ) );
#163 = PRODUCT ( '01677', '01677', '', ( #156 ) ) ;
#164 = DIRECTION ( 'NONE',  ( 0.000000000000000000, 0.000000000000000000, -1.000000000000000000 ) ) ;
#165 = ADVANCED_FACE ( 'NONE', ( #139 ), #206, .T. ) ;
#166 = PRESENTATION_STYLE_ASSIGNMENT (( #233 ) ) ;
#167 = ORIENTED_EDGE ( 'NONE', *, *, #195, .T. ) ;
#168 = CYLINDRICAL_SURFACE ( 'NONE', #38, 0.3750000000000000555 ) ;
#169 = EDGE_LOOP ( 'NONE', ( #171, #76, #123, #301 ) ) ;
#170 = DIRECTION ( 'NONE',  ( 0.000000000000000000, 0.000000000000000000, -1.000000000000000000 ) ) ;
#171 = ORIENTED_EDGE ( 'NONE', *, *, #66, .T. ) ;
#172 = VECTOR ( 'NONE', #294, 39.37007874015748143 ) ;
#173 = DIRECTION ( 'NONE',  ( 0.000000000000000000, 0.000000000000000000, -1.000000000000000000 ) ) ;
#174 = PRESENTATION_LAYER_ASSIGNMENT (  '', '', ( #205 ) ) ;
#175 = LINE ( 'NONE', #56, #95 ) ;
#176 = DIMENSIONAL_EXPONENTS ( 1.000000000000000000, 0.000000000000000000, 0.000000000000000000, 0.000000000000000000, 0.000000000000000000, 0.000000000000000000, 0.000000000000000000 ) ;
#177 = CARTESIAN_POINT ( 'NONE',  ( 0.000000000000000000, 0.000000000000000000, 0.000000000000000000 ) ) ;
#178 = DIRECTION ( 'NONE',  ( -1.000000000000000000, -4.453261087808557677E-17, 0.000000000000000000 ) ) ;
#179 = ADVANCED_FACE ( 'NONE', ( #275 ), #271, .F. ) ;
#180 = LINE ( 'NONE', #196, #19 ) ;
#181 = ADVANCED_FACE ( 'NONE', ( #60 ), #159, .T. ) ;
#182 = DIRECTION ( 'NONE',  ( -1.000000000000000000, 0.000000000000000000, 0.000000000000000000 ) ) ;
#183 = SURFACE_STYLE_USAGE ( .BOTH. , #225 ) ;
#184 = ADVANCED_FACE ( 'NONE', ( #122 ), #168, .T. ) ;
#185 =( CONVERSION_BASED_UNIT ( 'INCH', #250 ) LENGTH_UNIT ( ) NAMED_UNIT ( #201 ) );
#186 = DIRECTION ( 'NONE',  ( -4.453261087808557677E-17, 1.000000000000000000, -0.000000000000000000 ) ) ;
#187 = CARTESIAN_POINT ( 'NONE',  ( 4.592425496802575451E-17, 0.000000000000000000, 0.3750000000000000555 ) ) ;
#188 = UNCERTAINTY_MEASURE_WITH_UNIT (LENGTH_MEASURE( 1.000000000000000082E-05 ), #45, 'distance_accuracy_value', 'NONE');
#189 = EDGE_LOOP ( 'NONE', ( #215, #167 ) ) ;
#190 = CARTESIAN_POINT ( 'NONE',  ( 0.3750000000000000555, 5.000000000000000000, 4.592425496802576684E-17 ) ) ;
#191 = MECHANICAL_DESIGN_GEOMETRIC_PRESENTATION_REPRESENTATION (  '', ( #12 ), #71 ) ;
#192 = ORIENTED_EDGE ( 'NONE', *, *, #10, .T. ) ;
#193 = DIRECTION ( 'NONE',  ( 0.000000000000000000, 0.000000000000000000, -1.000000000000000000 ) ) ;
#194 =( NAMED_UNIT ( * ) SI_UNIT ( $, .STERADIAN. ) SOLID_ANGLE_UNIT ( ) );
#195 = EDGE_CURVE ( 'NONE', #231, #197, #265, .T. ) ;
#196 = CARTESIAN_POINT ( 'NONE',  ( 4.592425496802575451E-17, 0.000000000000000000, 0.3750000000000000555 ) ) ;
#197 = VERTEX_POINT ( 'NONE', #261 ) ;
#198 = FILL_AREA_STYLE_COLOUR ( '', #300 ) ;
#199 = SURFACE_STYLE_FILL_AREA ( #28 ) ;
#200 =( CONVERSION_BASED_UNIT ( 'INCH', #218 ) LENGTH_UNIT ( ) NAMED_UNIT ( #158 ) );
#201 = DIMENSIONAL_EXPONENTS ( 1.000000000000000000, 0.000000000000000000, 0.000000000000000000, 0.000000000000000000, 0.000000000000000000, 0.000000000000000000, 0.000000000000000000 ) ;
#202 =( CONVERSION_BASED_UNIT ( 'INCH', #289 ) LENGTH_UNIT ( ) NAMED_UNIT ( #176 ) );
#203 = EDGE_LOOP ( 'NONE', ( #16, #93, #75, #128 ) ) ;
#204 = STYLED_ITEM ( 'NONE', ( #252 ), #113 ) ;
#205 = STYLED_ITEM ( 'NONE', ( #149 ), #296 ) ;
#206 = CYLINDRICAL_SURFACE ( 'NONE', #32, 0.3750000000000001110 ) ;
#207 = VERTEX_POINT ( 'NONE', #190 ) ;
#208 =( NAMED_UNIT ( * ) PLANE_ANGLE_UNIT ( ) SI_UNIT ( $, .RADIAN. ) );
#209 = SURFACE_STYLE_FILL_AREA ( #115 ) ;
#210 = AXIS2_PLACEMENT_3D ( 'NONE', #255, #41, #14 ) ;
#211 =( GEOMETRIC_REPRESENTATION_CONTEXT ( 3 ) GLOBAL_UNCERTAINTY_ASSIGNED_CONTEXT ( ( #147 ) ) GLOBAL_UNIT_ASSIGNED_CONTEXT ( ( #200, #108, #7 ) ) REPRESENTATION_CONTEXT ( 'NONE', 'WORKASPACE' ) );
#212 = PRESENTATION_STYLE_ASSIGNMENT (( #161 ) ) ;
#213 = SURFACE_SIDE_STYLE ('',( #68 ) ) ;
#214 =( NAMED_UNIT ( * ) PLANE_ANGLE_UNIT ( ) SI_UNIT ( $, .RADIAN. ) );
#215 = ORIENTED_EDGE ( 'NONE', *, *, #251, .T. ) ;
#216 = DIRECTION ( 'NONE',  ( -0.000000000000000000, -1.000000000000000000, -0.000000000000000000 ) ) ;
#217 = DIRECTION ( 'NONE',  ( -0.000000000000000000, -1.000000000000000000, -0.000000000000000000 ) ) ;
#218 = LENGTH_MEASURE_WITH_UNIT ( LENGTH_MEASURE( 0.02539999999999999897 ), #2 );
#219 = SURFACE_SIDE_STYLE ('',( #132 ) ) ;
#220 = VERTEX_POINT ( 'NONE', #281 ) ;
#221 = AXIS2_PLACEMENT_3D ( 'NONE', #136, #51, #270 ) ;
#222 = FILL_AREA_STYLE ('',( #152 ) ) ;
#223 =( NAMED_UNIT ( * ) PLANE_ANGLE_UNIT ( ) SI_UNIT ( $, .RADIAN. ) );
#224 = EDGE_CURVE ( 'NONE', #64, #85, #114, .T. ) ;
#225 = SURFACE_SIDE_STYLE ('',( #199 ) ) ;
#226 = LENGTH_MEASURE_WITH_UNIT ( LENGTH_MEASURE( 0.02539999999999999897 ), #151 );
#227 = VERTEX_POINT ( 'NONE', #72 ) ;
#228 =( CONVERSION_BASED_UNIT ( 'INCH', #39 ) LENGTH_UNIT ( ) NAMED_UNIT ( #302 ) );
#229 = FACE_OUTER_BOUND ( 'NONE', #238, .T. ) ;
#230 = EDGE_CURVE ( 'NONE', #279, #220, #22, .T. ) ;
#231 = VERTEX_POINT ( 'NONE', #187 ) ;
#232 = MECHANICAL_DESIGN_GEOMETRIC_PRESENTATION_REPRESENTATION (  '', ( #119 ), #70 ) ;
#233 = SURFACE_STYLE_USAGE ( .BOTH. , #277 ) ;
#234 = AXIS2_PLACEMENT_3D ( 'NONE', #79, #247, #31 ) ;
#235 = CARTESIAN_POINT ( 'NONE',  ( 0.000000000000000000, 2.250000000000000000, 0.000000000000000000 ) ) ;
#236 =( GEOMETRIC_REPRESENTATION_CONTEXT ( 3 ) GLOBAL_UNCERTAINTY_ASSIGNED_CONTEXT ( ( #286 ) ) GLOBAL_UNIT_ASSIGNED_CONTEXT ( ( #185, #208, #65 ) ) REPRESENTATION_CONTEXT ( 'NONE', 'WORKASPACE' ) );
#237 = DIRECTION ( 'NONE',  ( 1.000000000000000000, 0.000000000000000000, 0.000000000000000000 ) ) ;
#238 = EDGE_LOOP ( 'NONE', ( #299, #192, #303, #126 ) ) ;
#239 = UNCERTAINTY_MEASURE_WITH_UNIT (LENGTH_MEASURE( 1.000000000000000082E-05 ), #228, 'distance_accuracy_value', 'NONE');
#240 = DIRECTION ( 'NONE',  ( -1.000000000000000000, 0.000000000000000000, 0.000000000000000000 ) ) ;
#241 = DIRECTION ( 'NONE',  ( -0.000000000000000000, -1.000000000000000000, -0.000000000000000000 ) ) ;
#242 = APPLICATION_PROTOCOL_DEFINITION ( 'draft international standard', 'automotive_design', 1998, #253 ) ;
#243 = AXIS2_PLACEMENT_3D ( 'NONE', #304, #145, #97 ) ;
#244 = FILL_AREA_STYLE ('',( #198 ) ) ;
#245 = ORIENTED_EDGE ( 'NONE', *, *, #66, .F. ) ;
#246 =( CONVERSION_BASED_UNIT ( 'INCH', #226 ) LENGTH_UNIT ( ) NAMED_UNIT ( #134 ) );
#247 = DIRECTION ( 'NONE',  ( 0.000000000000000000, 1.000000000000000000, 0.000000000000000000 ) ) ;
#248 = PRESENTATION_STYLE_ASSIGNMENT (( #183 ) ) ;
#249 = AXIS2_PLACEMENT_3D ( 'NONE', #177, #49, #237 ) ;
#250 = LENGTH_MEASURE_WITH_UNIT ( LENGTH_MEASURE( 0.02539999999999999897 ), #295 );
#251 = EDGE_CURVE ( 'NONE', #197, #231, #98, .T. ) ;
#252 = PRESENTATION_STYLE_ASSIGNMENT (( #117 ) ) ;
#253 = APPLICATION_CONTEXT ( 'automotive_design' ) ;
#254 = COLOUR_RGB ( '',1.000000000000000000, 0.000000000000000000, 0.000000000000000000 ) ;
#255 = CARTESIAN_POINT ( 'NONE',  ( 0.3750000000000000555, 5.000000000000000000, 0.000000000000000000 ) ) ;
#256 = ORIENTED_EDGE ( 'NONE', *, *, #274, .T. ) ;
#257 = LENGTH_MEASURE_WITH_UNIT ( LENGTH_MEASURE( 0.02539999999999999897 ), #258 );
#258 =( LENGTH_UNIT ( ) NAMED_UNIT ( * ) SI_UNIT ( $, .METRE. ) );
#259 = ORIENTED_EDGE ( 'NONE', *, *, #44, .T. ) ;
#260 = COLOUR_RGB ( '',0.7921568627450980005, 0.8196078431372548767, 0.9333333333333333481 ) ;
#261 = CARTESIAN_POINT ( 'NONE',  ( 0.000000000000000000, 0.000000000000000000, -0.3750000000000000555 ) ) ;
#262 = COLOUR_RGB ( '',1.000000000000000000, 0.000000000000000000, 0.000000000000000000 ) ;
#263 = CYLINDRICAL_SURFACE ( 'NONE', #221, 0.3750000000000001110 ) ;
#264 = DIRECTION ( 'NONE',  ( -4.453261087808557677E-17, 1.000000000000000000, -0.000000000000000000 ) ) ;
#265 = CIRCLE ( 'NONE', #81, 0.3750000000000000555 ) ;
#266 = CIRCLE ( 'NONE', #40, 0.3750000000000000555 ) ;
#267 = SURFACE_SIDE_STYLE ('',( #130 ) ) ;
#268 =( LENGTH_UNIT ( ) NAMED_UNIT ( * ) SI_UNIT ( $, .METRE. ) );
#269 = CIRCLE ( 'NONE', #42, 0.3750000000000001665 ) ;
#270 = DIRECTION ( 'NONE',  ( -1.000000000000000000, 0.000000000000000000, 0.000000000000000000 ) ) ;
#271 = PLANE ( 'NONE',  #210 ) ;
#272 = SURFACE_SIDE_STYLE ('',( #209 ) ) ;
#273 = MECHANICAL_DESIGN_GEOMETRIC_PRESENTATION_REPRESENTATION (  '', ( #1 ), #280 ) ;
#274 = EDGE_CURVE ( 'NONE', #220, #207, #269, .T. ) ;
#275 = FACE_OUTER_BOUND ( 'NONE', #285, .T. ) ;
#276 = EDGE_CURVE ( 'NONE', #85, #231, #180, .T. ) ;
#277 = SURFACE_SIDE_STYLE ('',( #43 ) ) ;
#278 = AXIS2_PLACEMENT_3D ( 'NONE', #150, #23, #133 ) ;
#279 = VERTEX_POINT ( 'NONE', #3 ) ;
#280 =( GEOMETRIC_REPRESENTATION_CONTEXT ( 3 ) GLOBAL_UNCERTAINTY_ASSIGNED_CONTEXT ( ( #239 ) ) GLOBAL_UNIT_ASSIGNED_CONTEXT ( ( #228, #298, #35 ) ) REPRESENTATION_CONTEXT ( 'NONE', 'WORKASPACE' ) );
#281 = CARTESIAN_POINT ( 'NONE',  ( -0.3750000000000002776, 5.000000000000000000, 0.000000000000000000 ) ) ;
#282 = CIRCLE ( 'NONE', #90, 0.3750000000000000555 ) ;
#283 = AXIS2_PLACEMENT_3D ( 'NONE', #235, #69, #164 ) ;
#284 = DIRECTION ( 'NONE',  ( -0.000000000000000000, -1.000000000000000000, -0.000000000000000000 ) ) ;
#285 = EDGE_LOOP ( 'NONE', ( #256, #259 ) ) ;
#286 = UNCERTAINTY_MEASURE_WITH_UNIT (LENGTH_MEASURE( 1.000000000000000082E-05 ), #185, 'distance_accuracy_value', 'NONE');
#287 = ORIENTED_EDGE ( 'NONE', *, *, #224, .F. ) ;
#288 = PRESENTATION_LAYER_ASSIGNMENT (  '', '', ( #119 ) ) ;
#289 = LENGTH_MEASURE_WITH_UNIT ( LENGTH_MEASURE( 0.02539999999999999897 ), #268 );
#290 = DIRECTION ( 'NONE',  ( -0.000000000000000000, -1.000000000000000000, -0.000000000000000000 ) ) ;
#291 = CARTESIAN_POINT ( 'NONE',  ( -1.224646799147353207E-16, 5.000000000000000000, 0.000000000000000000 ) ) ;
#292 = MECHANICAL_DESIGN_GEOMETRIC_PRESENTATION_REPRESENTATION (  '', ( #148 ), #211 ) ;
#293 = CARTESIAN_POINT ( 'NONE',  ( 0.000000000000000000, 2.250000000000000000, -0.3750000000000000555 ) ) ;
#294 = DIRECTION ( 'NONE',  ( -4.453261087808557677E-17, 1.000000000000000000, -0.000000000000000000 ) ) ;
#295 =( LENGTH_UNIT ( ) NAMED_UNIT ( * ) SI_UNIT ( $, .METRE. ) );
#296 = MANIFOLD_SOLID_BREP ( 'Revolve - Tool Body (Straight Shanked)', #5 ) ;
#297 = CYLINDRICAL_SURFACE ( 'NONE', #92, 0.3750000000000000555 ) ;
#298 =( NAMED_UNIT ( * ) PLANE_ANGLE_UNIT ( ) SI_UNIT ( $, .RADIAN. ) );
#299 = ORIENTED_EDGE ( 'NONE', *, *, #276, .F. ) ;
#300 = COLOUR_RGB ( '',0.7921568627450980005, 0.8196078431372548767, 0.9333333333333333481 ) ;
#301 = ORIENTED_EDGE ( 'NONE', *, *, #230, .F. ) ;
#302 = DIMENSIONAL_EXPONENTS ( 1.000000000000000000, 0.000000000000000000, 0.000000000000000000, 0.000000000000000000, 0.000000000000000000, 0.000000000000000000, 0.000000000000000000 ) ;
#303 = ORIENTED_EDGE ( 'NONE', *, *, #58, .T. ) ;
#304 = CARTESIAN_POINT ( 'NONE',  ( 0.000000000000000000, 0.000000000000000000, 0.000000000000000000 ) ) ;
#305 = ORIENTED_EDGE ( 'NONE', *, *, #10, .F. ) ;
#306 = PRODUCT_DEFINITION_CONTEXT ( 'detailed design', #155, 'design' ) ;
#307 = MECHANICAL_DESIGN_GEOMETRIC_PRESENTATION_REPRESENTATION (  '', ( #205 ), #46 ) ;
#308 =( LENGTH_UNIT ( ) NAMED_UNIT ( * ) SI_UNIT ( $, .METRE. ) );
#309 = EDGE_LOOP ( 'NONE', ( #245, #146 ) ) ;
ENDSEC;
END-ISO-10303-21;
