ISO-10303-21;
HEADER;
FILE_DESCRIPTION (( 'STEP AP214' ),
    '1' );
FILE_NAME ('07023.STEP',
    '2023-07-12T13:05:10',
    ( '' ),
    ( '' ),
    'SwSTEP 2.0',
    'SolidWorks 2023',
    '' );
FILE_SCHEMA (( 'AUTOMOTIVE_DESIGN' ));
ENDSEC;

DATA;
#1 = CIRCLE ( 'NONE', #190, 0.2500000000000000555 ) ;
#2 = PRESENTATION_LAYER_ASSIGNMENT (  '', '', ( #139 ) ) ;
#3 = EDGE_CURVE ( 'NONE', #64, #146, #128, .T. ) ;
#4 = DIRECTION ( 'NONE',  ( 1.000000000000000000, 0.000000000000000000, 0.000000000000000000 ) ) ;
#5 = PRODUCT_DEFINITION_CONTEXT ( 'detailed design', #47, 'design' ) ;
#6 = PLANE ( 'NONE',  #266 ) ;
#7 = VERTEX_POINT ( 'NONE', #292 ) ;
#8 = PRESENTATION_LAYER_ASSIGNMENT (  '', '', ( #32 ) ) ;
#9 = LINE ( 'NONE', #285, #171 ) ;
#10 = CARTESIAN_POINT ( 'NONE',  ( -0.04000000000000000083, 3.189124821773864270E-19, 0.000000000000000000 ) ) ;
#11 = DIRECTION ( 'NONE',  ( -1.236141203724602067E-16, 1.000000000000000000, -0.000000000000000000 ) ) ;
#12 = AXIS2_PLACEMENT_3D ( 'NONE', #113, #23, #257 ) ;
#13 =( CONVERSION_BASED_UNIT ( 'INCH', #94 ) LENGTH_UNIT ( ) NAMED_UNIT ( #304 ) );
#14 = AXIS2_PLACEMENT_3D ( 'NONE', #308, #96, #212 ) ;
#15 = CLOSED_SHELL ( 'NONE', ( #123, #209, #185, #151 ) ) ;
#16 = PRESENTATION_LAYER_ASSIGNMENT (  '', '', ( #281 ) ) ;
#17 = LINE ( 'NONE', #49, #235 ) ;
#18 = SHAPE_DEFINITION_REPRESENTATION ( #20, #268 ) ;
#19 = PRESENTATION_STYLE_ASSIGNMENT (( #260 ) ) ;
#20 = PRODUCT_DEFINITION_SHAPE ( 'NONE', 'NONE',  #38 ) ;
#21 = MECHANICAL_DESIGN_GEOMETRIC_PRESENTATION_REPRESENTATION (  '', ( #139 ), #216 ) ;
#22 = EDGE_CURVE ( 'NONE', #246, #288, #193, .T. ) ;
#23 = DIRECTION ( 'NONE',  ( 0.000000000000000000, 0.000000000000000000, 1.000000000000000000 ) ) ;
#24 = SURFACE_SIDE_STYLE ('',( #183 ) ) ;
#25 = DIMENSIONAL_EXPONENTS ( 1.000000000000000000, 0.000000000000000000, 0.000000000000000000, 0.000000000000000000, 0.000000000000000000, 0.000000000000000000, 0.000000000000000000 ) ;
#26 = UNCERTAINTY_MEASURE_WITH_UNIT (LENGTH_MEASURE( 1.000000000000000082E-05 ), #166, 'distance_accuracy_value', 'NONE');
#27 =( CONVERSION_BASED_UNIT ( 'INCH', #167 ) LENGTH_UNIT ( ) NAMED_UNIT ( #25 ) );
#28 = SURFACE_STYLE_USAGE ( .BOTH. , #56 ) ;
#29 = PRESENTATION_LAYER_ASSIGNMENT (  '', '', ( #135 ) ) ;
#30 =( NAMED_UNIT ( * ) SI_UNIT ( $, .STERADIAN. ) SOLID_ANGLE_UNIT ( ) );
#31 = CLOSED_SHELL ( 'NONE', ( #195, #140, #132, #276 ) ) ;
#32 = STYLED_ITEM ( 'NONE', ( #244 ), #209 ) ;
#33 = CARTESIAN_POINT ( 'NONE',  ( 1.449978133535231439E-18, 0.3637306695894631514, 0.000000000000000000 ) ) ;
#34 = ORIENTED_EDGE ( 'NONE', *, *, #273, .T. ) ;
#35 = FILL_AREA_STYLE ('',( #247 ) ) ;
#36 = APPLICATION_CONTEXT ( 'automotive_design' ) ;
#37 = EDGE_LOOP ( 'NONE', ( #254, #286 ) ) ;
#38 = PRODUCT_DEFINITION ( 'UNKNOWN', '', #189, #5 ) ;
#39 =( GEOMETRIC_REPRESENTATION_CONTEXT ( 3 ) GLOBAL_UNCERTAINTY_ASSIGNED_CONTEXT ( ( #309 ) ) GLOBAL_UNIT_ASSIGNED_CONTEXT ( ( #258, #51, #116 ) ) REPRESENTATION_CONTEXT ( 'NONE', 'WORKASPACE' ) );
#40 = COLOUR_RGB ( '',0.7921568627450980005, 0.8196078431372548767, 0.9333333333333333481 ) ;
#41 = SURFACE_STYLE_USAGE ( .BOTH. , #245 ) ;
#42 = ORIENTED_EDGE ( 'NONE', *, *, #273, .F. ) ;
#43 = SURFACE_STYLE_USAGE ( .BOTH. , #271 ) ;
#44 = LINE ( 'NONE', #133, #161 ) ;
#45 = COLOUR_RGB ( '',1.000000000000000000, 0.000000000000000000, 0.000000000000000000 ) ;
#46 =( NAMED_UNIT ( * ) SI_UNIT ( $, .STERADIAN. ) SOLID_ANGLE_UNIT ( ) );
#47 = APPLICATION_CONTEXT ( 'automotive_design' ) ;
#48 = VECTOR ( 'NONE', #291, 39.37007874015748143 ) ;
#49 = CARTESIAN_POINT ( 'NONE',  ( -0.2499999999999999167, 3.000000000000000444, 0.000000000000000000 ) ) ;
#50 = LENGTH_MEASURE_WITH_UNIT ( LENGTH_MEASURE( 0.02539999999999999897 ), #107 );
#51 =( NAMED_UNIT ( * ) PLANE_ANGLE_UNIT ( ) SI_UNIT ( $, .RADIAN. ) );
#52 =( NAMED_UNIT ( * ) SI_UNIT ( $, .STERADIAN. ) SOLID_ANGLE_UNIT ( ) );
#53 = DIRECTION ( 'NONE',  ( -3.986406027217330554E-18, -1.000000000000000000, -0.000000000000000000 ) ) ;
#54 = UNCERTAINTY_MEASURE_WITH_UNIT (LENGTH_MEASURE( 1.000000000000000082E-05 ), #71, 'distance_accuracy_value', 'NONE');
#55 = DIMENSIONAL_EXPONENTS ( 1.000000000000000000, 0.000000000000000000, 0.000000000000000000, 0.000000000000000000, 0.000000000000000000, 0.000000000000000000, 0.000000000000000000 ) ;
#56 = SURFACE_SIDE_STYLE ('',( #126 ) ) ;
#57 = FILL_AREA_STYLE ('',( #97 ) ) ;
#58 = CYLINDRICAL_SURFACE ( 'NONE', #303, 0.2499999999999998612 ) ;
#59 = COLOUR_RGB ( '',1.000000000000000000, 0.000000000000000000, 0.000000000000000000 ) ;
#60 = DIRECTION ( 'NONE',  ( -1.236141203724602067E-16, 1.000000000000000000, -0.000000000000000000 ) ) ;
#61 = ORIENTED_EDGE ( 'NONE', *, *, #130, .T. ) ;
#62 = DIRECTION ( 'NONE',  ( -1.000000000000000000, 3.986406027217330554E-18, 0.000000000000000000 ) ) ;
#63 = DIRECTION ( 'NONE',  ( 3.986406027217330554E-18, 1.000000000000000000, 0.000000000000000000 ) ) ;
#64 = VERTEX_POINT ( 'NONE', #253 ) ;
#65 = PRESENTATION_STYLE_ASSIGNMENT (( #43 ) ) ;
#66 = DIRECTION ( 'NONE',  ( -3.986406027217330554E-18, -1.000000000000000000, -0.000000000000000000 ) ) ;
#67 = APPLICATION_PROTOCOL_DEFINITION ( 'draft international standard', 'automotive_design', 1998, #47 ) ;
#68 = ORIENTED_EDGE ( 'NONE', *, *, #77, .F. ) ;
#69 =( LENGTH_UNIT ( ) NAMED_UNIT ( * ) SI_UNIT ( $, .METRE. ) );
#70 = DIMENSIONAL_EXPONENTS ( 1.000000000000000000, 0.000000000000000000, 0.000000000000000000, 0.000000000000000000, 0.000000000000000000, 0.000000000000000000, 0.000000000000000000 ) ;
#71 =( CONVERSION_BASED_UNIT ( 'INCH', #50 ) LENGTH_UNIT ( ) NAMED_UNIT ( #232 ) );
#72 = EDGE_CURVE ( 'NONE', #288, #229, #44, .T. ) ;
#73 = DIRECTION ( 'NONE',  ( 1.000000000000000000, -3.986406027217330554E-18, 0.000000000000000000 ) ) ;
#74 = FACE_OUTER_BOUND ( 'NONE', #134, .T. ) ;
#75 = DIRECTION ( 'NONE',  ( 3.986406027217330554E-18, 1.000000000000000000, 0.000000000000000000 ) ) ;
#76 = COLOUR_RGB ( '',0.7921568627450980005, 0.8196078431372548767, 0.9333333333333333481 ) ;
#77 = EDGE_CURVE ( 'NONE', #229, #7, #153, .T. ) ;
#78 = DIRECTION ( 'NONE',  ( -3.986406027217330554E-18, -1.000000000000000000, 0.000000000000000000 ) ) ;
#79 = CONICAL_SURFACE ( 'NONE', #152, 0.04000000000000000083, 0.5235987755983000369 ) ;
#80 = AXIS2_PLACEMENT_3D ( 'NONE', #87, #66, #155 ) ;
#81 = FACE_OUTER_BOUND ( 'NONE', #197, .T. ) ;
#82 =( NAMED_UNIT ( * ) PLANE_ANGLE_UNIT ( ) SI_UNIT ( $, .RADIAN. ) );
#83 = AXIS2_PLACEMENT_3D ( 'NONE', #224, #63, #62 ) ;
#84 = PRODUCT_RELATED_PRODUCT_CATEGORY ( 'part', '', ( #115 ) ) ;
#85 =( LENGTH_UNIT ( ) NAMED_UNIT ( * ) SI_UNIT ( $, .METRE. ) );
#86 = ORIENTED_EDGE ( 'NONE', *, *, #137, .T. ) ;
#87 = CARTESIAN_POINT ( 'NONE',  ( 6.356573205533864643E-37, 1.594562410886932135E-19, 0.000000000000000000 ) ) ;
#88 = COLOUR_RGB ( '',1.000000000000000000, 0.000000000000000000, 0.000000000000000000 ) ;
#89 =( NAMED_UNIT ( * ) SI_UNIT ( $, .STERADIAN. ) SOLID_ANGLE_UNIT ( ) );
#90 = LENGTH_MEASURE_WITH_UNIT ( LENGTH_MEASURE( 0.02539999999999999897 ), #69 );
#91 = FACE_OUTER_BOUND ( 'NONE', #148, .T. ) ;
#92 = DIRECTION ( 'NONE',  ( -1.000000000000000000, 0.000000000000000000, 0.000000000000000000 ) ) ;
#93 = FACE_OUTER_BOUND ( 'NONE', #223, .T. ) ;
#94 = LENGTH_MEASURE_WITH_UNIT ( LENGTH_MEASURE( 0.02539999999999999897 ), #297 );
#95 = CONICAL_SURFACE ( 'NONE', #198, 0.04000000000000000083, 0.5235987755983000369 ) ;
#96 = DIRECTION ( 'NONE',  ( -1.236141203724602067E-16, 1.000000000000000000, 0.000000000000000000 ) ) ;
#97 = FILL_AREA_STYLE_COLOUR ( '', #45 ) ;
#98 = MANIFOLD_SOLID_BREP ( 'Revolve - Tool Body (Tipped Off)', #31 ) ;
#99 = AXIS2_PLACEMENT_3D ( 'NONE', #225, #11, #201 ) ;
#100 = CARTESIAN_POINT ( 'NONE',  ( 6.356573205533864643E-37, 1.594562410886932135E-19, 0.000000000000000000 ) ) ;
#101 = ORIENTED_EDGE ( 'NONE', *, *, #220, .T. ) ;
#102 = DIRECTION ( 'NONE',  ( -1.236141203724602067E-16, 1.000000000000000000, -0.000000000000000000 ) ) ;
#103 = ORIENTED_EDGE ( 'NONE', *, *, #263, .T. ) ;
#104 = CARTESIAN_POINT ( 'NONE',  ( 2.646477743862255178E-16, 0.3637306695894629294, 0.000000000000000000 ) ) ;
#105 = ORIENTED_EDGE ( 'NONE', *, *, #3, .T. ) ;
#106 = ORIENTED_EDGE ( 'NONE', *, *, #72, .T. ) ;
#107 =( LENGTH_UNIT ( ) NAMED_UNIT ( * ) SI_UNIT ( $, .METRE. ) );
#108 = ORIENTED_EDGE ( 'NONE', *, *, #203, .F. ) ;
#109 = PRESENTATION_LAYER_ASSIGNMENT (  '', '', ( #228 ) ) ;
#110 = UNCERTAINTY_MEASURE_WITH_UNIT (LENGTH_MEASURE( 1.000000000000000082E-05 ), #173, 'distance_accuracy_value', 'NONE');
#111 = CIRCLE ( 'NONE', #306, 0.2499999999999999722 ) ;
#112 = CARTESIAN_POINT ( 'NONE',  ( 1.449978133535231439E-18, 0.3637306695894631514, 0.000000000000000000 ) ) ;
#113 = CARTESIAN_POINT ( 'NONE',  ( 0.000000000000000000, 0.000000000000000000, 0.000000000000000000 ) ) ;
#114 =( NAMED_UNIT ( * ) PLANE_ANGLE_UNIT ( ) SI_UNIT ( $, .RADIAN. ) );
#115 = PRODUCT ( '07023', '07023', '', ( #187 ) ) ;
#116 =( NAMED_UNIT ( * ) SI_UNIT ( $, .STERADIAN. ) SOLID_ANGLE_UNIT ( ) );
#117 = FILL_AREA_STYLE_COLOUR ( '', #40 ) ;
#118 = SURFACE_STYLE_FILL_AREA ( #188 ) ;
#119 =( NAMED_UNIT ( * ) PLANE_ANGLE_UNIT ( ) SI_UNIT ( $, .RADIAN. ) );
#120 = CIRCLE ( 'NONE', #230, 0.2499999999999996947 ) ;
#121 = CARTESIAN_POINT ( 'NONE',  ( 0.2499999999999999722, 0.3637306695894629294, 3.061616997868383018E-17 ) ) ;
#122 = LENGTH_MEASURE_WITH_UNIT ( LENGTH_MEASURE( 0.02539999999999999897 ), #164 );
#123 = ADVANCED_FACE ( 'NONE', ( #91 ), #79, .T. ) ;
#124 = PRESENTATION_STYLE_ASSIGNMENT (( #239 ) ) ;
#125 =( GEOMETRIC_REPRESENTATION_CONTEXT ( 3 ) GLOBAL_UNCERTAINTY_ASSIGNED_CONTEXT ( ( #213 ) ) GLOBAL_UNIT_ASSIGNED_CONTEXT ( ( #13, #255, #46 ) ) REPRESENTATION_CONTEXT ( 'NONE', 'WORKASPACE' ) );
#126 = SURFACE_STYLE_FILL_AREA ( #237 ) ;
#127 = AXIS2_PLACEMENT_3D ( 'NONE', #307, #78, #262 ) ;
#128 = CIRCLE ( 'NONE', #99, 0.2499999999999996947 ) ;
#129 = DIRECTION ( 'NONE',  ( -1.236141203724602067E-16, 1.000000000000000000, -0.000000000000000000 ) ) ;
#130 = EDGE_CURVE ( 'NONE', #64, #172, #17, .T. ) ;
#131 = LINE ( 'NONE', #218, #48 ) ;
#132 = ADVANCED_FACE ( 'NONE', ( #74 ), #299, .T. ) ;
#133 = CARTESIAN_POINT ( 'NONE',  ( 0.04000000000000000083, 0.000000000000000000, 4.898587196589413537E-18 ) ) ;
#134 = EDGE_LOOP ( 'NONE', ( #272, #103, #61, #204 ) ) ;
#135 = STYLED_ITEM ( 'NONE', ( #191 ), #151 ) ;
#136 = MECHANICAL_DESIGN_GEOMETRIC_PRESENTATION_REPRESENTATION (  '', ( #135 ), #265 ) ;
#137 = EDGE_CURVE ( 'NONE', #288, #246, #205, .T. ) ;
#138 = DIRECTION ( 'NONE',  ( -1.236141203724602067E-16, 1.000000000000000000, -0.000000000000000000 ) ) ;
#139 = STYLED_ITEM ( 'NONE', ( #19 ), #98 ) ;
#140 = ADVANCED_FACE ( 'NONE', ( #93 ), #159, .F. ) ;
#141 = FACE_OUTER_BOUND ( 'NONE', #176, .T. ) ;
#142 = SURFACE_SIDE_STYLE ('',( #163 ) ) ;
#143 = FILL_AREA_STYLE_COLOUR ( '', #76 ) ;
#144 = AXIS2_PLACEMENT_3D ( 'NONE', #231, #184, #73 ) ;
#145 =( NAMED_UNIT ( * ) SI_UNIT ( $, .STERADIAN. ) SOLID_ANGLE_UNIT ( ) );
#146 = VERTEX_POINT ( 'NONE', #121 ) ;
#147 = CARTESIAN_POINT ( 'NONE',  ( -6.123233995736770966E-17, 3.000000000000000444, 0.000000000000000000 ) ) ;
#148 = EDGE_LOOP ( 'NONE', ( #267, #106, #275, #42 ) ) ;
#149 = DIRECTION ( 'NONE',  ( 1.000000000000000000, 1.236141203724602067E-16, 0.000000000000000000 ) ) ;
#150 = ORIENTED_EDGE ( 'NONE', *, *, #130, .F. ) ;
#151 = ADVANCED_FACE ( 'NONE', ( #192 ), #283, .T. ) ;
#152 = AXIS2_PLACEMENT_3D ( 'NONE', #279, #75, #207 ) ;
#153 = CIRCLE ( 'NONE', #177, 0.2499999999999999722 ) ;
#154 = SURFACE_STYLE_FILL_AREA ( #175 ) ;
#155 = DIRECTION ( 'NONE',  ( 1.000000000000000000, -3.986406027217330554E-18, 0.000000000000000000 ) ) ;
#156 = EDGE_LOOP ( 'NONE', ( #200, #86 ) ) ;
#157 =( NAMED_UNIT ( * ) PLANE_ANGLE_UNIT ( ) SI_UNIT ( $, .RADIAN. ) );
#158 =( LENGTH_UNIT ( ) NAMED_UNIT ( * ) SI_UNIT ( $, .METRE. ) );
#159 = PLANE ( 'NONE',  #14 ) ;
#160 = CARTESIAN_POINT ( 'NONE',  ( -6.123233995736772199E-17, 3.000000000000000444, 0.000000000000000000 ) ) ;
#161 = VECTOR ( 'NONE', #227, 39.37007874015748143 ) ;
#162 = DIRECTION ( 'NONE',  ( 1.000000000000000000, 0.000000000000000000, 0.000000000000000000 ) ) ;
#163 = SURFACE_STYLE_FILL_AREA ( #57 ) ;
#164 =( LENGTH_UNIT ( ) NAMED_UNIT ( * ) SI_UNIT ( $, .METRE. ) );
#165 = DIRECTION ( 'NONE',  ( -1.236141203724602067E-16, 1.000000000000000000, -0.000000000000000000 ) ) ;
#166 =( CONVERSION_BASED_UNIT ( 'INCH', #122 ) LENGTH_UNIT ( ) NAMED_UNIT ( #55 ) );
#167 = LENGTH_MEASURE_WITH_UNIT ( LENGTH_MEASURE( 0.02539999999999999897 ), #282 );
#168 =( GEOMETRIC_REPRESENTATION_CONTEXT ( 3 ) GLOBAL_UNCERTAINTY_ASSIGNED_CONTEXT ( ( #110 ) ) GLOBAL_UNIT_ASSIGNED_CONTEXT ( ( #173, #82, #145 ) ) REPRESENTATION_CONTEXT ( 'NONE', 'WORKASPACE' ) );
#169 = DIRECTION ( 'NONE',  ( -1.000000000000000000, 0.000000000000000000, 0.000000000000000000 ) ) ;
#170 = ORIENTED_EDGE ( 'NONE', *, *, #3, .F. ) ;
#171 = VECTOR ( 'NONE', #129, 39.37007874015748143 ) ;
#172 = VERTEX_POINT ( 'NONE', #302 ) ;
#173 =( CONVERSION_BASED_UNIT ( 'INCH', #196 ) LENGTH_UNIT ( ) NAMED_UNIT ( #208 ) );
#174 = EDGE_LOOP ( 'NONE', ( #219, #68 ) ) ;
#175 = FILL_AREA_STYLE ('',( #143 ) ) ;
#176 = EDGE_LOOP ( 'NONE', ( #250, #270, #34, #179 ) ) ;
#177 = AXIS2_PLACEMENT_3D ( 'NONE', #112, #53, #162 ) ;
#178 = CARTESIAN_POINT ( 'NONE',  ( 0.2499999999999999167, 0.3637306695894631514, 3.061616997868382402E-17 ) ) ;
#179 = ORIENTED_EDGE ( 'NONE', *, *, #215, .T. ) ;
#180 = EDGE_CURVE ( 'NONE', #290, #172, #243, .T. ) ;
#181 = DIRECTION ( 'NONE',  ( -1.236141203724602067E-16, 1.000000000000000000, -0.000000000000000000 ) ) ;
#182 = APPLICATION_PROTOCOL_DEFINITION ( 'draft international standard', 'automotive_design', 1998, #36 ) ;
#183 = SURFACE_STYLE_FILL_AREA ( #186 ) ;
#184 = DIRECTION ( 'NONE',  ( -3.986406027217330554E-18, -1.000000000000000000, -0.000000000000000000 ) ) ;
#185 = ADVANCED_FACE ( 'NONE', ( #141 ), #95, .T. ) ;
#186 = FILL_AREA_STYLE ('',( #278 ) ) ;
#187 = PRODUCT_CONTEXT ( 'NONE', #36, 'mechanical' ) ;
#188 = FILL_AREA_STYLE ('',( #117 ) ) ;
#189 = PRODUCT_DEFINITION_FORMATION_WITH_SPECIFIED_SOURCE ( 'ANY', '', #115, .NOT_KNOWN. ) ;
#190 = AXIS2_PLACEMENT_3D ( 'NONE', #147, #202, #249 ) ;
#191 = PRESENTATION_STYLE_ASSIGNMENT (( #28 ) ) ;
#192 = FACE_OUTER_BOUND ( 'NONE', #156, .T. ) ;
#193 = CIRCLE ( 'NONE', #80, 0.04000000000000000083 ) ;
#194 = DIRECTION ( 'NONE',  ( 3.986406027217330554E-18, 1.000000000000000000, 0.000000000000000000 ) ) ;
#195 = ADVANCED_FACE ( 'NONE', ( #81 ), #58, .T. ) ;
#196 = LENGTH_MEASURE_WITH_UNIT ( LENGTH_MEASURE( 0.02539999999999999897 ), #85 );
#197 = EDGE_LOOP ( 'NONE', ( #105, #101, #108, #150 ) ) ;
#198 = AXIS2_PLACEMENT_3D ( 'NONE', #100, #194, #284 ) ;
#199 = FACE_OUTER_BOUND ( 'NONE', #37, .T. ) ;
#200 = ORIENTED_EDGE ( 'NONE', *, *, #22, .T. ) ;
#201 = DIRECTION ( 'NONE',  ( -1.000000000000000000, 0.000000000000000000, 0.000000000000000000 ) ) ;
#202 = DIRECTION ( 'NONE',  ( -1.236141203724602067E-16, 1.000000000000000000, -0.000000000000000000 ) ) ;
#203 = EDGE_CURVE ( 'NONE', #172, #290, #1, .T. ) ;
#204 = ORIENTED_EDGE ( 'NONE', *, *, #180, .F. ) ;
#205 = CIRCLE ( 'NONE', #144, 0.04000000000000000083 ) ;
#206 =( GEOMETRIC_REPRESENTATION_CONTEXT ( 3 ) GLOBAL_UNCERTAINTY_ASSIGNED_CONTEXT ( ( #26 ) ) GLOBAL_UNIT_ASSIGNED_CONTEXT ( ( #166, #240, #30 ) ) REPRESENTATION_CONTEXT ( 'NONE', 'WORKASPACE' ) );
#207 = DIRECTION ( 'NONE',  ( -1.000000000000000000, 3.986406027217330554E-18, 0.000000000000000000 ) ) ;
#208 = DIMENSIONAL_EXPONENTS ( 1.000000000000000000, 0.000000000000000000, 0.000000000000000000, 0.000000000000000000, 0.000000000000000000, 0.000000000000000000, 0.000000000000000000 ) ;
#209 = ADVANCED_FACE ( 'NONE', ( #287 ), #252, .T. ) ;
#210 =( NAMED_UNIT ( * ) SI_UNIT ( $, .STERADIAN. ) SOLID_ANGLE_UNIT ( ) );
#211 = MECHANICAL_DESIGN_GEOMETRIC_PRESENTATION_REPRESENTATION (  '', ( #228 ), #206 ) ;
#212 = DIRECTION ( 'NONE',  ( -1.000000000000000000, -1.236141203724602067E-16, 0.000000000000000000 ) ) ;
#213 = UNCERTAINTY_MEASURE_WITH_UNIT (LENGTH_MEASURE( 1.000000000000000082E-05 ), #13, 'distance_accuracy_value', 'NONE');
#214 = CARTESIAN_POINT ( 'NONE',  ( -6.123233995736770966E-17, 3.000000000000000444, 0.000000000000000000 ) ) ;
#215 = EDGE_CURVE ( 'NONE', #7, #229, #111, .T. ) ;
#216 =( GEOMETRIC_REPRESENTATION_CONTEXT ( 3 ) GLOBAL_UNCERTAINTY_ASSIGNED_CONTEXT ( ( #233 ) ) GLOBAL_UNIT_ASSIGNED_CONTEXT ( ( #301, #114, #52 ) ) REPRESENTATION_CONTEXT ( 'NONE', 'WORKASPACE' ) );
#217 = DIRECTION ( 'NONE',  ( -1.000000000000000000, 0.000000000000000000, 0.000000000000000000 ) ) ;
#218 = CARTESIAN_POINT ( 'NONE',  ( -0.04000000000000000083, 3.189124821773864270E-19, 0.000000000000000000 ) ) ;
#219 = ORIENTED_EDGE ( 'NONE', *, *, #215, .F. ) ;
#220 = EDGE_CURVE ( 'NONE', #146, #290, #9, .T. ) ;
#221 = DIRECTION ( 'NONE',  ( -3.986406027217330554E-18, -1.000000000000000000, -0.000000000000000000 ) ) ;
#222 = MECHANICAL_DESIGN_GEOMETRIC_PRESENTATION_REPRESENTATION (  '', ( #251 ), #39 ) ;
#223 = EDGE_LOOP ( 'NONE', ( #170, #248 ) ) ;
#224 = CARTESIAN_POINT ( 'NONE',  ( 1.449978133535231054E-18, 0.3637306695894631514, 0.000000000000000000 ) ) ;
#225 = CARTESIAN_POINT ( 'NONE',  ( 2.646477743862255178E-16, 0.3637306695894629294, 0.000000000000000000 ) ) ;
#226 = CARTESIAN_POINT ( 'NONE',  ( 0.04000000000000000083, 0.000000000000000000, 1.775737858763661608E-17 ) ) ;
#227 = DIRECTION ( 'NONE',  ( 0.5000000000000009992, 0.8660254037844380415, 6.123233995736778362E-17 ) ) ;
#228 = STYLED_ITEM ( 'NONE', ( #124 ), #185 ) ;
#229 = VERTEX_POINT ( 'NONE', #178 ) ;
#230 = AXIS2_PLACEMENT_3D ( 'NONE', #104, #60, #217 ) ;
#231 = CARTESIAN_POINT ( 'NONE',  ( 6.356573205533864643E-37, 1.594562410886932135E-19, 0.000000000000000000 ) ) ;
#232 = DIMENSIONAL_EXPONENTS ( 1.000000000000000000, 0.000000000000000000, 0.000000000000000000, 0.000000000000000000, 0.000000000000000000, 0.000000000000000000, 0.000000000000000000 ) ;
#233 = UNCERTAINTY_MEASURE_WITH_UNIT (LENGTH_MEASURE( 1.000000000000000082E-05 ), #301, 'distance_accuracy_value', 'NONE');
#234 = PRESENTATION_STYLE_ASSIGNMENT (( #277 ) ) ;
#235 = VECTOR ( 'NONE', #181, 39.37007874015748143 ) ;
#236 = LENGTH_MEASURE_WITH_UNIT ( LENGTH_MEASURE( 0.02539999999999999897 ), #158 );
#237 = FILL_AREA_STYLE ('',( #241 ) ) ;
#238 = CARTESIAN_POINT ( 'NONE',  ( -6.123233995736772199E-17, 3.000000000000000444, 0.000000000000000000 ) ) ;
#239 = SURFACE_STYLE_USAGE ( .BOTH. , #142 ) ;
#240 =( NAMED_UNIT ( * ) PLANE_ANGLE_UNIT ( ) SI_UNIT ( $, .RADIAN. ) );
#241 = FILL_AREA_STYLE_COLOUR ( '', #242 ) ;
#242 = COLOUR_RGB ( '',1.000000000000000000, 0.000000000000000000, 0.000000000000000000 ) ;
#243 = CIRCLE ( 'NONE', #293, 0.2500000000000000555 ) ;
#244 = PRESENTATION_STYLE_ASSIGNMENT (( #41 ) ) ;
#245 = SURFACE_SIDE_STYLE ('',( #294 ) ) ;
#246 = VERTEX_POINT ( 'NONE', #10 ) ;
#247 = FILL_AREA_STYLE_COLOUR ( '', #59 ) ;
#248 = ORIENTED_EDGE ( 'NONE', *, *, #263, .F. ) ;
#249 = DIRECTION ( 'NONE',  ( -1.000000000000000000, 0.000000000000000000, 0.000000000000000000 ) ) ;
#250 = ORIENTED_EDGE ( 'NONE', *, *, #72, .F. ) ;
#251 = STYLED_ITEM ( 'NONE', ( #234 ), #123 ) ;
#252 = PLANE ( 'NONE',  #83 ) ;
#253 = CARTESIAN_POINT ( 'NONE',  ( -0.2499999999999994171, 0.3637306695894629294, 0.000000000000000000 ) ) ;
#254 = ORIENTED_EDGE ( 'NONE', *, *, #203, .T. ) ;
#255 =( NAMED_UNIT ( * ) PLANE_ANGLE_UNIT ( ) SI_UNIT ( $, .RADIAN. ) );
#256 =( GEOMETRIC_REPRESENTATION_CONTEXT ( 3 ) GLOBAL_UNCERTAINTY_ASSIGNED_CONTEXT ( ( #54 ) ) GLOBAL_UNIT_ASSIGNED_CONTEXT ( ( #71, #157, #89 ) ) REPRESENTATION_CONTEXT ( 'NONE', 'WORKASPACE' ) );
#257 = DIRECTION ( 'NONE',  ( 1.000000000000000000, 0.000000000000000000, 0.000000000000000000 ) ) ;
#258 =( CONVERSION_BASED_UNIT ( 'INCH', #236 ) LENGTH_UNIT ( ) NAMED_UNIT ( #70 ) );
#259 = SURFACE_SIDE_STYLE ('',( #118 ) ) ;
#260 = SURFACE_STYLE_USAGE ( .BOTH. , #259 ) ;
#261 = MECHANICAL_DESIGN_GEOMETRIC_PRESENTATION_REPRESENTATION (  '', ( #281 ), #256 ) ;
#262 = DIRECTION ( 'NONE',  ( 1.000000000000000000, -3.986406027217330554E-18, 0.000000000000000000 ) ) ;
#263 = EDGE_CURVE ( 'NONE', #146, #64, #120, .T. ) ;
#264 = DIRECTION ( 'NONE',  ( -1.000000000000000000, 0.000000000000000000, 0.000000000000000000 ) ) ;
#265 =( GEOMETRIC_REPRESENTATION_CONTEXT ( 3 ) GLOBAL_UNCERTAINTY_ASSIGNED_CONTEXT ( ( #300 ) ) GLOBAL_UNIT_ASSIGNED_CONTEXT ( ( #27, #119, #210 ) ) REPRESENTATION_CONTEXT ( 'NONE', 'WORKASPACE' ) );
#266 = AXIS2_PLACEMENT_3D ( 'NONE', #289, #269, #149 ) ;
#267 = ORIENTED_EDGE ( 'NONE', *, *, #137, .F. ) ;
#268 = ADVANCED_BREP_SHAPE_REPRESENTATION ( '07023', ( #305, #98, #12 ), #125 ) ;
#269 = DIRECTION ( 'NONE',  ( 1.236141203724602067E-16, -1.000000000000000000, 0.000000000000000000 ) ) ;
#270 = ORIENTED_EDGE ( 'NONE', *, *, #22, .F. ) ;
#271 = SURFACE_SIDE_STYLE ('',( #154 ) ) ;
#272 = ORIENTED_EDGE ( 'NONE', *, *, #220, .F. ) ;
#273 = EDGE_CURVE ( 'NONE', #246, #7, #131, .T. ) ;
#274 = CARTESIAN_POINT ( 'NONE',  ( 0.2500000000000000000, 3.000000000000000444, 3.061616997868383018E-17 ) ) ;
#275 = ORIENTED_EDGE ( 'NONE', *, *, #77, .T. ) ;
#276 = ADVANCED_FACE ( 'NONE', ( #199 ), #6, .F. ) ;
#277 = SURFACE_STYLE_USAGE ( .BOTH. , #24 ) ;
#278 = FILL_AREA_STYLE_COLOUR ( '', #88 ) ;
#279 = CARTESIAN_POINT ( 'NONE',  ( 6.356573205533864643E-37, 1.594562410886932135E-19, 0.000000000000000000 ) ) ;
#280 = AXIS2_PLACEMENT_3D ( 'NONE', #160, #138, #92 ) ;
#281 = STYLED_ITEM ( 'NONE', ( #65 ), #305 ) ;
#282 =( LENGTH_UNIT ( ) NAMED_UNIT ( * ) SI_UNIT ( $, .METRE. ) );
#283 = PLANE ( 'NONE',  #127 ) ;
#284 = DIRECTION ( 'NONE',  ( -1.000000000000000000, 3.986406027217330554E-18, 0.000000000000000000 ) ) ;
#285 = CARTESIAN_POINT ( 'NONE',  ( 0.2499999999999998057, 3.000000000000000444, 3.061616997868381785E-17 ) ) ;
#286 = ORIENTED_EDGE ( 'NONE', *, *, #180, .T. ) ;
#287 = FACE_OUTER_BOUND ( 'NONE', #174, .T. ) ;
#288 = VERTEX_POINT ( 'NONE', #226 ) ;
#289 = CARTESIAN_POINT ( 'NONE',  ( 0.2500000000000000000, 3.000000000000000444, 0.000000000000000000 ) ) ;
#290 = VERTEX_POINT ( 'NONE', #274 ) ;
#291 = DIRECTION ( 'NONE',  ( -0.5000000000000009992, 0.8660254037844380415, 0.000000000000000000 ) ) ;
#292 = CARTESIAN_POINT ( 'NONE',  ( -0.2499999999999999167, 0.3637306695894631514, 0.000000000000000000 ) ) ;
#293 = AXIS2_PLACEMENT_3D ( 'NONE', #214, #165, #264 ) ;
#294 = SURFACE_STYLE_FILL_AREA ( #35 ) ;
#295 = MECHANICAL_DESIGN_GEOMETRIC_PRESENTATION_REPRESENTATION (  '', ( #32 ), #168 ) ;
#296 = DIMENSIONAL_EXPONENTS ( 1.000000000000000000, 0.000000000000000000, 0.000000000000000000, 0.000000000000000000, 0.000000000000000000, 0.000000000000000000, 0.000000000000000000 ) ;
#297 =( LENGTH_UNIT ( ) NAMED_UNIT ( * ) SI_UNIT ( $, .METRE. ) );
#298 = PRESENTATION_LAYER_ASSIGNMENT (  '', '', ( #251 ) ) ;
#299 = CYLINDRICAL_SURFACE ( 'NONE', #280, 0.2499999999999998612 ) ;
#300 = UNCERTAINTY_MEASURE_WITH_UNIT (LENGTH_MEASURE( 1.000000000000000082E-05 ), #27, 'distance_accuracy_value', 'NONE');
#301 =( CONVERSION_BASED_UNIT ( 'INCH', #90 ) LENGTH_UNIT ( ) NAMED_UNIT ( #296 ) );
#302 = CARTESIAN_POINT ( 'NONE',  ( -0.2500000000000001110, 3.000000000000000444, 0.000000000000000000 ) ) ;
#303 = AXIS2_PLACEMENT_3D ( 'NONE', #238, #102, #169 ) ;
#304 = DIMENSIONAL_EXPONENTS ( 1.000000000000000000, 0.000000000000000000, 0.000000000000000000, 0.000000000000000000, 0.000000000000000000, 0.000000000000000000, 0.000000000000000000 ) ;
#305 = MANIFOLD_SOLID_BREP ( 'Revolve - Cutting Edge', #15 ) ;
#306 = AXIS2_PLACEMENT_3D ( 'NONE', #33, #221, #4 ) ;
#307 = CARTESIAN_POINT ( 'NONE',  ( 3.178286602766932321E-37, 7.972812054434660674E-20, 0.000000000000000000 ) ) ;
#308 = CARTESIAN_POINT ( 'NONE',  ( 2.646477743862255178E-16, 0.3637306695894631514, 0.000000000000000000 ) ) ;
#309 = UNCERTAINTY_MEASURE_WITH_UNIT (LENGTH_MEASURE( 1.000000000000000082E-05 ), #258, 'distance_accuracy_value', 'NONE');
ENDSEC;
END-ISO-10303-21;
