ISO-10303-21;
HEADER;
FILE_DESCRIPTION (( 'STEP AP214' ),
    '1' );
FILE_NAME ('Micro_GEC-250-4-030.STEP',
    '2021-09-03T17:16:49',
    ( '' ),
    ( '' ),
    'SwSTEP 2.0',
    'SolidWorks 2020',
    '' );
FILE_SCHEMA (( 'AUTOMOTIVE_DESIGN' ));
ENDSEC;

DATA;
#1 = VERTEX_POINT ( 'NONE', #345 ) ;
#2 = VECTOR ( 'NONE', #63, 39.37007874015748143 ) ;
#3 = UNCERTAINTY_MEASURE_WITH_UNIT (LENGTH_MEASURE( 1.000000000000000082E-05 ), #48, 'distance_accuracy_value', 'NONE');
#4 = CARTESIAN_POINT ( 'NONE',  ( 0.09487500000000000100, 0.0000000000000000000, 0.02999999999999999889 ) ) ;
#5 = DIRECTION ( 'NONE',  ( 1.000000000000000000, 0.0000000000000000000, 0.0000000000000000000 ) ) ;
#6 = CARTESIAN_POINT ( 'NONE',  ( 3.673940397442059190E-18, 0.0000000000000000000, 0.02999999999999999889 ) ) ;
#7 = VECTOR ( 'NONE', #61, 39.37007874015748143 ) ;
#8 = DIRECTION ( 'NONE',  ( 1.000000000000000000, 0.0000000000000000000, 0.0000000000000000000 ) ) ;
#9 = EDGE_LOOP ( 'NONE', ( #333, #116, #75, #255 ) ) ;
#10 = DIRECTION ( 'NONE',  ( 0.0000000000000000000, 0.0000000000000000000, 1.000000000000000000 ) ) ;
#11 = DIRECTION ( 'NONE',  ( 1.000000000000000000, 0.0000000000000000000, 0.0000000000000000000 ) ) ;
#12 = AXIS2_PLACEMENT_3D ( 'NONE', #4, #49, #210 ) ;
#13 = VERTEX_POINT ( 'NONE', #159 ) ;
#14 = CARTESIAN_POINT ( 'NONE',  ( 9.193532640014472135E-17, 0.0000000000000000000, 0.7507089102274522308 ) ) ;
#15 = CIRCLE ( 'NONE', #50, 0.09487500000000000100 ) ;
#16 = ORIENTED_EDGE ( 'NONE', *, *, #286, .T. ) ;
#17 = DIRECTION ( 'NONE',  ( -1.224646799147353207E-16, -0.0000000000000000000, -1.000000000000000000 ) ) ;
#18 = EDGE_LOOP ( 'NONE', ( #137, #87, #95, #292 ) ) ;
#19 = LENGTH_MEASURE_WITH_UNIT ( LENGTH_MEASURE( 0.02539999999999999897 ), #21 );
#20 = AXIS2_PLACEMENT_3D ( 'NONE', #280, #199, #279 ) ;
#21 =( LENGTH_UNIT ( ) NAMED_UNIT ( * ) SI_UNIT ( $, .METRE. ) );
#22 = VERTEX_POINT ( 'NONE', #107 ) ;
#23 = CIRCLE ( 'NONE', #157, 0.1100000000000001948 ) ;
#24 = DIRECTION ( 'NONE',  ( 1.000000000000000000, 0.0000000000000000000, 0.0000000000000000000 ) ) ;
#25 = VERTEX_POINT ( 'NONE', #47 ) ;
#26 = EDGE_CURVE ( 'NONE', #85, #25, #232, .T. ) ;
#27 = DIRECTION ( 'NONE',  ( 0.0000000000000000000, 0.0000000000000000000, -1.000000000000000000 ) ) ;
#28 = MANIFOLD_SOLID_BREP ( 'Fillet1', #139 ) ;
#29 = AXIS2_PLACEMENT_3D ( 'NONE', #161, #27, #140 ) ;
#30 = DIRECTION ( 'NONE',  ( -1.224646799147353207E-16, -0.0000000000000000000, -1.000000000000000000 ) ) ;
#31 = CARTESIAN_POINT ( 'NONE',  ( 0.0000000000000000000, 0.0000000000000000000, 2.500000000000000000 ) ) ;
#32 = DIRECTION ( 'NONE',  ( 1.000000000000000000, 0.0000000000000000000, 0.0000000000000000000 ) ) ;
#33 = EDGE_LOOP ( 'NONE', ( #283, #275, #234, #229 ) ) ;
#34 = AXIS2_PLACEMENT_3D ( 'NONE', #269, #195, #32 ) ;
#35 = DIRECTION ( 'NONE',  ( -0.0000000000000000000, -0.0000000000000000000, -1.000000000000000000 ) ) ;
#36 = ORIENTED_EDGE ( 'NONE', *, *, #273, .T. ) ;
#37 = CARTESIAN_POINT ( 'NONE',  ( 3.673940397442059190E-18, 0.0000000000000000000, 0.0000000000000000000 ) ) ;
#38 = EDGE_CURVE ( 'NONE', #13, #22, #127, .T. ) ;
#39 = VERTEX_POINT ( 'NONE', #212 ) ;
#40 = CARTESIAN_POINT ( 'NONE',  ( 0.0000000000000000000, 0.0000000000000000000, 2.500000000000000000 ) ) ;
#41 = DIRECTION ( 'NONE',  ( -0.0000000000000000000, -0.0000000000000000000, -1.000000000000000000 ) ) ;
#42 = CARTESIAN_POINT ( 'NONE',  ( 9.184850993605150903E-17, 0.0000000000000000000, 0.7500000000000001110 ) ) ;
#43 = CYLINDRICAL_SURFACE ( 'NONE', #167, 0.1248749999999999999 ) ;
#44 = DIRECTION ( 'NONE',  ( -1.000000000000000000, 1.224646799147352714E-16, 0.0000000000000000000 ) ) ;
#45 = CIRCLE ( 'NONE', #324, 0.1250000000000000000 ) ;
#46 = APPLICATION_PROTOCOL_DEFINITION ( 'draft international standard', 'automotive_design', 1998, #125 ) ;
#47 = CARTESIAN_POINT ( 'NONE',  ( 0.1248749999999999999, 1.529277690435257475E-17, 0.03000000000000000583 ) ) ;
#48 =( CONVERSION_BASED_UNIT ( 'INCH', #347 ) LENGTH_UNIT ( ) NAMED_UNIT ( #348 ) );
#49 = DIRECTION ( 'NONE',  ( 0.0000000000000000000, -1.000000000000000000, 0.0000000000000000000 ) ) ;
#50 = AXIS2_PLACEMENT_3D ( 'NONE', #99, #315, #24 ) ;
#51 = PRESENTATION_STYLE_ASSIGNMENT (( #184 ) ) ;
#52 = DIRECTION ( 'NONE',  ( 1.000000000000000000, 0.0000000000000000000, 0.0000000000000000000 ) ) ;
#53 = VERTEX_POINT ( 'NONE', #69 ) ;
#54 = CARTESIAN_POINT ( 'NONE',  ( 3.673940397442059960E-18, 0.0000000000000000000, 0.03000000000000000583 ) ) ;
#55 = VECTOR ( 'NONE', #169, 39.37007874015748143 ) ;
#56 = DIRECTION ( 'NONE',  ( -1.000000000000000000, 0.0000000000000000000, 0.0000000000000000000 ) ) ;
#57 = CARTESIAN_POINT ( 'NONE',  ( 0.0000000000000000000, 0.0000000000000000000, 2.500000000000000000 ) ) ;
#58 = CARTESIAN_POINT ( 'NONE',  ( -0.1249999999999999167, 0.0000000000000000000, 0.7507089102274522308 ) ) ;
#59 = EDGE_LOOP ( 'NONE', ( #238, #265 ) ) ;
#60 = CIRCLE ( 'NONE', #81, 0.1248749999999999999 ) ;
#61 = DIRECTION ( 'NONE',  ( -1.224646799147353207E-16, -0.0000000000000000000, -1.000000000000000000 ) ) ;
#62 = ORIENTED_EDGE ( 'NONE', *, *, #198, .F. ) ;
#63 = DIRECTION ( 'NONE',  ( -0.0000000000000000000, -0.0000000000000000000, -1.000000000000000000 ) ) ;
#64 = ORIENTED_EDGE ( 'NONE', *, *, #298, .T. ) ;
#65 = LINE ( 'NONE', #259, #2 ) ;
#66 = ORIENTED_EDGE ( 'NONE', *, *, #208, .T. ) ;
#67 = VECTOR ( 'NONE', #204, 39.37007874015747433 ) ;
#68 = PLANE ( 'NONE',  #20 ) ;
#69 = CARTESIAN_POINT ( 'NONE',  ( -0.1100000000000001948, 0.0000000000000000000, 2.500000000000000000 ) ) ;
#70 = DIRECTION ( 'NONE',  ( 0.0000000000000000000, 0.0000000000000000000, 1.000000000000000000 ) ) ;
#71 = CARTESIAN_POINT ( 'NONE',  ( 0.0000000000000000000, 0.0000000000000000000, 0.0000000000000000000 ) ) ;
#72 = AXIS2_PLACEMENT_3D ( 'NONE', #37, #300, #11 ) ;
#73 =( NAMED_UNIT ( * ) SI_UNIT ( $, .STERADIAN. ) SOLID_ANGLE_UNIT ( ) );
#74 = APPLICATION_PROTOCOL_DEFINITION ( 'draft international standard', 'automotive_design', 1998, #101 ) ;
#75 = ORIENTED_EDGE ( 'NONE', *, *, #121, .T. ) ;
#76 = ORIENTED_EDGE ( 'NONE', *, *, #131, .T. ) ;
#77 = AXIS2_PLACEMENT_3D ( 'NONE', #6, #142, #147 ) ;
#78 = DIMENSIONAL_EXPONENTS ( 1.000000000000000000, 0.0000000000000000000, 0.0000000000000000000, 0.0000000000000000000, 0.0000000000000000000, 0.0000000000000000000, 0.0000000000000000000 ) ;
#79 = FACE_OUTER_BOUND ( 'NONE', #33, .T. ) ;
#80 = DIRECTION ( 'NONE',  ( 0.0000000000000000000, 0.0000000000000000000, 1.000000000000000000 ) ) ;
#81 = AXIS2_PLACEMENT_3D ( 'NONE', #332, #10, #5 ) ;
#82 =( GEOMETRIC_REPRESENTATION_CONTEXT ( 3 ) GLOBAL_UNCERTAINTY_ASSIGNED_CONTEXT ( ( #3 ) ) GLOBAL_UNIT_ASSIGNED_CONTEXT ( ( #48, #209, #73 ) ) REPRESENTATION_CONTEXT ( 'NONE', 'WORKASPACE' ) );
#83 = DIRECTION ( 'NONE',  ( 1.224646799147353207E-16, 0.0000000000000000000, 1.000000000000000000 ) ) ;
#84 = CARTESIAN_POINT ( 'NONE',  ( -0.1248749999999999999, 0.0000000000000000000, 0.03000000000000000583 ) ) ;
#85 = VERTEX_POINT ( 'NONE', #178 ) ;
#86 = CARTESIAN_POINT ( 'NONE',  ( 0.0000000000000000000, 0.0000000000000000000, 0.0000000000000000000 ) ) ;
#87 = ORIENTED_EDGE ( 'NONE', *, *, #296, .T. ) ;
#88 = CONICAL_SURFACE ( 'NONE', #163, 0.1100000000000001948, 0.7853981633974517207 ) ;
#89 = DIRECTION ( 'NONE',  ( 0.7071067811865499042, 8.659560562354961208E-17, -0.7071067811865451302 ) ) ;
#90 = EDGE_LOOP ( 'NONE', ( #272, #64, #180, #313 ) ) ;
#91 = CARTESIAN_POINT ( 'NONE',  ( 0.1100000000000001948, 1.347111479062090784E-17, 2.500000000000000000 ) ) ;
#92 = ORIENTED_EDGE ( 'NONE', *, *, #248, .F. ) ;
#93 = CARTESIAN_POINT ( 'NONE',  ( 3.673940397442059190E-18, 0.0000000000000000000, 0.02999999999999999889 ) ) ;
#94 = ADVANCED_BREP_SHAPE_REPRESENTATION ( 'Micro_GEC-250-4-030', ( #28, #177 ), #312 ) ;
#95 = ORIENTED_EDGE ( 'NONE', *, *, #260, .T. ) ;
#96 = AXIS2_PLACEMENT_3D ( 'NONE', #54, #80, #327 ) ;
#97 = CARTESIAN_POINT ( 'NONE',  ( 0.0000000000000000000, 0.0000000000000000000, 2.500000000000000000 ) ) ;
#98 = EDGE_CURVE ( 'NONE', #39, #168, #156, .T. ) ;
#99 = CARTESIAN_POINT ( 'NONE',  ( 3.673940397442059190E-18, 0.0000000000000000000, 0.0000000000000000000 ) ) ;
#100 = DIRECTION ( 'NONE',  ( 1.000000000000000000, 0.0000000000000000000, 0.0000000000000000000 ) ) ;
#101 = APPLICATION_CONTEXT ( 'automotive_design' ) ;
#102 = SURFACE_STYLE_FILL_AREA ( #288 ) ;
#103 = EDGE_CURVE ( 'NONE', #85, #341, #15, .T. ) ;
#104 =( NAMED_UNIT ( * ) PLANE_ANGLE_UNIT ( ) SI_UNIT ( $, .RADIAN. ) );
#105 = EDGE_CURVE ( 'NONE', #145, #25, #331, .T. ) ;
#106 = ORIENTED_EDGE ( 'NONE', *, *, #38, .T. ) ;
#107 = CARTESIAN_POINT ( 'NONE',  ( 0.1250000000000000000, 1.530808498934191509E-17, 2.485000000000000320 ) ) ;
#108 = VERTEX_POINT ( 'NONE', #58 ) ;
#109 = CARTESIAN_POINT ( 'NONE',  ( -0.1100000000000001948, 0.0000000000000000000, 2.500000000000000000 ) ) ;
#110 = DIRECTION ( 'NONE',  ( 0.0000000000000000000, 0.0000000000000000000, -1.000000000000000000 ) ) ;
#111 = CIRCLE ( 'NONE', #72, 0.09487500000000000100 ) ;
#112 = PRESENTATION_LAYER_ASSIGNMENT (  '', '', ( #153 ) ) ;
#113 = CARTESIAN_POINT ( 'NONE',  ( 0.0000000000000000000, 0.0000000000000000000, 0.0000000000000000000 ) ) ;
#114 = VERTEX_POINT ( 'NONE', #166 ) ;
#115 = DIRECTION ( 'NONE',  ( -0.7071067811865499042, 0.0000000000000000000, -0.7071067811865451302 ) ) ;
#116 = ORIENTED_EDGE ( 'NONE', *, *, #105, .T. ) ;
#117 = DIRECTION ( 'NONE',  ( -1.000000000000000000, 0.0000000000000000000, 1.224646799147353454E-16 ) ) ;
#118 = PRODUCT_DEFINITION ( 'UNKNOWN', '', #350, #223 ) ;
#119 = VECTOR ( 'NONE', #89, 39.37007874015748143 ) ;
#120 = CARTESIAN_POINT ( 'NONE',  ( 0.0000000000000000000, 0.0000000000000000000, 2.485000000000000320 ) ) ;
#121 = EDGE_CURVE ( 'NONE', #25, #168, #222, .T. ) ;
#122 = DIRECTION ( 'NONE',  ( 1.224646799147353207E-16, 1.000000000000000000, -0.0000000000000000000 ) ) ;
#123 = ORIENTED_EDGE ( 'NONE', *, *, #214, .F. ) ;
#124 = DIRECTION ( 'NONE',  ( -1.224646799147353207E-16, -0.0000000000000000000, -1.000000000000000000 ) ) ;
#125 = APPLICATION_CONTEXT ( 'automotive_design' ) ;
#126 = ORIENTED_EDGE ( 'NONE', *, *, #198, .T. ) ;
#127 = CIRCLE ( 'NONE', #29, 0.1250000000000000000 ) ;
#128 = AXIS2_PLACEMENT_3D ( 'NONE', #120, #224, #221 ) ;
#129 = CARTESIAN_POINT ( 'NONE',  ( -0.09487500000000000100, 1.161883650691051402E-17, 0.02999999999999999889 ) ) ;
#130 = PRODUCT ( 'Micro_GEC-250-4-030', 'Micro_GEC-250-4-030', '', ( #321 ) ) ;
#131 = EDGE_CURVE ( 'NONE', #341, #85, #111, .T. ) ;
#132 = SURFACE_SIDE_STYLE ('',( #102 ) ) ;
#133 = ADVANCED_FACE ( 'NONE', ( #79 ), #291, .T. ) ;
#134 = ADVANCED_FACE ( 'NONE', ( #213 ), #240, .T. ) ;
#135 = PRODUCT_DEFINITION_SHAPE ( 'NONE', 'NONE',  #118 ) ;
#136 = PRESENTATION_STYLE_ASSIGNMENT (( #264 ) ) ;
#137 = ORIENTED_EDGE ( 'NONE', *, *, #328, .F. ) ;
#138 = EDGE_LOOP ( 'NONE', ( #245, #76 ) ) ;
#139 = CLOSED_SHELL ( 'NONE', ( #344, #134, #133, #189, #323, #211, #317, #172, #263, #294, #236, #188 ) ) ;
#140 = DIRECTION ( 'NONE',  ( 1.000000000000000000, 0.0000000000000000000, 0.0000000000000000000 ) ) ;
#141 = CIRCLE ( 'NONE', #297, 0.1248749999999999999 ) ;
#142 = DIRECTION ( 'NONE',  ( 0.0000000000000000000, 0.0000000000000000000, 1.000000000000000000 ) ) ;
#143 = FACE_OUTER_BOUND ( 'NONE', #225, .T. ) ;
#144 = AXIS2_PLACEMENT_3D ( 'NONE', #190, #83, #268 ) ;
#145 = VERTEX_POINT ( 'NONE', #241 ) ;
#146 = MECHANICAL_DESIGN_GEOMETRIC_PRESENTATION_REPRESENTATION (  '', ( #153 ), #82 ) ;
#147 = DIRECTION ( 'NONE',  ( 1.000000000000000000, 0.0000000000000000000, 0.0000000000000000000 ) ) ;
#148 = ORIENTED_EDGE ( 'NONE', *, *, #301, .F. ) ;
#149 = DIRECTION ( 'NONE',  ( 1.000000000000000000, 0.0000000000000000000, -0.0000000000000000000 ) ) ;
#150 = CARTESIAN_POINT ( 'NONE',  ( -0.1248749999999999166, 1.529277690435257475E-17, 0.7500000000000001110 ) ) ;
#151 = ORIENTED_EDGE ( 'NONE', *, *, #131, .F. ) ;
#152 = AXIS2_PLACEMENT_3D ( 'NONE', #40, #342, #282 ) ;
#153 = STYLED_ITEM ( 'NONE', ( #136 ), #94 ) ;
#154 = CARTESIAN_POINT ( 'NONE',  ( -0.09487500000000000100, 1.345580670563154592E-17, 0.0000000000000000000 ) ) ;
#155 = CARTESIAN_POINT ( 'NONE',  ( 9.184850993605150903E-17, 0.0000000000000000000, 0.7500000000000001110 ) ) ;
#156 = LINE ( 'NONE', #289, #244 ) ;
#157 = AXIS2_PLACEMENT_3D ( 'NONE', #31, #215, #8 ) ;
#158 = UNCERTAINTY_MEASURE_WITH_UNIT (LENGTH_MEASURE( 1.000000000000000082E-05 ), #252, 'distance_accuracy_value', 'NONE');
#159 = CARTESIAN_POINT ( 'NONE',  ( -0.1250000000000000000, 0.0000000000000000000, 2.485000000000000320 ) ) ;
#160 = ORIENTED_EDGE ( 'NONE', *, *, #301, .T. ) ;
#161 = CARTESIAN_POINT ( 'NONE',  ( 0.0000000000000000000, 0.0000000000000000000, 2.485000000000000320 ) ) ;
#162 = FACE_OUTER_BOUND ( 'NONE', #90, .T. ) ;
#163 = AXIS2_PLACEMENT_3D ( 'NONE', #243, #110, #267 ) ;
#164 = PLANE ( 'NONE',  #185 ) ;
#165 = DIRECTION ( 'NONE',  ( 0.0000000000000000000, 0.0000000000000000000, 1.000000000000000000 ) ) ;
#166 = CARTESIAN_POINT ( 'NONE',  ( 0.1250000000000000833, 1.530808498934192433E-17, 0.7507089102274522308 ) ) ;
#167 = AXIS2_PLACEMENT_3D ( 'NONE', #71, #316, #173 ) ;
#168 = VERTEX_POINT ( 'NONE', #84 ) ;
#169 = DIRECTION ( 'NONE',  ( -0.0000000000000000000, -0.0000000000000000000, -1.000000000000000000 ) ) ;
#170 = DIRECTION ( 'NONE',  ( -1.000000000000000000, 0.0000000000000000000, 0.0000000000000000000 ) ) ;
#171 = EDGE_LOOP ( 'NONE', ( #106, #322, #92, #308 ) ) ;
#172 = ADVANCED_FACE ( 'NONE', ( #143 ), #88, .T. ) ;
#173 = DIRECTION ( 'NONE',  ( -1.000000000000000000, 0.0000000000000000000, 1.224646799147353454E-16 ) ) ;
#174 = MECHANICAL_DESIGN_GEOMETRIC_PRESENTATION_REPRESENTATION (  '', ( #242 ), #290 ) ;
#175 = EDGE_LOOP ( 'NONE', ( #281, #148, #66, #36 ) ) ;
#176 = AXIS2_PLACEMENT_3D ( 'NONE', #93, #70, #346 ) ;
#177 = AXIS2_PLACEMENT_3D ( 'NONE', #319, #183, #52 ) ;
#178 = CARTESIAN_POINT ( 'NONE',  ( 0.09487500000000000100, 0.0000000000000000000, 0.0000000000000000000 ) ) ;
#179 = LINE ( 'NONE', #150, #67 ) ;
#180 = ORIENTED_EDGE ( 'NONE', *, *, #38, .F. ) ;
#181 = LINE ( 'NONE', #91, #119 ) ;
#182 = TOROIDAL_SURFACE ( 'NONE', #77, 0.09487500000000000100, 0.02999999999999999889 ) ;
#183 = DIRECTION ( 'NONE',  ( 0.0000000000000000000, 0.0000000000000000000, 1.000000000000000000 ) ) ;
#184 = SURFACE_STYLE_USAGE ( .BOTH. , #205 ) ;
#185 = AXIS2_PLACEMENT_3D ( 'NONE', #86, #165, #149 ) ;
#186 = SURFACE_STYLE_FILL_AREA ( #326 ) ;
#187 =( LENGTH_UNIT ( ) NAMED_UNIT ( * ) SI_UNIT ( $, .METRE. ) );
#188 = ADVANCED_FACE ( 'NONE', ( #194 ), #182, .T. ) ;
#189 = ADVANCED_FACE ( 'NONE', ( #162 ), #258, .T. ) ;
#190 = CARTESIAN_POINT ( 'NONE',  ( 9.184850993605150903E-17, 0.0000000000000000000, 0.7500000000000001110 ) ) ;
#191 = LINE ( 'NONE', #109, #203 ) ;
#192 = TOROIDAL_SURFACE ( 'NONE', #176, 0.09487500000000000100, 0.02999999999999999889 ) ;
#193 = CARTESIAN_POINT ( 'NONE',  ( 0.1248750000000000970, 0.0000000000000000000, 0.7500000000000001110 ) ) ;
#194 = FACE_OUTER_BOUND ( 'NONE', #237, .T. ) ;
#195 = DIRECTION ( 'NONE',  ( -1.224646799147353207E-16, -0.0000000000000000000, -1.000000000000000000 ) ) ;
#196 = CIRCLE ( 'NONE', #152, 0.1100000000000001948 ) ;
#197 = ORIENTED_EDGE ( 'NONE', *, *, #98, .T. ) ;
#198 = EDGE_CURVE ( 'NONE', #168, #25, #60, .T. ) ;
#199 = DIRECTION ( 'NONE',  ( 0.0000000000000000000, 0.0000000000000000000, 1.000000000000000000 ) ) ;
#200 = FACE_OUTER_BOUND ( 'NONE', #171, .T. ) ;
#201 = EDGE_CURVE ( 'NONE', #53, #13, #191, .T. ) ;
#202 = ORIENTED_EDGE ( 'NONE', *, *, #298, .F. ) ;
#203 = VECTOR ( 'NONE', #115, 39.37007874015748143 ) ;
#204 = DIRECTION ( 'NONE',  ( -0.1736481776669311083, 2.126576849575782084E-17, 0.9848077530122080203 ) ) ;
#205 = SURFACE_SIDE_STYLE ('',( #186 ) ) ;
#206 =( NAMED_UNIT ( * ) SI_UNIT ( $, .STERADIAN. ) SOLID_ANGLE_UNIT ( ) );
#207 = LENGTH_MEASURE_WITH_UNIT ( LENGTH_MEASURE( 0.02539999999999999897 ), #187 );
#208 = EDGE_CURVE ( 'NONE', #145, #114, #329, .T. ) ;
#209 =( NAMED_UNIT ( * ) PLANE_ANGLE_UNIT ( ) SI_UNIT ( $, .RADIAN. ) );
#210 = DIRECTION ( 'NONE',  ( 0.0000000000000000000, 0.0000000000000000000, -1.000000000000000000 ) ) ;
#211 = ADVANCED_FACE ( 'NONE', ( #220 ), #334, .T. ) ;
#212 = CARTESIAN_POINT ( 'NONE',  ( -0.1248749999999999166, 1.530043094684724646E-17, 0.7500000000000001110 ) ) ;
#213 = FACE_OUTER_BOUND ( 'NONE', #9, .T. ) ;
#214 = EDGE_CURVE ( 'NONE', #53, #1, #23, .T. ) ;
#215 = DIRECTION ( 'NONE',  ( 0.0000000000000000000, 0.0000000000000000000, 1.000000000000000000 ) ) ;
#216 = AXIS2_PLACEMENT_3D ( 'NONE', #129, #122, #44 ) ;
#217 = AXIS2_PLACEMENT_3D ( 'NONE', #246, #274, #218 ) ;
#218 = DIRECTION ( 'NONE',  ( -1.000000000000000000, 0.0000000000000000000, 0.0000000000000000000 ) ) ;
#219 = ORIENTED_EDGE ( 'NONE', *, *, #103, .F. ) ;
#220 = FACE_OUTER_BOUND ( 'NONE', #18, .T. ) ;
#221 = DIRECTION ( 'NONE',  ( 1.000000000000000000, 0.0000000000000000000, 0.0000000000000000000 ) ) ;
#222 = CIRCLE ( 'NONE', #96, 0.1248749999999999999 ) ;
#223 = PRODUCT_DEFINITION_CONTEXT ( 'detailed design', #101, 'design' ) ;
#224 = DIRECTION ( 'NONE',  ( 0.0000000000000000000, 0.0000000000000000000, -1.000000000000000000 ) ) ;
#225 = EDGE_LOOP ( 'NONE', ( #202, #123, #339, #306 ) ) ;
#226 = DIRECTION ( 'NONE',  ( -1.224646799147353207E-16, -0.0000000000000000000, -1.000000000000000000 ) ) ;
#227 = EDGE_LOOP ( 'NONE', ( #247, #160, #197, #126 ) ) ;
#228 = FACE_OUTER_BOUND ( 'NONE', #227, .T. ) ;
#229 = ORIENTED_EDGE ( 'NONE', *, *, #208, .F. ) ;
#230 = CONICAL_SURFACE ( 'NONE', #349, 0.1248749999999999999, 0.1745329251994338082 ) ;
#231 = SHAPE_DEFINITION_REPRESENTATION ( #135, #94 ) ;
#232 = CIRCLE ( 'NONE', #12, 0.02999999999999999889 ) ;
#233 =( CONVERSION_BASED_UNIT ( 'INCH', #207 ) LENGTH_UNIT ( ) NAMED_UNIT ( #320 ) );
#234 = ORIENTED_EDGE ( 'NONE', *, *, #248, .T. ) ;
#235 = FILL_AREA_STYLE_COLOUR ( '', #325 ) ;
#236 = ADVANCED_FACE ( 'NONE', ( #270 ), #164, .F. ) ;
#237 = EDGE_LOOP ( 'NONE', ( #277, #219, #310, #62 ) ) ;
#238 = ORIENTED_EDGE ( 'NONE', *, *, #214, .T. ) ;
#239 = UNCERTAINTY_MEASURE_WITH_UNIT (LENGTH_MEASURE( 1.000000000000000082E-05 ), #233, 'distance_accuracy_value', 'NONE');
#240 = CYLINDRICAL_SURFACE ( 'NONE', #337, 0.1248749999999999999 ) ;
#241 = CARTESIAN_POINT ( 'NONE',  ( 0.1248750000000000970, 0.0000000000000000000, 0.7500000000000001110 ) ) ;
#242 = STYLED_ITEM ( 'NONE', ( #51 ), #28 ) ;
#243 = CARTESIAN_POINT ( 'NONE',  ( 0.0000000000000000000, 0.0000000000000000000, 2.500000000000000000 ) ) ;
#244 = VECTOR ( 'NONE', #257, 39.37007874015748143 ) ;
#245 = ORIENTED_EDGE ( 'NONE', *, *, #103, .T. ) ;
#246 = CARTESIAN_POINT ( 'NONE',  ( 0.0000000000000000000, 0.0000000000000000000, 2.500000000000000000 ) ) ;
#247 = ORIENTED_EDGE ( 'NONE', *, *, #105, .F. ) ;
#248 = EDGE_CURVE ( 'NONE', #108, #114, #266, .T. ) ;
#249 = CARTESIAN_POINT ( 'NONE',  ( 0.1248749999999999999, 1.529277690435257475E-17, -1.529277690435257475E-17 ) ) ;
#250 = ORIENTED_EDGE ( 'NONE', *, *, #121, .F. ) ;
#251 = COLOUR_RGB ( '',0.7921568627450980005, 0.8196078431372548767, 0.9333333333333333481 ) ;
#252 =( CONVERSION_BASED_UNIT ( 'INCH', #19 ) LENGTH_UNIT ( ) NAMED_UNIT ( #78 ) );
#253 = AXIS2_PLACEMENT_3D ( 'NONE', #42, #17, #170 ) ;
#254 = FACE_OUTER_BOUND ( 'NONE', #303, .T. ) ;
#255 = ORIENTED_EDGE ( 'NONE', *, *, #98, .F. ) ;
#256 = FACE_OUTER_BOUND ( 'NONE', #59, .T. ) ;
#257 = DIRECTION ( 'NONE',  ( -1.224646799147353207E-16, -0.0000000000000000000, -1.000000000000000000 ) ) ;
#258 = CONICAL_SURFACE ( 'NONE', #217, 0.1100000000000001948, 0.7853981633974517207 ) ;
#259 = CARTESIAN_POINT ( 'NONE',  ( 0.1250000000000000000, 1.530808498934191509E-17, 2.500000000000000000 ) ) ;
#260 = EDGE_CURVE ( 'NONE', #13, #108, #302, .T. ) ;
#261 =( NAMED_UNIT ( * ) SI_UNIT ( $, .STERADIAN. ) SOLID_ANGLE_UNIT ( ) );
#262 = FILL_AREA_STYLE_COLOUR ( '', #251 ) ;
#263 = ADVANCED_FACE ( 'NONE', ( #338 ), #230, .T. ) ;
#264 = SURFACE_STYLE_USAGE ( .BOTH. , #132 ) ;
#265 = ORIENTED_EDGE ( 'NONE', *, *, #340, .T. ) ;
#266 = CIRCLE ( 'NONE', #34, 0.1250000000000000000 ) ;
#267 = DIRECTION ( 'NONE',  ( -1.000000000000000000, 0.0000000000000000000, 0.0000000000000000000 ) ) ;
#268 = DIRECTION ( 'NONE',  ( 1.000000000000000000, 0.0000000000000000000, 0.0000000000000000000 ) ) ;
#269 = CARTESIAN_POINT ( 'NONE',  ( 9.193532640014472135E-17, 0.0000000000000000000, 0.7507089102274522308 ) ) ;
#270 = FACE_OUTER_BOUND ( 'NONE', #138, .T. ) ;
#271 = CIRCLE ( 'NONE', #216, 0.03000000000000000583 ) ;
#272 = ORIENTED_EDGE ( 'NONE', *, *, #340, .F. ) ;
#273 = EDGE_CURVE ( 'NONE', #114, #108, #45, .T. ) ;
#274 = DIRECTION ( 'NONE',  ( 0.0000000000000000000, 0.0000000000000000000, -1.000000000000000000 ) ) ;
#275 = ORIENTED_EDGE ( 'NONE', *, *, #351, .T. ) ;
#276 = DIRECTION ( 'NONE',  ( -1.000000000000000000, 0.0000000000000000000, 0.0000000000000000000 ) ) ;
#277 = ORIENTED_EDGE ( 'NONE', *, *, #286, .F. ) ;
#278 = EDGE_CURVE ( 'NONE', #39, #145, #285, .T. ) ;
#279 = DIRECTION ( 'NONE',  ( 1.000000000000000000, 0.0000000000000000000, -0.0000000000000000000 ) ) ;
#280 = CARTESIAN_POINT ( 'NONE',  ( 0.0000000000000000000, 0.0000000000000000000, 2.500000000000000000 ) ) ;
#281 = ORIENTED_EDGE ( 'NONE', *, *, #351, .F. ) ;
#282 = DIRECTION ( 'NONE',  ( 1.000000000000000000, 0.0000000000000000000, 0.0000000000000000000 ) ) ;
#283 = ORIENTED_EDGE ( 'NONE', *, *, #278, .F. ) ;
#284 =( NAMED_UNIT ( * ) PLANE_ANGLE_UNIT ( ) SI_UNIT ( $, .RADIAN. ) );
#285 = CIRCLE ( 'NONE', #253, 0.1248749999999999999 ) ;
#286 = EDGE_CURVE ( 'NONE', #341, #168, #271, .T. ) ;
#287 = PRODUCT_RELATED_PRODUCT_CATEGORY ( 'part', '', ( #130 ) ) ;
#288 = FILL_AREA_STYLE ('',( #235 ) ) ;
#289 = CARTESIAN_POINT ( 'NONE',  ( -0.1248749999999999999, 0.0000000000000000000, 1.529277690435257475E-17 ) ) ;
#290 =( GEOMETRIC_REPRESENTATION_CONTEXT ( 3 ) GLOBAL_UNCERTAINTY_ASSIGNED_CONTEXT ( ( #239 ) ) GLOBAL_UNIT_ASSIGNED_CONTEXT ( ( #233, #104, #206 ) ) REPRESENTATION_CONTEXT ( 'NONE', 'WORKASPACE' ) );
#291 = CONICAL_SURFACE ( 'NONE', #144, 0.1248749999999999999, 0.1745329251994338082 ) ;
#292 = ORIENTED_EDGE ( 'NONE', *, *, #273, .F. ) ;
#293 =( LENGTH_UNIT ( ) NAMED_UNIT ( * ) SI_UNIT ( $, .METRE. ) );
#294 = ADVANCED_FACE ( 'NONE', ( #228 ), #43, .T. ) ;
#295 = PRESENTATION_LAYER_ASSIGNMENT (  '', '', ( #242 ) ) ;
#296 = EDGE_CURVE ( 'NONE', #22, #13, #330, .T. ) ;
#297 = AXIS2_PLACEMENT_3D ( 'NONE', #155, #226, #276 ) ;
#298 = EDGE_CURVE ( 'NONE', #1, #22, #181, .T. ) ;
#299 = DIRECTION ( 'NONE',  ( 0.1736481776669313026, 0.0000000000000000000, 0.9848077530122077983 ) ) ;
#300 = DIRECTION ( 'NONE',  ( -0.0000000000000000000, -0.0000000000000000000, -1.000000000000000000 ) ) ;
#301 = EDGE_CURVE ( 'NONE', #145, #39, #141, .T. ) ;
#302 = LINE ( 'NONE', #304, #55 ) ;
#303 = EDGE_LOOP ( 'NONE', ( #151, #16, #250, #335 ) ) ;
#304 = CARTESIAN_POINT ( 'NONE',  ( -0.1250000000000000000, 0.0000000000000000000, 2.500000000000000000 ) ) ;
#305 = VECTOR ( 'NONE', #299, 39.37007874015748143 ) ;
#306 = ORIENTED_EDGE ( 'NONE', *, *, #296, .F. ) ;
#307 = CYLINDRICAL_SURFACE ( 'NONE', #318, 0.1250000000000000000 ) ;
#308 = ORIENTED_EDGE ( 'NONE', *, *, #260, .F. ) ;
#309 = DIRECTION ( 'NONE',  ( 1.000000000000000000, 0.0000000000000000000, 0.0000000000000000000 ) ) ;
#310 = ORIENTED_EDGE ( 'NONE', *, *, #26, .T. ) ;
#311 = DIRECTION ( 'NONE',  ( -1.000000000000000000, 0.0000000000000000000, 0.0000000000000000000 ) ) ;
#312 =( GEOMETRIC_REPRESENTATION_CONTEXT ( 3 ) GLOBAL_UNCERTAINTY_ASSIGNED_CONTEXT ( ( #158 ) ) GLOBAL_UNIT_ASSIGNED_CONTEXT ( ( #252, #284, #261 ) ) REPRESENTATION_CONTEXT ( 'NONE', 'WORKASPACE' ) );
#313 = ORIENTED_EDGE ( 'NONE', *, *, #201, .F. ) ;
#314 = CARTESIAN_POINT ( 'NONE',  ( 9.184850993605150903E-17, 0.0000000000000000000, 0.7500000000000001110 ) ) ;
#315 = DIRECTION ( 'NONE',  ( -0.0000000000000000000, -0.0000000000000000000, -1.000000000000000000 ) ) ;
#316 = DIRECTION ( 'NONE',  ( -1.224646799147353207E-16, -0.0000000000000000000, -1.000000000000000000 ) ) ;
#317 = ADVANCED_FACE ( 'NONE', ( #256 ), #68, .T. ) ;
#318 = AXIS2_PLACEMENT_3D ( 'NONE', #97, #41, #311 ) ;
#319 = CARTESIAN_POINT ( 'NONE',  ( 0.0000000000000000000, 0.0000000000000000000, 0.0000000000000000000 ) ) ;
#320 = DIMENSIONAL_EXPONENTS ( 1.000000000000000000, 0.0000000000000000000, 0.0000000000000000000, 0.0000000000000000000, 0.0000000000000000000, 0.0000000000000000000, 0.0000000000000000000 ) ;
#321 = PRODUCT_CONTEXT ( 'NONE', #125, 'mechanical' ) ;
#322 = ORIENTED_EDGE ( 'NONE', *, *, #328, .T. ) ;
#323 = ADVANCED_FACE ( 'NONE', ( #200 ), #307, .T. ) ;
#324 = AXIS2_PLACEMENT_3D ( 'NONE', #14, #124, #100 ) ;
#325 = COLOUR_RGB ( '',0.7921568627450980005, 0.8196078431372548767, 0.9333333333333333481 ) ;
#326 = FILL_AREA_STYLE ('',( #262 ) ) ;
#327 = DIRECTION ( 'NONE',  ( 1.000000000000000000, 0.0000000000000000000, 0.0000000000000000000 ) ) ;
#328 = EDGE_CURVE ( 'NONE', #22, #114, #65, .T. ) ;
#329 = LINE ( 'NONE', #193, #305 ) ;
#330 = CIRCLE ( 'NONE', #128, 0.1250000000000000000 ) ;
#331 = LINE ( 'NONE', #249, #7 ) ;
#332 = CARTESIAN_POINT ( 'NONE',  ( 3.673940397442059960E-18, 0.0000000000000000000, 0.03000000000000000583 ) ) ;
#333 = ORIENTED_EDGE ( 'NONE', *, *, #278, .T. ) ;
#334 = CYLINDRICAL_SURFACE ( 'NONE', #343, 0.1250000000000000000 ) ;
#335 = ORIENTED_EDGE ( 'NONE', *, *, #26, .F. ) ;
#336 = DIRECTION ( 'NONE',  ( 1.224646799147353207E-16, 0.0000000000000000000, 1.000000000000000000 ) ) ;
#337 = AXIS2_PLACEMENT_3D ( 'NONE', #113, #30, #117 ) ;
#338 = FACE_OUTER_BOUND ( 'NONE', #175, .T. ) ;
#339 = ORIENTED_EDGE ( 'NONE', *, *, #201, .T. ) ;
#340 = EDGE_CURVE ( 'NONE', #1, #53, #196, .T. ) ;
#341 = VERTEX_POINT ( 'NONE', #154 ) ;
#342 = DIRECTION ( 'NONE',  ( 0.0000000000000000000, 0.0000000000000000000, 1.000000000000000000 ) ) ;
#343 = AXIS2_PLACEMENT_3D ( 'NONE', #57, #35, #56 ) ;
#344 = ADVANCED_FACE ( 'NONE', ( #254 ), #192, .T. ) ;
#345 = CARTESIAN_POINT ( 'NONE',  ( 0.1100000000000001948, 1.438959988998141146E-17, 2.500000000000000000 ) ) ;
#346 = DIRECTION ( 'NONE',  ( 1.000000000000000000, 0.0000000000000000000, 0.0000000000000000000 ) ) ;
#347 = LENGTH_MEASURE_WITH_UNIT ( LENGTH_MEASURE( 0.02539999999999999897 ), #293 );
#348 = DIMENSIONAL_EXPONENTS ( 1.000000000000000000, 0.0000000000000000000, 0.0000000000000000000, 0.0000000000000000000, 0.0000000000000000000, 0.0000000000000000000, 0.0000000000000000000 ) ;
#349 = AXIS2_PLACEMENT_3D ( 'NONE', #314, #336, #309 ) ;
#350 = PRODUCT_DEFINITION_FORMATION_WITH_SPECIFIED_SOURCE ( 'ANY', '', #130, .NOT_KNOWN. ) ;
#351 = EDGE_CURVE ( 'NONE', #39, #108, #179, .T. ) ;
ENDSEC;
END-ISO-10303-21;
