ISO-10303-21;
HEADER;
FILE_DESCRIPTION (( 'STEP AP214' ),
    '1' );
FILE_NAME ('Micro_AMRM-018-2.STEP',
    '2021-09-01T17:16:09',
    ( '' ),
    ( '' ),
    'SwSTEP 2.0',
    'SolidWorks 2020',
    '' );
FILE_SCHEMA (( 'AUTOMOTIVE_DESIGN' ));
ENDSEC;

DATA;
#1 = EDGE_CURVE ( 'NONE', #245, #280, #105, .T. ) ;
#2 = CARTESIAN_POINT ( 'NONE',  ( 5.308784739067854796E-34, 0.0000000000000000000, 4.334951712415397505E-18 ) ) ;
#3 = ORIENTED_EDGE ( 'NONE', *, *, #99, .T. ) ;
#4 = ORIENTED_EDGE ( 'NONE', *, *, #57, .T. ) ;
#5 = ORIENTED_EDGE ( 'NONE', *, *, #184, .T. ) ;
#6 =( GEOMETRIC_REPRESENTATION_CONTEXT ( 3 ) GLOBAL_UNCERTAINTY_ASSIGNED_CONTEXT ( ( #167 ) ) GLOBAL_UNIT_ASSIGNED_CONTEXT ( ( #283, #29, #163 ) ) REPRESENTATION_CONTEXT ( 'NONE', 'WORKASPACE' ) );
#7 = PRODUCT_CONTEXT ( 'NONE', #220, 'mechanical' ) ;
#8 = EDGE_LOOP ( 'NONE', ( #71, #216 ) ) ;
#9 = ORIENTED_EDGE ( 'NONE', *, *, #219, .T. ) ;
#10 = AXIS2_PLACEMENT_3D ( 'NONE', #107, #198, #126 ) ;
#11 = DIRECTION ( 'NONE',  ( 0.7071067811865507924, 8.659560562354973534E-17, -0.7071067811865443531 ) ) ;
#12 = EDGE_CURVE ( 'NONE', #171, #141, #258, .T. ) ;
#13 = CIRCLE ( 'NONE', #20, 0.07874000000000001831 ) ;
#14 = DIRECTION ( 'NONE',  ( -0.0000000000000000000, -0.0000000000000000000, -1.000000000000000000 ) ) ;
#15 = ADVANCED_FACE ( 'NONE', ( #238 ), #47, .F. ) ;
#16 = DIRECTION ( 'NONE',  ( -1.000000000000000000, 0.0000000000000000000, 0.0000000000000000000 ) ) ;
#17 = DIRECTION ( 'NONE',  ( 0.0000000000000000000, 0.0000000000000000000, -1.000000000000000000 ) ) ;
#18 = CONICAL_SURFACE ( 'NONE', #42, 0.03539756699999999784, 0.1745329251994338915 ) ;
#19 = DIRECTION ( 'NONE',  ( 1.000000000000000000, 0.0000000000000000000, 0.0000000000000000000 ) ) ;
#20 = AXIS2_PLACEMENT_3D ( 'NONE', #77, #263, #118 ) ;
#21 = PRESENTATION_STYLE_ASSIGNMENT (( #133 ) ) ;
#22 = ORIENTED_EDGE ( 'NONE', *, *, #83, .T. ) ;
#23 = EDGE_CURVE ( 'NONE', #81, #30, #13, .T. ) ;
#24 = DIRECTION ( 'NONE',  ( -1.224646799147353207E-16, -0.0000000000000000000, -1.000000000000000000 ) ) ;
#25 = CLOSED_SHELL ( 'NONE', ( #197, #289, #59, #92, #134, #53, #151, #215, #165, #15 ) ) ;
#26 = DIRECTION ( 'NONE',  ( 0.0000000000000000000, 0.0000000000000000000, 1.000000000000000000 ) ) ;
#27 = SURFACE_SIDE_STYLE ('',( #55 ) ) ;
#28 = ORIENTED_EDGE ( 'NONE', *, *, #132, .T. ) ;
#29 =( NAMED_UNIT ( * ) PLANE_ANGLE_UNIT ( ) SI_UNIT ( $, .RADIAN. ) );
#30 = VERTEX_POINT ( 'NONE', #170 ) ;
#31 = ORIENTED_EDGE ( 'NONE', *, *, #57, .F. ) ;
#32 = ORIENTED_EDGE ( 'NONE', *, *, #298, .T. ) ;
#33 = SURFACE_STYLE_USAGE ( .BOTH. , #27 ) ;
#34 = ORIENTED_EDGE ( 'NONE', *, *, #161, .F. ) ;
#35 = CARTESIAN_POINT ( 'NONE',  ( 0.07874000000000001831, 9.642868896486260050E-18, 1.968503999999999809 ) ) ;
#36 = DIRECTION ( 'NONE',  ( 0.0000000000000000000, 0.0000000000000000000, -1.000000000000000000 ) ) ;
#37 = AXIS2_PLACEMENT_3D ( 'NONE', #138, #241, #76 ) ;
#38 = CIRCLE ( 'NONE', #190, 0.03539756699999999784 ) ;
#39 = FACE_OUTER_BOUND ( 'NONE', #121, .T. ) ;
#40 = DIRECTION ( 'NONE',  ( -1.000000000000000000, 0.0000000000000000000, 0.0000000000000000000 ) ) ;
#41 = CARTESIAN_POINT ( 'NONE',  ( 0.0000000000000000000, 0.0000000000000000000, 1.968503999999999809 ) ) ;
#42 = AXIS2_PLACEMENT_3D ( 'NONE', #70, #116, #44 ) ;
#43 = FACE_OUTER_BOUND ( 'NONE', #206, .T. ) ;
#44 = DIRECTION ( 'NONE',  ( 1.000000000000000000, 0.0000000000000000000, 0.0000000000000000000 ) ) ;
#45 =( LENGTH_UNIT ( ) NAMED_UNIT ( * ) SI_UNIT ( $, .METRE. ) );
#46 = CARTESIAN_POINT ( 'NONE',  ( 0.06374000000000018540, 8.724383797125754882E-18, 1.968503999999999809 ) ) ;
#47 = PLANE ( 'NONE',  #86 ) ;
#48 = CONICAL_SURFACE ( 'NONE', #67, 0.03539756699999999784, 0.1745329251994338915 ) ;
#49 = ORIENTED_EDGE ( 'NONE', *, *, #147, .F. ) ;
#50 = APPLICATION_PROTOCOL_DEFINITION ( 'draft international standard', 'automotive_design', 1998, #220 ) ;
#51 = ORIENTED_EDGE ( 'NONE', *, *, #99, .F. ) ;
#52 = ORIENTED_EDGE ( 'NONE', *, *, #23, .T. ) ;
#53 = ADVANCED_FACE ( 'NONE', ( #266 ), #56, .T. ) ;
#54 = CIRCLE ( 'NONE', #62, 0.07874000000000001831 ) ;
#55 = SURFACE_STYLE_FILL_AREA ( #73 ) ;
#56 = PLANE ( 'NONE',  #244 ) ;
#57 = EDGE_CURVE ( 'NONE', #231, #30, #166, .T. ) ;
#58 = CARTESIAN_POINT ( 'NONE',  ( 0.06374000000000018540, 7.805898697765251255E-18, 1.968503999999999809 ) ) ;
#59 = ADVANCED_FACE ( 'NONE', ( #85 ), #114, .T. ) ;
#60 = LINE ( 'NONE', #127, #287 ) ;
#61 = LINE ( 'NONE', #128, #177 ) ;
#62 = AXIS2_PLACEMENT_3D ( 'NONE', #293, #129, #294 ) ;
#63 = AXIS2_PLACEMENT_3D ( 'NONE', #111, #180, #224 ) ;
#64 = CYLINDRICAL_SURFACE ( 'NONE', #150, 0.07874000000000001831 ) ;
#65 = DIRECTION ( 'NONE',  ( -0.0000000000000000000, -0.0000000000000000000, -1.000000000000000000 ) ) ;
#66 = AXIS2_PLACEMENT_3D ( 'NONE', #251, #142, #16 ) ;
#67 = AXIS2_PLACEMENT_3D ( 'NONE', #227, #94, #183 ) ;
#68 = EDGE_LOOP ( 'NONE', ( #120, #284, #277, #211 ) ) ;
#69 = PRODUCT ( 'Micro_AMRM-018-2', 'Micro_AMRM-018-2', '', ( #7 ) ) ;
#70 = CARTESIAN_POINT ( 'NONE',  ( 2.555360257568858967E-17, 0.0000000000000000000, 0.2086610000000000131 ) ) ;
#71 = ORIENTED_EDGE ( 'NONE', *, *, #12, .T. ) ;
#72 =( GEOMETRIC_REPRESENTATION_CONTEXT ( 3 ) GLOBAL_UNCERTAINTY_ASSIGNED_CONTEXT ( ( #95 ) ) GLOBAL_UNIT_ASSIGNED_CONTEXT ( ( #157, #181, #228 ) ) REPRESENTATION_CONTEXT ( 'NONE', 'WORKASPACE' ) );
#73 = FILL_AREA_STYLE ('',( #210 ) ) ;
#74 = DIRECTION ( 'NONE',  ( 1.000000000000000000, 0.0000000000000000000, -0.0000000000000000000 ) ) ;
#75 = AXIS2_PLACEMENT_3D ( 'NONE', #41, #108, #19 ) ;
#76 = DIRECTION ( 'NONE',  ( 1.000000000000000000, 0.0000000000000000000, 0.0000000000000000000 ) ) ;
#77 = CARTESIAN_POINT ( 'NONE',  ( 5.565629680174593491E-17, 0.0000000000000000000, 0.4544681522908974314 ) ) ;
#78 = CARTESIAN_POINT ( 'NONE',  ( 5.308784739067854796E-34, 0.0000000000000000000, 4.334951712415397505E-18 ) ) ;
#79 = ORIENTED_EDGE ( 'NONE', *, *, #12, .F. ) ;
#80 = MECHANICAL_DESIGN_GEOMETRIC_PRESENTATION_REPRESENTATION (  '', ( #153 ), #72 ) ;
#81 = VERTEX_POINT ( 'NONE', #270 ) ;
#82 = CARTESIAN_POINT ( 'NONE',  ( -0.03539756699999999784, 0.0000000000000000000, 8.669903424830795010E-18 ) ) ;
#83 = EDGE_CURVE ( 'NONE', #30, #81, #54, .T. ) ;
#84 = CARTESIAN_POINT ( 'NONE',  ( 0.0000000000000000000, 0.0000000000000000000, 1.968503999999999809 ) ) ;
#85 = FACE_OUTER_BOUND ( 'NONE', #98, .T. ) ;
#86 = AXIS2_PLACEMENT_3D ( 'NONE', #168, #26, #191 ) ;
#87 = PRODUCT_DEFINITION_FORMATION_WITH_SPECIFIED_SOURCE ( 'ANY', '', #69, .NOT_KNOWN. ) ;
#88 = CARTESIAN_POINT ( 'NONE',  ( -0.06374000000000018540, 0.0000000000000000000, 1.968503999999999809 ) ) ;
#89 = LINE ( 'NONE', #226, #122 ) ;
#90 = EDGE_CURVE ( 'NONE', #280, #81, #61, .T. ) ;
#91 = CARTESIAN_POINT ( 'NONE',  ( 0.0000000000000000000, 0.0000000000000000000, 1.968503999999999809 ) ) ;
#92 = ADVANCED_FACE ( 'NONE', ( #146 ), #179, .T. ) ;
#93 = DIMENSIONAL_EXPONENTS ( 1.000000000000000000, 0.0000000000000000000, 0.0000000000000000000, 0.0000000000000000000, 0.0000000000000000000, 0.0000000000000000000, 0.0000000000000000000 ) ;
#94 = DIRECTION ( 'NONE',  ( 1.224646799147353207E-16, 0.0000000000000000000, 1.000000000000000000 ) ) ;
#95 = UNCERTAINTY_MEASURE_WITH_UNIT (LENGTH_MEASURE( 1.000000000000000082E-05 ), #157, 'distance_accuracy_value', 'NONE');
#96 = DIRECTION ( 'NONE',  ( 0.0000000000000000000, 0.0000000000000000000, 1.000000000000000000 ) ) ;
#97 = CARTESIAN_POINT ( 'NONE',  ( 0.0000000000000000000, 0.0000000000000000000, 1.968503999999999809 ) ) ;
#98 = EDGE_LOOP ( 'NONE', ( #49, #243, #34, #213 ) ) ;
#99 = EDGE_CURVE ( 'NONE', #231, #141, #89, .T. ) ;
#100 = PRESENTATION_LAYER_ASSIGNMENT (  '', '', ( #153 ) ) ;
#101 = ORIENTED_EDGE ( 'NONE', *, *, #161, .T. ) ;
#102 = ORIENTED_EDGE ( 'NONE', *, *, #83, .F. ) ;
#103 = EDGE_CURVE ( 'NONE', #209, #245, #109, .T. ) ;
#104 = EDGE_LOOP ( 'NONE', ( #242, #125, #154, #102 ) ) ;
#105 = CIRCLE ( 'NONE', #37, 0.07874000000000001831 ) ;
#106 = DIRECTION ( 'NONE',  ( -1.224646799147353207E-16, -0.0000000000000000000, -1.000000000000000000 ) ) ;
#107 = CARTESIAN_POINT ( 'NONE',  ( 0.0000000000000000000, 0.0000000000000000000, 1.968503999999999809 ) ) ;
#108 = DIRECTION ( 'NONE',  ( 0.0000000000000000000, 0.0000000000000000000, 1.000000000000000000 ) ) ;
#109 = LINE ( 'NONE', #58, #130 ) ;
#110 = DIMENSIONAL_EXPONENTS ( 1.000000000000000000, 0.0000000000000000000, 0.0000000000000000000, 0.0000000000000000000, 0.0000000000000000000, 0.0000000000000000000, 0.0000000000000000000 ) ;
#111 = CARTESIAN_POINT ( 'NONE',  ( 0.0000000000000000000, 0.0000000000000000000, 1.953504000000000129 ) ) ;
#112 = DIRECTION ( 'NONE',  ( -1.000000000000000000, 0.0000000000000000000, 1.224646799147353207E-16 ) ) ;
#113 = CARTESIAN_POINT ( 'NONE',  ( -0.07874000000000001831, 0.0000000000000000000, 1.953504000000000129 ) ) ;
#114 = CONICAL_SURFACE ( 'NONE', #159, 0.06374000000000018540, 0.7853981633974528309 ) ;
#115 = ORIENTED_EDGE ( 'NONE', *, *, #132, .F. ) ;
#116 = DIRECTION ( 'NONE',  ( 1.224646799147353207E-16, 0.0000000000000000000, 1.000000000000000000 ) ) ;
#117 = CIRCLE ( 'NONE', #63, 0.07874000000000001831 ) ;
#118 = DIRECTION ( 'NONE',  ( 1.000000000000000000, 0.0000000000000000000, 0.0000000000000000000 ) ) ;
#119 = ORIENTED_EDGE ( 'NONE', *, *, #207, .F. ) ;
#120 = ORIENTED_EDGE ( 'NONE', *, *, #103, .F. ) ;
#121 = EDGE_LOOP ( 'NONE', ( #51, #281, #9, #119 ) ) ;
#122 = VECTOR ( 'NONE', #196, 39.37007874015748143 ) ;
#123 = CIRCLE ( 'NONE', #292, 0.03539756699999999784 ) ;
#124 = ORIENTED_EDGE ( 'NONE', *, *, #23, .F. ) ;
#125 = ORIENTED_EDGE ( 'NONE', *, *, #1, .T. ) ;
#126 = DIRECTION ( 'NONE',  ( -1.000000000000000000, 0.0000000000000000000, 0.0000000000000000000 ) ) ;
#127 = CARTESIAN_POINT ( 'NONE',  ( -0.03539756699999997008, 4.334951712415396735E-18, 0.2086610000000000131 ) ) ;
#128 = CARTESIAN_POINT ( 'NONE',  ( -0.07874000000000001831, 0.0000000000000000000, 1.968503999999999809 ) ) ;
#129 = DIRECTION ( 'NONE',  ( -1.224646799147353207E-16, -0.0000000000000000000, -1.000000000000000000 ) ) ;
#130 = VECTOR ( 'NONE', #11, 39.37007874015748143 ) ;
#131 = CARTESIAN_POINT ( 'NONE',  ( 0.0000000000000000000, 0.0000000000000000000, 1.968503999999999809 ) ) ;
#132 = EDGE_CURVE ( 'NONE', #282, #231, #123, .T. ) ;
#133 = SURFACE_STYLE_USAGE ( .BOTH. , #162 ) ;
#134 = ADVANCED_FACE ( 'NONE', ( #290 ), #64, .T. ) ;
#135 = VECTOR ( 'NONE', #222, 39.37007874015748143 ) ;
#136 = ORIENTED_EDGE ( 'NONE', *, *, #147, .T. ) ;
#137 = EDGE_CURVE ( 'NONE', #172, #280, #223, .T. ) ;
#138 = CARTESIAN_POINT ( 'NONE',  ( 0.0000000000000000000, 0.0000000000000000000, 1.953504000000000129 ) ) ;
#139 = ORIENTED_EDGE ( 'NONE', *, *, #174, .T. ) ;
#140 = EDGE_LOOP ( 'NONE', ( #115, #139, #52, #31 ) ) ;
#141 = VERTEX_POINT ( 'NONE', #176 ) ;
#142 = DIRECTION ( 'NONE',  ( -1.224646799147353207E-16, -0.0000000000000000000, -1.000000000000000000 ) ) ;
#143 = EDGE_CURVE ( 'NONE', #231, #282, #285, .T. ) ;
#144 = DIRECTION ( 'NONE',  ( -1.000000000000000000, 0.0000000000000000000, 0.0000000000000000000 ) ) ;
#145 = AXIS2_PLACEMENT_3D ( 'NONE', #268, #248, #200 ) ;
#146 = FACE_OUTER_BOUND ( 'NONE', #158, .T. ) ;
#147 = EDGE_CURVE ( 'NONE', #209, #172, #237, .T. ) ;
#148 = CARTESIAN_POINT ( 'NONE',  ( -0.06374000000000018540, 0.0000000000000000000, 1.968503999999999809 ) ) ;
#149 = CYLINDRICAL_SURFACE ( 'NONE', #225, 0.03539756699999999784 ) ;
#150 = AXIS2_PLACEMENT_3D ( 'NONE', #84, #65, #218 ) ;
#151 = ADVANCED_FACE ( 'NONE', ( #288 ), #232, .T. ) ;
#152 = CARTESIAN_POINT ( 'NONE',  ( -0.03539756699999997008, 6.988910304450828007E-18, 0.2086610000000000131 ) ) ;
#153 = STYLED_ITEM ( 'NONE', ( #21 ), #257 ) ;
#154 = ORIENTED_EDGE ( 'NONE', *, *, #90, .T. ) ;
#155 = DIRECTION ( 'NONE',  ( -1.224646799147353207E-16, -0.0000000000000000000, -1.000000000000000000 ) ) ;
#156 = CARTESIAN_POINT ( 'NONE',  ( 0.03539756700000001866, 0.0000000000000000000, 0.2086610000000000131 ) ) ;
#157 =( CONVERSION_BASED_UNIT ( 'INCH', #235 ) LENGTH_UNIT ( ) NAMED_UNIT ( #110 ) );
#158 = EDGE_LOOP ( 'NONE', ( #101, #5, #124, #217 ) ) ;
#159 = AXIS2_PLACEMENT_3D ( 'NONE', #252, #17, #144 ) ;
#160 = CIRCLE ( 'NONE', #221, 0.06374000000000018540 ) ;
#161 = EDGE_CURVE ( 'NONE', #280, #245, #117, .T. ) ;
#162 = SURFACE_SIDE_STYLE ('',( #299 ) ) ;
#163 =( NAMED_UNIT ( * ) SI_UNIT ( $, .STERADIAN. ) SOLID_ANGLE_UNIT ( ) );
#164 = PRESENTATION_STYLE_ASSIGNMENT (( #33 ) ) ;
#165 = ADVANCED_FACE ( 'NONE', ( #39 ), #201, .T. ) ;
#166 = LINE ( 'NONE', #262, #185 ) ;
#167 = UNCERTAINTY_MEASURE_WITH_UNIT (LENGTH_MEASURE( 1.000000000000000082E-05 ), #283, 'distance_accuracy_value', 'NONE');
#168 = CARTESIAN_POINT ( 'NONE',  ( 0.0000000000000000000, 0.0000000000000000000, 0.0000000000000000000 ) ) ;
#169 = ORIENTED_EDGE ( 'NONE', *, *, #219, .F. ) ;
#170 = CARTESIAN_POINT ( 'NONE',  ( 0.07874000000000007382, 9.642868896486266213E-18, 0.4544681522908974314 ) ) ;
#171 = VERTEX_POINT ( 'NONE', #82 ) ;
#172 = VERTEX_POINT ( 'NONE', #88 ) ;
#173 = DIMENSIONAL_EXPONENTS ( 1.000000000000000000, 0.0000000000000000000, 0.0000000000000000000, 0.0000000000000000000, 0.0000000000000000000, 0.0000000000000000000, 0.0000000000000000000 ) ;
#174 = EDGE_CURVE ( 'NONE', #282, #81, #60, .T. ) ;
#175 = DIRECTION ( 'NONE',  ( 0.1736481776669313859, 0.0000000000000000000, 0.9848077530122077983 ) ) ;
#176 = CARTESIAN_POINT ( 'NONE',  ( 0.03539756699999999784, 4.334951712415397505E-18, 0.0000000000000000000 ) ) ;
#177 = VECTOR ( 'NONE', #14, 39.37007874015748143 ) ;
#178 = AXIS2_PLACEMENT_3D ( 'NONE', #131, #36, #40 ) ;
#179 = CYLINDRICAL_SURFACE ( 'NONE', #10, 0.07874000000000001831 ) ;
#180 = DIRECTION ( 'NONE',  ( 0.0000000000000000000, 0.0000000000000000000, -1.000000000000000000 ) ) ;
#181 =( NAMED_UNIT ( * ) PLANE_ANGLE_UNIT ( ) SI_UNIT ( $, .RADIAN. ) );
#182 = CARTESIAN_POINT ( 'NONE',  ( -0.03539756699999999784, 0.0000000000000000000, 4.334951712415397505E-18 ) ) ;
#183 = DIRECTION ( 'NONE',  ( 1.000000000000000000, 0.0000000000000000000, 0.0000000000000000000 ) ) ;
#184 = EDGE_CURVE ( 'NONE', #245, #30, #199, .T. ) ;
#185 = VECTOR ( 'NONE', #175, 39.37007874015748143 ) ;
#186 =( LENGTH_UNIT ( ) NAMED_UNIT ( * ) SI_UNIT ( $, .METRE. ) );
#187 = DIRECTION ( 'NONE',  ( 0.0000000000000000000, 0.0000000000000000000, 1.000000000000000000 ) ) ;
#188 = APPLICATION_PROTOCOL_DEFINITION ( 'draft international standard', 'automotive_design', 1998, #246 ) ;
#189 = EDGE_LOOP ( 'NONE', ( #28, #3, #79, #169 ) ) ;
#190 = AXIS2_PLACEMENT_3D ( 'NONE', #2, #24, #112 ) ;
#191 = DIRECTION ( 'NONE',  ( 1.000000000000000000, 0.0000000000000000000, -0.0000000000000000000 ) ) ;
#192 = EDGE_LOOP ( 'NONE', ( #32, #136 ) ) ;
#193 = ORIENTED_EDGE ( 'NONE', *, *, #174, .F. ) ;
#194 = DIRECTION ( 'NONE',  ( -1.224646799147353207E-16, -0.0000000000000000000, -1.000000000000000000 ) ) ;
#195 = COLOUR_RGB ( '',0.7921568627450980005, 0.8196078431372548767, 0.9333333333333333481 ) ;
#196 = DIRECTION ( 'NONE',  ( -1.224646799147353207E-16, -0.0000000000000000000, -1.000000000000000000 ) ) ;
#197 = ADVANCED_FACE ( 'NONE', ( #273 ), #149, .T. ) ;
#198 = DIRECTION ( 'NONE',  ( -0.0000000000000000000, -0.0000000000000000000, -1.000000000000000000 ) ) ;
#199 = LINE ( 'NONE', #35, #135 ) ;
#200 = DIRECTION ( 'NONE',  ( -1.000000000000000000, 0.0000000000000000000, 1.224646799147353207E-16 ) ) ;
#201 = CYLINDRICAL_SURFACE ( 'NONE', #145, 0.03539756699999999784 ) ;
#202 = LINE ( 'NONE', #182, #253 ) ;
#203 = AXIS2_PLACEMENT_3D ( 'NONE', #78, #194, #286 ) ;
#204 = DIRECTION ( 'NONE',  ( -1.000000000000000000, 0.0000000000000000000, 1.224646799147353207E-16 ) ) ;
#205 =( NAMED_UNIT ( * ) SI_UNIT ( $, .STERADIAN. ) SOLID_ANGLE_UNIT ( ) );
#206 = EDGE_LOOP ( 'NONE', ( #193, #264, #4, #22 ) ) ;
#207 = EDGE_CURVE ( 'NONE', #141, #171, #38, .T. ) ;
#208 = FILL_AREA_STYLE_COLOUR ( '', #195 ) ;
#209 = VERTEX_POINT ( 'NONE', #46 ) ;
#210 = FILL_AREA_STYLE_COLOUR ( '', #278 ) ;
#211 = ORIENTED_EDGE ( 'NONE', *, *, #1, .F. ) ;
#212 = LENGTH_MEASURE_WITH_UNIT ( LENGTH_MEASURE( 0.02539999999999999897 ), #186 );
#213 = ORIENTED_EDGE ( 'NONE', *, *, #137, .F. ) ;
#214 = DIRECTION ( 'NONE',  ( 1.000000000000000000, 0.0000000000000000000, 0.0000000000000000000 ) ) ;
#215 = ADVANCED_FACE ( 'NONE', ( #43 ), #18, .T. ) ;
#216 = ORIENTED_EDGE ( 'NONE', *, *, #207, .T. ) ;
#217 = ORIENTED_EDGE ( 'NONE', *, *, #90, .F. ) ;
#218 = DIRECTION ( 'NONE',  ( -1.000000000000000000, 0.0000000000000000000, 0.0000000000000000000 ) ) ;
#219 = EDGE_CURVE ( 'NONE', #282, #171, #202, .T. ) ;
#220 = APPLICATION_CONTEXT ( 'automotive_design' ) ;
#221 = AXIS2_PLACEMENT_3D ( 'NONE', #91, #276, #275 ) ;
#222 = DIRECTION ( 'NONE',  ( -0.0000000000000000000, -0.0000000000000000000, -1.000000000000000000 ) ) ;
#223 = LINE ( 'NONE', #148, #296 ) ;
#224 = DIRECTION ( 'NONE',  ( 1.000000000000000000, 0.0000000000000000000, 0.0000000000000000000 ) ) ;
#225 = AXIS2_PLACEMENT_3D ( 'NONE', #291, #254, #204 ) ;
#226 = CARTESIAN_POINT ( 'NONE',  ( 0.03539756699999999784, 4.334951712415397505E-18, -4.334951712415397505E-18 ) ) ;
#227 = CARTESIAN_POINT ( 'NONE',  ( 2.555360257568858967E-17, 0.0000000000000000000, 0.2086610000000000131 ) ) ;
#228 =( NAMED_UNIT ( * ) SI_UNIT ( $, .STERADIAN. ) SOLID_ANGLE_UNIT ( ) );
#229 = PRODUCT_RELATED_PRODUCT_CATEGORY ( 'part', '', ( #69 ) ) ;
#230 =( CONVERSION_BASED_UNIT ( 'INCH', #274 ) LENGTH_UNIT ( ) NAMED_UNIT ( #173 ) );
#231 = VERTEX_POINT ( 'NONE', #156 ) ;
#232 = CONICAL_SURFACE ( 'NONE', #178, 0.06374000000000018540, 0.7853981633974528309 ) ;
#233 = PRODUCT_DEFINITION_SHAPE ( 'NONE', 'NONE',  #295 ) ;
#234 = FACE_OUTER_BOUND ( 'NONE', #140, .T. ) ;
#235 = LENGTH_MEASURE_WITH_UNIT ( LENGTH_MEASURE( 0.02539999999999999897 ), #297 );
#236 = PRODUCT_DEFINITION_CONTEXT ( 'detailed design', #246, 'design' ) ;
#237 = CIRCLE ( 'NONE', #75, 0.06374000000000018540 ) ;
#238 = FACE_OUTER_BOUND ( 'NONE', #8, .T. ) ;
#239 = PRESENTATION_LAYER_ASSIGNMENT (  '', '', ( #271 ) ) ;
#240 = CARTESIAN_POINT ( 'NONE',  ( 0.0000000000000000000, 0.0000000000000000000, 0.0000000000000000000 ) ) ;
#241 = DIRECTION ( 'NONE',  ( 0.0000000000000000000, 0.0000000000000000000, -1.000000000000000000 ) ) ;
#242 = ORIENTED_EDGE ( 'NONE', *, *, #184, .F. ) ;
#243 = ORIENTED_EDGE ( 'NONE', *, *, #103, .T. ) ;
#244 = AXIS2_PLACEMENT_3D ( 'NONE', #97, #187, #74 ) ;
#245 = VERTEX_POINT ( 'NONE', #260 ) ;
#246 = APPLICATION_CONTEXT ( 'automotive_design' ) ;
#247 = DIRECTION ( 'NONE',  ( -0.1736481776669311916, 2.126576849575783316E-17, 0.9848077530122080203 ) ) ;
#248 = DIRECTION ( 'NONE',  ( -1.224646799147353207E-16, -0.0000000000000000000, -1.000000000000000000 ) ) ;
#249 = MECHANICAL_DESIGN_GEOMETRIC_PRESENTATION_REPRESENTATION (  '', ( #271 ), #6 ) ;
#250 = DIRECTION ( 'NONE',  ( -1.000000000000000000, 0.0000000000000000000, 0.0000000000000000000 ) ) ;
#251 = CARTESIAN_POINT ( 'NONE',  ( 2.555360257568858967E-17, 0.0000000000000000000, 0.2086610000000000131 ) ) ;
#252 = CARTESIAN_POINT ( 'NONE',  ( 0.0000000000000000000, 0.0000000000000000000, 1.968503999999999809 ) ) ;
#253 = VECTOR ( 'NONE', #155, 39.37007874015748143 ) ;
#254 = DIRECTION ( 'NONE',  ( -1.224646799147353207E-16, -0.0000000000000000000, -1.000000000000000000 ) ) ;
#255 = FILL_AREA_STYLE ('',( #208 ) ) ;
#256 =( NAMED_UNIT ( * ) PLANE_ANGLE_UNIT ( ) SI_UNIT ( $, .RADIAN. ) );
#257 = MANIFOLD_SOLID_BREP ( 'Cut-Revolve1', #25 ) ;
#258 = CIRCLE ( 'NONE', #203, 0.03539756699999999784 ) ;
#259 = AXIS2_PLACEMENT_3D ( 'NONE', #240, #96, #214 ) ;
#260 = CARTESIAN_POINT ( 'NONE',  ( 0.07874000000000001831, 9.642868896486260050E-18, 1.953504000000000129 ) ) ;
#261 = SHAPE_DEFINITION_REPRESENTATION ( #233, #265 ) ;
#262 = CARTESIAN_POINT ( 'NONE',  ( 0.03539756700000001866, 0.0000000000000000000, 0.2086610000000000131 ) ) ;
#263 = DIRECTION ( 'NONE',  ( -1.224646799147353207E-16, -0.0000000000000000000, -1.000000000000000000 ) ) ;
#264 = ORIENTED_EDGE ( 'NONE', *, *, #143, .F. ) ;
#265 = ADVANCED_BREP_SHAPE_REPRESENTATION ( 'Micro_AMRM-018-2', ( #257, #259 ), #267 ) ;
#266 = FACE_OUTER_BOUND ( 'NONE', #192, .T. ) ;
#267 =( GEOMETRIC_REPRESENTATION_CONTEXT ( 3 ) GLOBAL_UNCERTAINTY_ASSIGNED_CONTEXT ( ( #279 ) ) GLOBAL_UNIT_ASSIGNED_CONTEXT ( ( #230, #256, #205 ) ) REPRESENTATION_CONTEXT ( 'NONE', 'WORKASPACE' ) );
#268 = CARTESIAN_POINT ( 'NONE',  ( 0.0000000000000000000, 0.0000000000000000000, 0.0000000000000000000 ) ) ;
#269 = DIRECTION ( 'NONE',  ( -0.7071067811865507924, 0.0000000000000000000, -0.7071067811865443531 ) ) ;
#270 = CARTESIAN_POINT ( 'NONE',  ( -0.07873999999999996280, 0.0000000000000000000, 0.4544681522908974314 ) ) ;
#271 = STYLED_ITEM ( 'NONE', ( #164 ), #265 ) ;
#272 = CARTESIAN_POINT ( 'NONE',  ( 2.555360257568858967E-17, 0.0000000000000000000, 0.2086610000000000131 ) ) ;
#273 = FACE_OUTER_BOUND ( 'NONE', #189, .T. ) ;
#274 = LENGTH_MEASURE_WITH_UNIT ( LENGTH_MEASURE( 0.02539999999999999897 ), #45 );
#275 = DIRECTION ( 'NONE',  ( 1.000000000000000000, 0.0000000000000000000, 0.0000000000000000000 ) ) ;
#276 = DIRECTION ( 'NONE',  ( 0.0000000000000000000, 0.0000000000000000000, 1.000000000000000000 ) ) ;
#277 = ORIENTED_EDGE ( 'NONE', *, *, #137, .T. ) ;
#278 = COLOUR_RGB ( '',0.7921568627450980005, 0.8196078431372548767, 0.9333333333333333481 ) ;
#279 = UNCERTAINTY_MEASURE_WITH_UNIT (LENGTH_MEASURE( 1.000000000000000082E-05 ), #230, 'distance_accuracy_value', 'NONE');
#280 = VERTEX_POINT ( 'NONE', #113 ) ;
#281 = ORIENTED_EDGE ( 'NONE', *, *, #143, .T. ) ;
#282 = VERTEX_POINT ( 'NONE', #152 ) ;
#283 =( CONVERSION_BASED_UNIT ( 'INCH', #212 ) LENGTH_UNIT ( ) NAMED_UNIT ( #93 ) );
#284 = ORIENTED_EDGE ( 'NONE', *, *, #298, .F. ) ;
#285 = CIRCLE ( 'NONE', #66, 0.03539756699999999784 ) ;
#286 = DIRECTION ( 'NONE',  ( -1.000000000000000000, 0.0000000000000000000, 1.224646799147353207E-16 ) ) ;
#287 = VECTOR ( 'NONE', #247, 39.37007874015747433 ) ;
#288 = FACE_OUTER_BOUND ( 'NONE', #68, .T. ) ;
#289 = ADVANCED_FACE ( 'NONE', ( #234 ), #48, .T. ) ;
#290 = FACE_OUTER_BOUND ( 'NONE', #104, .T. ) ;
#291 = CARTESIAN_POINT ( 'NONE',  ( 0.0000000000000000000, 0.0000000000000000000, 0.0000000000000000000 ) ) ;
#292 = AXIS2_PLACEMENT_3D ( 'NONE', #272, #106, #250 ) ;
#293 = CARTESIAN_POINT ( 'NONE',  ( 5.565629680174593491E-17, 0.0000000000000000000, 0.4544681522908974314 ) ) ;
#294 = DIRECTION ( 'NONE',  ( 1.000000000000000000, 0.0000000000000000000, 0.0000000000000000000 ) ) ;
#295 = PRODUCT_DEFINITION ( 'UNKNOWN', '', #87, #236 ) ;
#296 = VECTOR ( 'NONE', #269, 39.37007874015748143 ) ;
#297 =( LENGTH_UNIT ( ) NAMED_UNIT ( * ) SI_UNIT ( $, .METRE. ) );
#298 = EDGE_CURVE ( 'NONE', #172, #209, #160, .T. ) ;
#299 = SURFACE_STYLE_FILL_AREA ( #255 ) ;
ENDSEC;
END-ISO-10303-21;
