ISO-10303-21;
HEADER;
FILE_DESCRIPTION (( 'STEP AP214' ),
    '1' );
FILE_NAME ('Micro_BMR-013-2X.STEP',
    '2021-09-03T13:42:57',
    ( '' ),
    ( '' ),
    'SwSTEP 2.0',
    'SolidWorks 2020',
    '' );
FILE_SCHEMA (( 'AUTOMOTIVE_DESIGN' ));
ENDSEC;

DATA;
#1 = AXIS2_PLACEMENT_3D ( 'NONE', #14, #267, #42 ) ;
#2 = VECTOR ( 'NONE', #139, 39.37007874015748143 ) ;
#3 = CARTESIAN_POINT ( 'NONE',  ( 7.952243990263339486E-19, 0.0000000000000000000, 0.006493500000000000140 ) ) ;
#4 = ORIENTED_EDGE ( 'NONE', *, *, #232, .F. ) ;
#5 = COLOUR_RGB ( '',0.7921568627450980005, 0.8196078431372548767, 0.9333333333333333481 ) ;
#6 = VERTEX_POINT ( 'NONE', #233 ) ;
#7 = DIRECTION ( 'NONE',  ( 0.0000000000000000000, 0.0000000000000000000, 1.000000000000000000 ) ) ;
#8 = LINE ( 'NONE', #234, #68 ) ;
#9 = UNCERTAINTY_MEASURE_WITH_UNIT (LENGTH_MEASURE( 1.000000000000000082E-05 ), #26, 'distance_accuracy_value', 'NONE');
#10 = PRODUCT ( 'Micro_BMR-013-2X', 'Micro_BMR-013-2X', '', ( #266 ) ) ;
#11 = DIRECTION ( 'NONE',  ( 1.000000000000000000, 0.0000000000000000000, 0.0000000000000000000 ) ) ;
#12 = AXIS2_PLACEMENT_3D ( 'NONE', #3, #58, #145 ) ;
#13 = PRODUCT_RELATED_PRODUCT_CATEGORY ( 'part', '', ( #10 ) ) ;
#14 = CARTESIAN_POINT ( 'NONE',  ( 7.952243990263339486E-19, 0.0000000000000000000, 0.006493500000000000140 ) ) ;
#15 = FACE_OUTER_BOUND ( 'NONE', #98, .T. ) ;
#16 = EDGE_CURVE ( 'NONE', #51, #76, #211, .T. ) ;
#17 = DIRECTION ( 'NONE',  ( -0.0000000000000000000, -0.0000000000000000000, -1.000000000000000000 ) ) ;
#18 = FACE_OUTER_BOUND ( 'NONE', #157, .T. ) ;
#19 = EDGE_LOOP ( 'NONE', ( #21, #161, #248, #201 ) ) ;
#20 =( NAMED_UNIT ( * ) PLANE_ANGLE_UNIT ( ) SI_UNIT ( $, .RADIAN. ) );
#21 = ORIENTED_EDGE ( 'NONE', *, *, #69, .T. ) ;
#22 = AXIS2_PLACEMENT_3D ( 'NONE', #41, #151, #171 ) ;
#23 = AXIS2_PLACEMENT_3D ( 'NONE', #310, #198, #193 ) ;
#24 = CARTESIAN_POINT ( 'NONE',  ( 0.0000000000000000000, 0.0000000000000000000, 1.500000000000000222 ) ) ;
#25 = ORIENTED_EDGE ( 'NONE', *, *, #186, .T. ) ;
#26 =( CONVERSION_BASED_UNIT ( 'INCH', #160 ) LENGTH_UNIT ( ) NAMED_UNIT ( #65 ) );
#27 = ORIENTED_EDGE ( 'NONE', *, *, #116, .T. ) ;
#28 = DIRECTION ( 'NONE',  ( -1.000000000000000000, 0.0000000000000000000, 0.0000000000000000000 ) ) ;
#29 = CARTESIAN_POINT ( 'NONE',  ( -0.006493499999999998405, 0.0000000000000000000, 0.006493500000000001007 ) ) ;
#30 = CARTESIAN_POINT ( 'NONE',  ( 0.0000000000000000000, 0.0000000000000000000, 1.500000000000000222 ) ) ;
#31 = CIRCLE ( 'NONE', #54, 0.06250000000000002776 ) ;
#32 = DIRECTION ( 'NONE',  ( -1.224646799147353454E-16, -0.0000000000000000000, -1.000000000000000000 ) ) ;
#33 = ORIENTED_EDGE ( 'NONE', *, *, #206, .F. ) ;
#34 =( NAMED_UNIT ( * ) SI_UNIT ( $, .STERADIAN. ) SOLID_ANGLE_UNIT ( ) );
#35 = FACE_OUTER_BOUND ( 'NONE', #274, .T. ) ;
#36 = SPHERICAL_SURFACE ( 'NONE', #194, 0.006493500000000000140 ) ;
#37 = AXIS2_PLACEMENT_3D ( 'NONE', #192, #119, #66 ) ;
#38 = DIRECTION ( 'NONE',  ( -1.000000000000000000, 0.0000000000000000000, 0.0000000000000000000 ) ) ;
#39 = ADVANCED_FACE ( 'NONE', ( #302 ), #207, .T. ) ;
#40 = DIRECTION ( 'NONE',  ( 0.0000000000000000000, 0.0000000000000000000, 1.000000000000000000 ) ) ;
#41 = CARTESIAN_POINT ( 'NONE',  ( 7.952243990263339486E-19, 0.0000000000000000000, 0.006493500000000000140 ) ) ;
#42 = DIRECTION ( 'NONE',  ( -1.000000000000000000, 0.0000000000000000000, 1.643378952067610679E-16 ) ) ;
#43 = COLOUR_RGB ( '',0.7921568627450980005, 0.8196078431372548767, 0.9333333333333333481 ) ;
#44 = DIRECTION ( 'NONE',  ( 1.000000000000000000, 0.0000000000000000000, 0.0000000000000000000 ) ) ;
#45 =( LENGTH_UNIT ( ) NAMED_UNIT ( * ) SI_UNIT ( $, .METRE. ) );
#46 = UNCERTAINTY_MEASURE_WITH_UNIT (LENGTH_MEASURE( 1.000000000000000082E-05 ), #49, 'distance_accuracy_value', 'NONE');
#47 = ADVANCED_FACE ( 'NONE', ( #187 ), #214, .T. ) ;
#48 = ORIENTED_EDGE ( 'NONE', *, *, #116, .F. ) ;
#49 =( CONVERSION_BASED_UNIT ( 'INCH', #297 ) LENGTH_UNIT ( ) NAMED_UNIT ( #320 ) );
#50 = AXIS2_PLACEMENT_3D ( 'NONE', #89, #312, #38 ) ;
#51 = VERTEX_POINT ( 'NONE', #308 ) ;
#52 = PRODUCT_DEFINITION ( 'UNKNOWN', '', #95, #120 ) ;
#53 =( LENGTH_UNIT ( ) NAMED_UNIT ( * ) SI_UNIT ( $, .METRE. ) );
#54 = AXIS2_PLACEMENT_3D ( 'NONE', #169, #191, #113 ) ;
#55 = EDGE_LOOP ( 'NONE', ( #33, #134, #159, #83 ) ) ;
#56 = CARTESIAN_POINT ( 'NONE',  ( 0.0000000000000000000, 0.0000000000000000000, 1.500000000000000222 ) ) ;
#57 = CARTESIAN_POINT ( 'NONE',  ( -0.006493499999999999273, 0.0000000000000000000, 7.952243990263338523E-19 ) ) ;
#58 = DIRECTION ( 'NONE',  ( 1.224646799147353454E-16, 0.0000000000000000000, 1.000000000000000000 ) ) ;
#59 = EDGE_CURVE ( 'NONE', #132, #102, #257, .T. ) ;
#60 = CYLINDRICAL_SURFACE ( 'NONE', #23, 0.006493499999999999273 ) ;
#61 = DIRECTION ( 'NONE',  ( 0.0000000000000000000, 0.0000000000000000000, -1.000000000000000000 ) ) ;
#62 = CONICAL_SURFACE ( 'NONE', #37, 0.006493500000000001007, 0.1745329251994338637 ) ;
#63 = EDGE_CURVE ( 'NONE', #278, #76, #158, .T. ) ;
#64 = CARTESIAN_POINT ( 'NONE',  ( 4.367441288656881593E-17, 0.0000000000000000000, 0.3566286452304176513 ) ) ;
#65 = DIMENSIONAL_EXPONENTS ( 1.000000000000000000, 0.0000000000000000000, 0.0000000000000000000, 0.0000000000000000000, 0.0000000000000000000, 0.0000000000000000000, 0.0000000000000000000 ) ;
#66 = DIRECTION ( 'NONE',  ( 1.000000000000000000, 0.0000000000000000000, 0.0000000000000000000 ) ) ;
#67 = APPLICATION_CONTEXT ( 'automotive_design' ) ;
#68 = VECTOR ( 'NONE', #303, 39.37007874015747433 ) ;
#69 = EDGE_CURVE ( 'NONE', #51, #132, #208, .T. ) ;
#70 = CARTESIAN_POINT ( 'NONE',  ( -0.06249999999999997918, 0.0000000000000000000, 0.3566286452304176513 ) ) ;
#71 = EDGE_LOOP ( 'NONE', ( #81, #180 ) ) ;
#72 = AXIS2_PLACEMENT_3D ( 'NONE', #30, #205, #164 ) ;
#73 = VERTEX_POINT ( 'NONE', #88 ) ;
#74 = FILL_AREA_STYLE_COLOUR ( '', #43 ) ;
#75 =( NAMED_UNIT ( * ) SI_UNIT ( $, .STERADIAN. ) SOLID_ANGLE_UNIT ( ) );
#76 = VERTEX_POINT ( 'NONE', #29 ) ;
#77 = EDGE_CURVE ( 'NONE', #255, #280, #304, .T. ) ;
#78 = CONICAL_SURFACE ( 'NONE', #147, 0.006493500000000001007, 0.1745329251994338637 ) ;
#79 = CARTESIAN_POINT ( 'NONE',  ( 0.0000000000000000000, 0.0000000000000000000, 0.0000000000000000000 ) ) ;
#80 = LENGTH_MEASURE_WITH_UNIT ( LENGTH_MEASURE( 0.02539999999999999897 ), #53 );
#81 = ORIENTED_EDGE ( 'NONE', *, *, #172, .T. ) ;
#82 = VECTOR ( 'NONE', #94, 39.37007874015748854 ) ;
#83 = ORIENTED_EDGE ( 'NONE', *, *, #155, .T. ) ;
#84 = ORIENTED_EDGE ( 'NONE', *, *, #63, .F. ) ;
#85 = CARTESIAN_POINT ( 'NONE',  ( 0.0000000000000000000, 0.0000000000000000000, 1.500000000000000222 ) ) ;
#86 = CARTESIAN_POINT ( 'NONE',  ( 0.0000000000000000000, 0.0000000000000000000, 0.0000000000000000000 ) ) ;
#87 =( GEOMETRIC_REPRESENTATION_CONTEXT ( 3 ) GLOBAL_UNCERTAINTY_ASSIGNED_CONTEXT ( ( #46 ) ) GLOBAL_UNIT_ASSIGNED_CONTEXT ( ( #49, #131, #75 ) ) REPRESENTATION_CONTEXT ( 'NONE', 'WORKASPACE' ) );
#88 = CARTESIAN_POINT ( 'NONE',  ( 1.192836598539500923E-18, 0.0000000000000000000, 0.0000000000000000000 ) ) ;
#89 = CARTESIAN_POINT ( 'NONE',  ( 0.0000000000000000000, 0.0000000000000000000, 1.500000000000000222 ) ) ;
#90 = AXIS2_PLACEMENT_3D ( 'NONE', #56, #167, #28 ) ;
#91 = EDGE_CURVE ( 'NONE', #51, #251, #8, .T. ) ;
#92 = SHAPE_DEFINITION_REPRESENTATION ( #271, #124 ) ;
#93 = CARTESIAN_POINT ( 'NONE',  ( -0.06250000000000002776, 0.0000000000000000000, 1.485000000000000764 ) ) ;
#94 = DIRECTION ( 'NONE',  ( 0.7071067811865462405, 8.659560562354916834E-17, -0.7071067811865486830 ) ) ;
#95 = PRODUCT_DEFINITION_FORMATION_WITH_SPECIFIED_SOURCE ( 'ANY', '', #10, .NOT_KNOWN. ) ;
#96 = DIRECTION ( 'NONE',  ( -1.000000000000000000, 0.0000000000000000000, 0.0000000000000000000 ) ) ;
#97 = DIRECTION ( 'NONE',  ( 0.0000000000000000000, 1.000000000000000000, 0.0000000000000000000 ) ) ;
#98 = EDGE_LOOP ( 'NONE', ( #301, #229, #144, #226 ) ) ;
#99 = AXIS2_PLACEMENT_3D ( 'NONE', #242, #118, #215 ) ;
#100 = ORIENTED_EDGE ( 'NONE', *, *, #238, .F. ) ;
#101 = ADVANCED_FACE ( 'NONE', ( #111 ), #78, .T. ) ;
#102 = VERTEX_POINT ( 'NONE', #140 ) ;
#103 = ORIENTED_EDGE ( 'NONE', *, *, #155, .F. ) ;
#104 = VECTOR ( 'NONE', #289, 39.37007874015748854 ) ;
#105 =( CONVERSION_BASED_UNIT ( 'INCH', #80 ) LENGTH_UNIT ( ) NAMED_UNIT ( #241 ) );
#106 = ORIENTED_EDGE ( 'NONE', *, *, #162, .F. ) ;
#107 = ORIENTED_EDGE ( 'NONE', *, *, #227, .T. ) ;
#108 = EDGE_CURVE ( 'NONE', #128, #251, #188, .T. ) ;
#109 = ORIENTED_EDGE ( 'NONE', *, *, #227, .F. ) ;
#110 = STYLED_ITEM ( 'NONE', ( #154 ), #249 ) ;
#111 = FACE_OUTER_BOUND ( 'NONE', #256, .T. ) ;
#112 = DIRECTION ( 'NONE',  ( -0.0000000000000000000, -0.0000000000000000000, -1.000000000000000000 ) ) ;
#113 = DIRECTION ( 'NONE',  ( 1.000000000000000000, 0.0000000000000000000, 0.0000000000000000000 ) ) ;
#114 = AXIS2_PLACEMENT_3D ( 'NONE', #245, #220, #96 ) ;
#115 = CARTESIAN_POINT ( 'NONE',  ( -0.04750000000000064587, 0.0000000000000000000, 1.500000000000000222 ) ) ;
#116 = EDGE_CURVE ( 'NONE', #128, #6, #31, .T. ) ;
#117 = APPLICATION_PROTOCOL_DEFINITION ( 'draft international standard', 'automotive_design', 1998, #135 ) ;
#118 = DIRECTION ( 'NONE',  ( 0.0000000000000000000, 0.0000000000000000000, 1.000000000000000000 ) ) ;
#119 = DIRECTION ( 'NONE',  ( 1.224646799147353454E-16, 0.0000000000000000000, 1.000000000000000000 ) ) ;
#120 = PRODUCT_DEFINITION_CONTEXT ( 'detailed design', #67, 'design' ) ;
#121 = CARTESIAN_POINT ( 'NONE',  ( 7.952243990263339486E-19, 0.0000000000000000000, 0.006493500000000000140 ) ) ;
#122 = AXIS2_PLACEMENT_3D ( 'NONE', #210, #183, #165 ) ;
#123 = CARTESIAN_POINT ( 'NONE',  ( 0.006493500000000000140, 7.952243990263336597E-19, 0.006493499999999999273 ) ) ;
#124 = ADVANCED_BREP_SHAPE_REPRESENTATION ( 'Micro_BMR-013-2X', ( #249, #281 ), #87 ) ;
#125 = SURFACE_STYLE_USAGE ( .BOTH. , #268 ) ;
#126 = ORIENTED_EDGE ( 'NONE', *, *, #108, .T. ) ;
#127 = DIRECTION ( 'NONE',  ( -1.000000000000000000, 0.0000000000000000000, 1.224646799147353454E-16 ) ) ;
#128 = VERTEX_POINT ( 'NONE', #93 ) ;
#129 = PRESENTATION_LAYER_ASSIGNMENT (  '', '', ( #110 ) ) ;
#130 = ADVANCED_FACE ( 'NONE', ( #35 ), #36, .T. ) ;
#131 =( NAMED_UNIT ( * ) PLANE_ANGLE_UNIT ( ) SI_UNIT ( $, .RADIAN. ) );
#132 = VERTEX_POINT ( 'NONE', #288 ) ;
#133 =( LENGTH_UNIT ( ) NAMED_UNIT ( * ) SI_UNIT ( $, .METRE. ) );
#134 = ORIENTED_EDGE ( 'NONE', *, *, #238, .T. ) ;
#135 = APPLICATION_CONTEXT ( 'automotive_design' ) ;
#136 = SURFACE_SIDE_STYLE ('',( #204 ) ) ;
#137 = EDGE_LOOP ( 'NONE', ( #237, #25, #126, #109 ) ) ;
#138 = AXIS2_PLACEMENT_3D ( 'NONE', #252, #156, #44 ) ;
#139 = DIRECTION ( 'NONE',  ( 0.1736481776669313581, 0.0000000000000000000, 0.9848077530122077983 ) ) ;
#140 = CARTESIAN_POINT ( 'NONE',  ( 0.06250000000000006939, 7.654042494670963708E-18, 0.3566286452304176513 ) ) ;
#141 = CARTESIAN_POINT ( 'NONE',  ( 0.006493500000000005344, 0.0000000000000000000, 0.03899999999999999994 ) ) ;
#142 = CIRCLE ( 'NONE', #1, 0.006493499999999999273 ) ;
#143 = ADVANCED_FACE ( 'NONE', ( #174 ), #60, .T. ) ;
#144 = ORIENTED_EDGE ( 'NONE', *, *, #311, .T. ) ;
#145 = DIRECTION ( 'NONE',  ( -1.000000000000000000, 0.0000000000000000000, 1.643378952067610679E-16 ) ) ;
#146 = FACE_OUTER_BOUND ( 'NONE', #296, .T. ) ;
#147 = AXIS2_PLACEMENT_3D ( 'NONE', #254, #209, #305 ) ;
#148 = DIRECTION ( 'NONE',  ( 0.0000000000000000000, 1.000000000000000000, 0.0000000000000000000 ) ) ;
#149 = EDGE_CURVE ( 'NONE', #6, #102, #239, .T. ) ;
#150 = CARTESIAN_POINT ( 'NONE',  ( 0.0000000000000000000, 0.0000000000000000000, 1.500000000000000222 ) ) ;
#151 = DIRECTION ( 'NONE',  ( 1.224646799147353207E-16, 1.000000000000000000, -0.0000000000000000000 ) ) ;
#152 = CLOSED_SHELL ( 'NONE', ( #130, #284, #197, #47, #182, #39, #293, #166, #101, #143, #243 ) ) ;
#153 = CYLINDRICAL_SURFACE ( 'NONE', #184, 0.06250000000000002776 ) ;
#154 = PRESENTATION_STYLE_ASSIGNMENT (( #295 ) ) ;
#155 = EDGE_CURVE ( 'NONE', #76, #278, #142, .T. ) ;
#156 = DIRECTION ( 'NONE',  ( -1.224646799147353454E-16, -0.0000000000000000000, -1.000000000000000000 ) ) ;
#157 = EDGE_LOOP ( 'NONE', ( #4, #273, #103 ) ) ;
#158 = CIRCLE ( 'NONE', #12, 0.006493499999999999273 ) ;
#159 = ORIENTED_EDGE ( 'NONE', *, *, #16, .T. ) ;
#160 = LENGTH_MEASURE_WITH_UNIT ( LENGTH_MEASURE( 0.02539999999999999897 ), #45 );
#161 = ORIENTED_EDGE ( 'NONE', *, *, #206, .T. ) ;
#162 = EDGE_CURVE ( 'NONE', #280, #128, #264, .T. ) ;
#163 = ORIENTED_EDGE ( 'NONE', *, *, #162, .T. ) ;
#164 = DIRECTION ( 'NONE',  ( -1.000000000000000000, 0.0000000000000000000, 0.0000000000000000000 ) ) ;
#165 = DIRECTION ( 'NONE',  ( -1.000000000000000000, 0.0000000000000000000, 0.0000000000000000000 ) ) ;
#166 = ADVANCED_FACE ( 'NONE', ( #261 ), #286, .T. ) ;
#167 = DIRECTION ( 'NONE',  ( -0.0000000000000000000, -0.0000000000000000000, -1.000000000000000000 ) ) ;
#168 = CIRCLE ( 'NONE', #138, 0.06250000000000002776 ) ;
#169 = CARTESIAN_POINT ( 'NONE',  ( 0.0000000000000000000, 0.0000000000000000000, 1.485000000000000764 ) ) ;
#170 = FILL_AREA_STYLE_COLOUR ( '', #5 ) ;
#171 = DIRECTION ( 'NONE',  ( -1.000000000000000000, 1.224646799147353207E-16, 0.0000000000000000000 ) ) ;
#172 = EDGE_CURVE ( 'NONE', #280, #255, #173, .T. ) ;
#173 = CIRCLE ( 'NONE', #99, 0.04750000000000064587 ) ;
#174 = FACE_OUTER_BOUND ( 'NONE', #55, .T. ) ;
#175 = DIRECTION ( 'NONE',  ( -1.224646799147353454E-16, -0.0000000000000000000, -1.000000000000000000 ) ) ;
#176 = DIRECTION ( 'NONE',  ( 1.000000000000000000, 0.0000000000000000000, 0.0000000000000000000 ) ) ;
#177 = SURFACE_STYLE_FILL_AREA ( #224 ) ;
#178 = CYLINDRICAL_SURFACE ( 'NONE', #219, 0.006493499999999999273 ) ;
#179 = FACE_OUTER_BOUND ( 'NONE', #71, .T. ) ;
#180 = ORIENTED_EDGE ( 'NONE', *, *, #77, .T. ) ;
#181 = ORIENTED_EDGE ( 'NONE', *, *, #232, .T. ) ;
#182 = ADVANCED_FACE ( 'NONE', ( #146 ), #153, .T. ) ;
#183 = DIRECTION ( 'NONE',  ( -1.224646799147353454E-16, -0.0000000000000000000, -1.000000000000000000 ) ) ;
#184 = AXIS2_PLACEMENT_3D ( 'NONE', #150, #244, #316 ) ;
#185 = ORIENTED_EDGE ( 'NONE', *, *, #91, .F. ) ;
#186 = EDGE_CURVE ( 'NONE', #6, #128, #189, .T. ) ;
#187 = FACE_OUTER_BOUND ( 'NONE', #277, .T. ) ;
#188 = LINE ( 'NONE', #283, #309 ) ;
#189 = CIRCLE ( 'NONE', #322, 0.06250000000000002776 ) ;
#190 =( NAMED_UNIT ( * ) PLANE_ANGLE_UNIT ( ) SI_UNIT ( $, .RADIAN. ) );
#191 = DIRECTION ( 'NONE',  ( 0.0000000000000000000, 0.0000000000000000000, -1.000000000000000000 ) ) ;
#192 = CARTESIAN_POINT ( 'NONE',  ( 4.776122516674678488E-18, 0.0000000000000000000, 0.03899999999999999994 ) ) ;
#193 = DIRECTION ( 'NONE',  ( -1.000000000000000000, 0.0000000000000000000, 1.224646799147353454E-16 ) ) ;
#194 = AXIS2_PLACEMENT_3D ( 'NONE', #121, #148, #176 ) ;
#195 = DIRECTION ( 'NONE',  ( 1.000000000000000000, 0.0000000000000000000, 0.0000000000000000000 ) ) ;
#196 = LINE ( 'NONE', #292, #240 ) ;
#197 = ADVANCED_FACE ( 'NONE', ( #15 ), #62, .T. ) ;
#198 = DIRECTION ( 'NONE',  ( -1.224646799147353454E-16, -0.0000000000000000000, -1.000000000000000000 ) ) ;
#199 = DIRECTION ( 'NONE',  ( 1.000000000000000000, 0.0000000000000000000, 0.0000000000000000000 ) ) ;
#200 = CIRCLE ( 'NONE', #212, 0.006493500000000000140 ) ;
#201 = ORIENTED_EDGE ( 'NONE', *, *, #16, .F. ) ;
#202 = EDGE_CURVE ( 'NONE', #255, #6, #217, .T. ) ;
#203 =( NAMED_UNIT ( * ) SI_UNIT ( $, .STERADIAN. ) SOLID_ANGLE_UNIT ( ) );
#204 = SURFACE_STYLE_FILL_AREA ( #294 ) ;
#205 = DIRECTION ( 'NONE',  ( 0.0000000000000000000, 0.0000000000000000000, -1.000000000000000000 ) ) ;
#206 = EDGE_CURVE ( 'NONE', #132, #278, #196, .T. ) ;
#207 = CYLINDRICAL_SURFACE ( 'NONE', #90, 0.06250000000000002776 ) ;
#208 = CIRCLE ( 'NONE', #122, 0.006493500000000001007 ) ;
#209 = DIRECTION ( 'NONE',  ( 1.224646799147353454E-16, 0.0000000000000000000, 1.000000000000000000 ) ) ;
#210 = CARTESIAN_POINT ( 'NONE',  ( 4.776122516674678488E-18, 0.0000000000000000000, 0.03899999999999999994 ) ) ;
#211 = LINE ( 'NONE', #57, #218 ) ;
#212 = AXIS2_PLACEMENT_3D ( 'NONE', #272, #275, #324 ) ;
#213 = CARTESIAN_POINT ( 'NONE',  ( 0.0000000000000000000, 0.0000000000000000000, 1.485000000000000764 ) ) ;
#214 = CONICAL_SURFACE ( 'NONE', #72, 0.04750000000000064587, 0.7853981633974466137 ) ;
#215 = DIRECTION ( 'NONE',  ( 1.000000000000000000, 0.0000000000000000000, 0.0000000000000000000 ) ) ;
#216 = APPLICATION_PROTOCOL_DEFINITION ( 'draft international standard', 'automotive_design', 1998, #67 ) ;
#217 = LINE ( 'NONE', #313, #82 ) ;
#218 = VECTOR ( 'NONE', #32, 39.37007874015748143 ) ;
#219 = AXIS2_PLACEMENT_3D ( 'NONE', #79, #321, #127 ) ;
#220 = DIRECTION ( 'NONE',  ( -1.224646799147353454E-16, -0.0000000000000000000, -1.000000000000000000 ) ) ;
#221 = SPHERICAL_SURFACE ( 'NONE', #250, 0.006493500000000000140 ) ;
#222 = CARTESIAN_POINT ( 'NONE',  ( -0.04750000000000064587, 0.0000000000000000000, 1.500000000000000222 ) ) ;
#223 = ORIENTED_EDGE ( 'NONE', *, *, #186, .F. ) ;
#224 = FILL_AREA_STYLE ('',( #74 ) ) ;
#225 = CIRCLE ( 'NONE', #262, 0.06250000000000002776 ) ;
#226 = ORIENTED_EDGE ( 'NONE', *, *, #59, .F. ) ;
#227 = EDGE_CURVE ( 'NONE', #102, #251, #225, .T. ) ;
#228 = DIRECTION ( 'NONE',  ( 1.000000000000000000, 0.0000000000000000000, -0.0000000000000000000 ) ) ;
#229 = ORIENTED_EDGE ( 'NONE', *, *, #91, .T. ) ;
#230 = STYLED_ITEM ( 'NONE', ( #319 ), #124 ) ;
#231 = ORIENTED_EDGE ( 'NONE', *, *, #202, .F. ) ;
#232 = EDGE_CURVE ( 'NONE', #73, #76, #300, .T. ) ;
#233 = CARTESIAN_POINT ( 'NONE',  ( 0.06250000000000002776, 7.654042494670959086E-18, 1.485000000000000764 ) ) ;
#234 = CARTESIAN_POINT ( 'NONE',  ( -0.006493499999999996670, 7.952243990263339486E-19, 0.03899999999999999994 ) ) ;
#235 = CIRCLE ( 'NONE', #114, 0.006493500000000001007 ) ;
#236 = ORIENTED_EDGE ( 'NONE', *, *, #306, .F. ) ;
#237 = ORIENTED_EDGE ( 'NONE', *, *, #149, .F. ) ;
#238 = EDGE_CURVE ( 'NONE', #132, #51, #235, .T. ) ;
#239 = LINE ( 'NONE', #260, #258 ) ;
#240 = VECTOR ( 'NONE', #291, 39.37007874015748143 ) ;
#241 = DIMENSIONAL_EXPONENTS ( 1.000000000000000000, 0.0000000000000000000, 0.0000000000000000000, 0.0000000000000000000, 0.0000000000000000000, 0.0000000000000000000, 0.0000000000000000000 ) ;
#242 = CARTESIAN_POINT ( 'NONE',  ( 0.0000000000000000000, 0.0000000000000000000, 1.500000000000000222 ) ) ;
#243 = ADVANCED_FACE ( 'NONE', ( #18 ), #221, .T. ) ;
#244 = DIRECTION ( 'NONE',  ( -0.0000000000000000000, -0.0000000000000000000, -1.000000000000000000 ) ) ;
#245 = CARTESIAN_POINT ( 'NONE',  ( 4.776122516674678488E-18, 0.0000000000000000000, 0.03899999999999999994 ) ) ;
#246 = AXIS2_PLACEMENT_3D ( 'NONE', #85, #7, #307 ) ;
#247 = CARTESIAN_POINT ( 'NONE',  ( 0.04750000000000064587, 6.735557395310483192E-18, 1.500000000000000222 ) ) ;
#248 = ORIENTED_EDGE ( 'NONE', *, *, #63, .T. ) ;
#249 = MANIFOLD_SOLID_BREP ( 'Fillet1', #152 ) ;
#250 = AXIS2_PLACEMENT_3D ( 'NONE', #317, #97, #199 ) ;
#251 = VERTEX_POINT ( 'NONE', #70 ) ;
#252 = CARTESIAN_POINT ( 'NONE',  ( 4.367441288656881593E-17, 0.0000000000000000000, 0.3566286452304176513 ) ) ;
#253 = ORIENTED_EDGE ( 'NONE', *, *, #59, .T. ) ;
#254 = CARTESIAN_POINT ( 'NONE',  ( 4.776122516674678488E-18, 0.0000000000000000000, 0.03899999999999999994 ) ) ;
#255 = VERTEX_POINT ( 'NONE', #247 ) ;
#256 = EDGE_LOOP ( 'NONE', ( #185, #100, #253, #107 ) ) ;
#257 = LINE ( 'NONE', #141, #2 ) ;
#258 = VECTOR ( 'NONE', #17, 39.37007874015748143 ) ;
#259 = ORIENTED_EDGE ( 'NONE', *, *, #77, .F. ) ;
#260 = CARTESIAN_POINT ( 'NONE',  ( 0.06250000000000002776, 7.654042494670959086E-18, 1.500000000000000222 ) ) ;
#261 = FACE_OUTER_BOUND ( 'NONE', #287, .T. ) ;
#262 = AXIS2_PLACEMENT_3D ( 'NONE', #64, #175, #265 ) ;
#263 =( GEOMETRIC_REPRESENTATION_CONTEXT ( 3 ) GLOBAL_UNCERTAINTY_ASSIGNED_CONTEXT ( ( #318 ) ) GLOBAL_UNIT_ASSIGNED_CONTEXT ( ( #105, #190, #34 ) ) REPRESENTATION_CONTEXT ( 'NONE', 'WORKASPACE' ) );
#264 = LINE ( 'NONE', #115, #104 ) ;
#265 = DIRECTION ( 'NONE',  ( 1.000000000000000000, 0.0000000000000000000, 0.0000000000000000000 ) ) ;
#266 = PRODUCT_CONTEXT ( 'NONE', #135, 'mechanical' ) ;
#267 = DIRECTION ( 'NONE',  ( 1.224646799147353454E-16, 0.0000000000000000000, 1.000000000000000000 ) ) ;
#268 = SURFACE_SIDE_STYLE ('',( #177 ) ) ;
#269 = PRESENTATION_LAYER_ASSIGNMENT (  '', '', ( #230 ) ) ;
#270 = PLANE ( 'NONE',  #314 ) ;
#271 = PRODUCT_DEFINITION_SHAPE ( 'NONE', 'NONE',  #52 ) ;
#272 = CARTESIAN_POINT ( 'NONE',  ( 7.952243990263339486E-19, 0.0000000000000000000, 0.006493500000000000140 ) ) ;
#273 = ORIENTED_EDGE ( 'NONE', *, *, #306, .T. ) ;
#274 = EDGE_LOOP ( 'NONE', ( #236, #181, #84 ) ) ;
#275 = DIRECTION ( 'NONE',  ( 0.0000000000000000000, -1.000000000000000000, 0.0000000000000000000 ) ) ;
#276 =( GEOMETRIC_REPRESENTATION_CONTEXT ( 3 ) GLOBAL_UNCERTAINTY_ASSIGNED_CONTEXT ( ( #9 ) ) GLOBAL_UNIT_ASSIGNED_CONTEXT ( ( #26, #20, #203 ) ) REPRESENTATION_CONTEXT ( 'NONE', 'WORKASPACE' ) );
#277 = EDGE_LOOP ( 'NONE', ( #259, #285, #48, #106 ) ) ;
#278 = VERTEX_POINT ( 'NONE', #123 ) ;
#279 = ORIENTED_EDGE ( 'NONE', *, *, #108, .F. ) ;
#280 = VERTEX_POINT ( 'NONE', #222 ) ;
#281 = AXIS2_PLACEMENT_3D ( 'NONE', #86, #40, #195 ) ;
#282 = ORIENTED_EDGE ( 'NONE', *, *, #149, .T. ) ;
#283 = CARTESIAN_POINT ( 'NONE',  ( -0.06250000000000002776, 0.0000000000000000000, 1.500000000000000222 ) ) ;
#284 = ADVANCED_FACE ( 'NONE', ( #323 ), #178, .T. ) ;
#285 = ORIENTED_EDGE ( 'NONE', *, *, #202, .T. ) ;
#286 = CONICAL_SURFACE ( 'NONE', #50, 0.04750000000000064587, 0.7853981633974466137 ) ;
#287 = EDGE_LOOP ( 'NONE', ( #231, #325, #163, #223 ) ) ;
#288 = CARTESIAN_POINT ( 'NONE',  ( 0.006493500000000005344, 0.0000000000000000000, 0.03899999999999999994 ) ) ;
#289 = DIRECTION ( 'NONE',  ( -0.7071067811865462405, 0.0000000000000000000, -0.7071067811865486830 ) ) ;
#290 = MECHANICAL_DESIGN_GEOMETRIC_PRESENTATION_REPRESENTATION (  '', ( #110 ), #276 ) ;
#291 = DIRECTION ( 'NONE',  ( -1.224646799147353454E-16, -0.0000000000000000000, -1.000000000000000000 ) ) ;
#292 = CARTESIAN_POINT ( 'NONE',  ( 0.006493499999999999273, 7.952243990263336597E-19, -7.952243990263338523E-19 ) ) ;
#293 = ADVANCED_FACE ( 'NONE', ( #179 ), #270, .T. ) ;
#294 = FILL_AREA_STYLE ('',( #170 ) ) ;
#295 = SURFACE_STYLE_USAGE ( .BOTH. , #136 ) ;
#296 = EDGE_LOOP ( 'NONE', ( #27, #282, #298, #279 ) ) ;
#297 = LENGTH_MEASURE_WITH_UNIT ( LENGTH_MEASURE( 0.02539999999999999897 ), #133 );
#298 = ORIENTED_EDGE ( 'NONE', *, *, #311, .F. ) ;
#299 = DIRECTION ( 'NONE',  ( 0.0000000000000000000, 0.0000000000000000000, 1.000000000000000000 ) ) ;
#300 = CIRCLE ( 'NONE', #22, 0.006493500000000000140 ) ;
#301 = ORIENTED_EDGE ( 'NONE', *, *, #69, .F. ) ;
#302 = FACE_OUTER_BOUND ( 'NONE', #137, .T. ) ;
#303 = DIRECTION ( 'NONE',  ( -0.1736481776669311639, 2.126576849575783008E-17, 0.9848077530122080203 ) ) ;
#304 = CIRCLE ( 'NONE', #246, 0.04750000000000064587 ) ;
#305 = DIRECTION ( 'NONE',  ( 1.000000000000000000, 0.0000000000000000000, 0.0000000000000000000 ) ) ;
#306 = EDGE_CURVE ( 'NONE', #73, #278, #200, .T. ) ;
#307 = DIRECTION ( 'NONE',  ( 1.000000000000000000, 0.0000000000000000000, 0.0000000000000000000 ) ) ;
#308 = CARTESIAN_POINT ( 'NONE',  ( -0.006493499999999996670, 4.224633446848647287E-18, 0.03899999999999999994 ) ) ;
#309 = VECTOR ( 'NONE', #112, 39.37007874015748143 ) ;
#310 = CARTESIAN_POINT ( 'NONE',  ( 0.0000000000000000000, 0.0000000000000000000, 0.0000000000000000000 ) ) ;
#311 = EDGE_CURVE ( 'NONE', #251, #102, #168, .T. ) ;
#312 = DIRECTION ( 'NONE',  ( 0.0000000000000000000, 0.0000000000000000000, -1.000000000000000000 ) ) ;
#313 = CARTESIAN_POINT ( 'NONE',  ( 0.04750000000000064587, 5.817072295950006528E-18, 1.500000000000000222 ) ) ;
#314 = AXIS2_PLACEMENT_3D ( 'NONE', #24, #299, #228 ) ;
#315 = MECHANICAL_DESIGN_GEOMETRIC_PRESENTATION_REPRESENTATION (  '', ( #230 ), #263 ) ;
#316 = DIRECTION ( 'NONE',  ( -1.000000000000000000, 0.0000000000000000000, 0.0000000000000000000 ) ) ;
#317 = CARTESIAN_POINT ( 'NONE',  ( 7.952243990263339486E-19, 0.0000000000000000000, 0.006493500000000000140 ) ) ;
#318 = UNCERTAINTY_MEASURE_WITH_UNIT (LENGTH_MEASURE( 1.000000000000000082E-05 ), #105, 'distance_accuracy_value', 'NONE');
#319 = PRESENTATION_STYLE_ASSIGNMENT (( #125 ) ) ;
#320 = DIMENSIONAL_EXPONENTS ( 1.000000000000000000, 0.0000000000000000000, 0.0000000000000000000, 0.0000000000000000000, 0.0000000000000000000, 0.0000000000000000000, 0.0000000000000000000 ) ;
#321 = DIRECTION ( 'NONE',  ( -1.224646799147353454E-16, -0.0000000000000000000, -1.000000000000000000 ) ) ;
#322 = AXIS2_PLACEMENT_3D ( 'NONE', #213, #61, #11 ) ;
#323 = FACE_OUTER_BOUND ( 'NONE', #19, .T. ) ;
#324 = DIRECTION ( 'NONE',  ( 0.0000000000000000000, 0.0000000000000000000, -1.000000000000000000 ) ) ;
#325 = ORIENTED_EDGE ( 'NONE', *, *, #172, .F. ) ;
ENDSEC;
END-ISO-10303-21;
