ISO-10303-21;
HEADER;
FILE_DESCRIPTION (( 'STEP AP214' ),
    '1' );
FILE_NAME ('Micro_SFPM-050-40.STEP',
    '2021-09-02T07:10:06',
    ( '' ),
    ( '' ),
    'SwSTEP 2.0',
    'SolidWorks 2020',
    '' );
FILE_SCHEMA (( 'AUTOMOTIVE_DESIGN' ));
ENDSEC;

DATA;
#1 = DIRECTION ( 'NONE',  ( 0.0000000000000000000, 0.0000000000000000000, 1.000000000000000000 ) ) ;
#2 = DIRECTION ( 'NONE',  ( -0.7071067811865358044, 0.0000000000000000000, -0.7071067811865590080 ) ) ;
#3 = EDGE_CURVE ( 'NONE', #275, #72, #98, .T. ) ;
#4 = CONICAL_SURFACE ( 'NONE', #141, 0.09832657500000001327, 0.1745329251994338360 ) ;
#5 = MECHANICAL_DESIGN_GEOMETRIC_PRESENTATION_REPRESENTATION (  '', ( #245 ), #16 ) ;
#6 = CARTESIAN_POINT ( 'NONE',  ( 0.0000000000000000000, 0.0000000000000000000, 2.244094000000000033 ) ) ;
#7 = DIRECTION ( 'NONE',  ( 1.000000000000000000, 0.0000000000000000000, 0.0000000000000000000 ) ) ;
#8 = CARTESIAN_POINT ( 'NONE',  ( 0.1181100000000000066, 1.446430334472939084E-17, 2.244094000000000033 ) ) ;
#9 = DIMENSIONAL_EXPONENTS ( 1.000000000000000000, 0.0000000000000000000, 0.0000000000000000000, 0.0000000000000000000, 0.0000000000000000000, 0.0000000000000000000, 0.0000000000000000000 ) ;
#10 = ORIENTED_EDGE ( 'NONE', *, *, #65, .T. ) ;
#11 = DIRECTION ( 'NONE',  ( 1.000000000000000000, 0.0000000000000000000, -0.0000000000000000000 ) ) ;
#12 = CIRCLE ( 'NONE', #88, 0.09832657499999998552 ) ;
#13 = APPLICATION_CONTEXT ( 'automotive_design' ) ;
#14 = EDGE_CURVE ( 'NONE', #144, #50, #242, .T. ) ;
#15 = DIRECTION ( 'NONE',  ( -1.000000000000000000, 0.0000000000000000000, 0.0000000000000000000 ) ) ;
#16 =( GEOMETRIC_REPRESENTATION_CONTEXT ( 3 ) GLOBAL_UNCERTAINTY_ASSIGNED_CONTEXT ( ( #196 ) ) GLOBAL_UNIT_ASSIGNED_CONTEXT ( ( #157, #37, #159 ) ) REPRESENTATION_CONTEXT ( 'NONE', 'WORKASPACE' ) );
#17 = ORIENTED_EDGE ( 'NONE', *, *, #91, .T. ) ;
#18 = FACE_OUTER_BOUND ( 'NONE', #268, .T. ) ;
#19 = CARTESIAN_POINT ( 'NONE',  ( 7.714307363656999460E-17, 0.0000000000000000000, 0.6299209999999999532 ) ) ;
#20 = DIRECTION ( 'NONE',  ( -1.000000000000000000, 0.0000000000000000000, 0.0000000000000000000 ) ) ;
#21 = AXIS2_PLACEMENT_3D ( 'NONE', #256, #192, #188 ) ;
#22 = DIRECTION ( 'NONE',  ( 1.000000000000000000, 0.0000000000000000000, 0.0000000000000000000 ) ) ;
#23 = DIRECTION ( 'NONE',  ( -1.000000000000000000, 0.0000000000000000000, 0.0000000000000000000 ) ) ;
#24 = CYLINDRICAL_SURFACE ( 'NONE', #21, 0.09832657500000001327 ) ;
#25 = VECTOR ( 'NONE', #170, 39.37007874015748143 ) ;
#26 = CIRCLE ( 'NONE', #102, 0.09832657499999998552 ) ;
#27 = EDGE_LOOP ( 'NONE', ( #28, #219, #17, #100 ) ) ;
#28 = ORIENTED_EDGE ( 'NONE', *, *, #284, .F. ) ;
#29 = CARTESIAN_POINT ( 'NONE',  ( 0.0000000000000000000, 0.0000000000000000000, 2.244094000000000033 ) ) ;
#30 = CIRCLE ( 'NONE', #129, 0.1181100000000000066 ) ;
#31 = DIRECTION ( 'NONE',  ( -0.1736481776669311639, 2.126576849575782392E-17, 0.9848077530122080203 ) ) ;
#32 = EDGE_CURVE ( 'NONE', #177, #144, #258, .T. ) ;
#33 = DIRECTION ( 'NONE',  ( 1.224646799147353207E-16, 0.0000000000000000000, 1.000000000000000000 ) ) ;
#34 = EDGE_LOOP ( 'NONE', ( #96, #61, #227, #259 ) ) ;
#35 = SURFACE_SIDE_STYLE ('',( #182 ) ) ;
#36 = EDGE_CURVE ( 'NONE', #136, #50, #176, .T. ) ;
#37 =( NAMED_UNIT ( * ) PLANE_ANGLE_UNIT ( ) SI_UNIT ( $, .RADIAN. ) );
#38 = CARTESIAN_POINT ( 'NONE',  ( 0.1181100000000000899, 1.446430334472940009E-17, 0.7421183785322698068 ) ) ;
#39 = ORIENTED_EDGE ( 'NONE', *, *, #49, .F. ) ;
#40 = DIRECTION ( 'NONE',  ( 1.000000000000000000, 0.0000000000000000000, -0.0000000000000000000 ) ) ;
#41 = EDGE_CURVE ( 'NONE', #48, #144, #30, .T. ) ;
#42 = CARTESIAN_POINT ( 'NONE',  ( 9.088328968579682115E-17, 0.0000000000000000000, 0.7421183785322698068 ) ) ;
#43 = DIRECTION ( 'NONE',  ( -1.000000000000000000, 0.0000000000000000000, 0.0000000000000000000 ) ) ;
#44 = CONICAL_SURFACE ( 'NONE', #82, 0.1031100000000002570, 0.7853981633974318477 ) ;
#45 = AXIS2_PLACEMENT_3D ( 'NONE', #19, #218, #23 ) ;
#46 = VECTOR ( 'NONE', #153, 39.37007874015748143 ) ;
#47 = CIRCLE ( 'NONE', #249, 0.1031100000000002570 ) ;
#48 = VERTEX_POINT ( 'NONE', #221 ) ;
#49 = EDGE_CURVE ( 'NONE', #121, #177, #140, .T. ) ;
#50 = VERTEX_POINT ( 'NONE', #195 ) ;
#51 = CARTESIAN_POINT ( 'NONE',  ( -0.1181100000000000066, 0.0000000000000000000, 2.244094000000000033 ) ) ;
#52 = EDGE_CURVE ( 'NONE', #177, #121, #47, .T. ) ;
#53 = DIRECTION ( 'NONE',  ( -1.224646799147353207E-16, -0.0000000000000000000, -1.000000000000000000 ) ) ;
#54 = ORIENTED_EDGE ( 'NONE', *, *, #298, .F. ) ;
#55 = CARTESIAN_POINT ( 'NONE',  ( 0.1031100000000002570, 1.262733314600838667E-17, 2.244094000000000033 ) ) ;
#56 = PRODUCT_DEFINITION_SHAPE ( 'NONE', 'NONE',  #62 ) ;
#57 = CARTESIAN_POINT ( 'NONE',  ( -0.1181100000000000066, 0.0000000000000000000, 2.229093999999999465 ) ) ;
#58 = PRODUCT_RELATED_PRODUCT_CATEGORY ( 'part', '', ( #149 ) ) ;
#59 = MECHANICAL_DESIGN_GEOMETRIC_PRESENTATION_REPRESENTATION (  '', ( #120 ), #95 ) ;
#60 = EDGE_LOOP ( 'NONE', ( #111, #224, #184, #200 ) ) ;
#61 = ORIENTED_EDGE ( 'NONE', *, *, #41, .T. ) ;
#62 = PRODUCT_DEFINITION ( 'UNKNOWN', '', #130, #241 ) ;
#63 = CARTESIAN_POINT ( 'NONE',  ( 0.1031100000000002570, 1.354581824536888722E-17, 2.244094000000000033 ) ) ;
#64 = DIRECTION ( 'NONE',  ( -1.000000000000000000, 0.0000000000000000000, 1.224646799147353207E-16 ) ) ;
#65 = EDGE_CURVE ( 'NONE', #48, #147, #226, .T. ) ;
#66 = VECTOR ( 'NONE', #185, 39.37007874015748143 ) ;
#67 = CIRCLE ( 'NONE', #45, 0.09832657500000001327 ) ;
#68 = DIRECTION ( 'NONE',  ( 0.0000000000000000000, 0.0000000000000000000, -1.000000000000000000 ) ) ;
#69 =( NAMED_UNIT ( * ) SI_UNIT ( $, .STERADIAN. ) SOLID_ANGLE_UNIT ( ) );
#70 = ORIENTED_EDGE ( 'NONE', *, *, #14, .F. ) ;
#71 = AXIS2_PLACEMENT_3D ( 'NONE', #108, #206, #15 ) ;
#72 = VERTEX_POINT ( 'NONE', #257 ) ;
#73 = ORIENTED_EDGE ( 'NONE', *, *, #165, .F. ) ;
#74 = EDGE_CURVE ( 'NONE', #136, #85, #105, .T. ) ;
#75 = CARTESIAN_POINT ( 'NONE',  ( -0.09832657500000001327, 0.0000000000000000000, 1.204153253448721666E-17 ) ) ;
#76 = AXIS2_PLACEMENT_3D ( 'NONE', #187, #207, #266 ) ;
#77 = ORIENTED_EDGE ( 'NONE', *, *, #74, .T. ) ;
#78 = CARTESIAN_POINT ( 'NONE',  ( 0.09832657500000009654, 0.0000000000000000000, 0.6299209999999999532 ) ) ;
#79 = DIRECTION ( 'NONE',  ( -1.000000000000000000, 0.0000000000000000000, 1.224646799147353207E-16 ) ) ;
#80 = UNCERTAINTY_MEASURE_WITH_UNIT (LENGTH_MEASURE( 1.000000000000000082E-05 ), #225, 'distance_accuracy_value', 'NONE');
#81 = FILL_AREA_STYLE_COLOUR ( '', #171 ) ;
#82 = AXIS2_PLACEMENT_3D ( 'NONE', #190, #68, #43 ) ;
#83 = FILL_AREA_STYLE ('',( #81 ) ) ;
#84 = ADVANCED_FACE ( 'NONE', ( #151 ), #254, .T. ) ;
#85 = VERTEX_POINT ( 'NONE', #204 ) ;
#86 = CARTESIAN_POINT ( 'NONE',  ( 7.714307363656999460E-17, 0.0000000000000000000, 0.6299209999999999532 ) ) ;
#87 = PRESENTATION_STYLE_ASSIGNMENT (( #215 ) ) ;
#88 = AXIS2_PLACEMENT_3D ( 'NONE', #134, #291, #248 ) ;
#89 = DIRECTION ( 'NONE',  ( 0.0000000000000000000, 0.0000000000000000000, -1.000000000000000000 ) ) ;
#90 = FACE_OUTER_BOUND ( 'NONE', #201, .T. ) ;
#91 = EDGE_CURVE ( 'NONE', #50, #147, #145, .T. ) ;
#92 = FACE_OUTER_BOUND ( 'NONE', #212, .T. ) ;
#93 = EDGE_LOOP ( 'NONE', ( #283, #10, #297, #70 ) ) ;
#94 = VECTOR ( 'NONE', #2, 39.37007874015748854 ) ;
#95 =( GEOMETRIC_REPRESENTATION_CONTEXT ( 3 ) GLOBAL_UNCERTAINTY_ASSIGNED_CONTEXT ( ( #80 ) ) GLOBAL_UNIT_ASSIGNED_CONTEXT ( ( #225, #169, #99 ) ) REPRESENTATION_CONTEXT ( 'NONE', 'WORKASPACE' ) );
#96 = ORIENTED_EDGE ( 'NONE', *, *, #65, .F. ) ;
#97 = EDGE_CURVE ( 'NONE', #85, #72, #12, .T. ) ;
#98 = LINE ( 'NONE', #106, #46 ) ;
#99 =( NAMED_UNIT ( * ) SI_UNIT ( $, .STERADIAN. ) SOLID_ANGLE_UNIT ( ) );
#100 = ORIENTED_EDGE ( 'NONE', *, *, #132, .F. ) ;
#101 = VECTOR ( 'NONE', #31, 39.37007874015747433 ) ;
#102 = AXIS2_PLACEMENT_3D ( 'NONE', #193, #296, #64 ) ;
#103 = DIRECTION ( 'NONE',  ( 1.000000000000000000, 0.0000000000000000000, 0.0000000000000000000 ) ) ;
#104 = APPLICATION_PROTOCOL_DEFINITION ( 'draft international standard', 'automotive_design', 1998, #203 ) ;
#105 = LINE ( 'NONE', #75, #270 ) ;
#106 = CARTESIAN_POINT ( 'NONE',  ( 0.09832657500000001327, 1.204153253448721666E-17, -1.204153253448721666E-17 ) ) ;
#107 = CYLINDRICAL_SURFACE ( 'NONE', #71, 0.1181100000000000066 ) ;
#108 = CARTESIAN_POINT ( 'NONE',  ( 0.0000000000000000000, 0.0000000000000000000, 2.244094000000000033 ) ) ;
#109 = FACE_OUTER_BOUND ( 'NONE', #243, .T. ) ;
#110 = ADVANCED_FACE ( 'NONE', ( #109 ), #211, .T. ) ;
#111 = ORIENTED_EDGE ( 'NONE', *, *, #284, .T. ) ;
#112 = DIRECTION ( 'NONE',  ( -1.224646799147353207E-16, -0.0000000000000000000, -1.000000000000000000 ) ) ;
#113 = SURFACE_SIDE_STYLE ('',( #236 ) ) ;
#114 = VECTOR ( 'NONE', #154, 39.37007874015748854 ) ;
#115 = FACE_OUTER_BOUND ( 'NONE', #117, .T. ) ;
#116 =( NAMED_UNIT ( * ) PLANE_ANGLE_UNIT ( ) SI_UNIT ( $, .RADIAN. ) );
#117 = EDGE_LOOP ( 'NONE', ( #198, #292, #77, #277 ) ) ;
#118 = PLANE ( 'NONE',  #180 ) ;
#119 = ORIENTED_EDGE ( 'NONE', *, *, #52, .F. ) ;
#120 = STYLED_ITEM ( 'NONE', ( #87 ), #223 ) ;
#121 = VERTEX_POINT ( 'NONE', #63 ) ;
#122 = DIMENSIONAL_EXPONENTS ( 1.000000000000000000, 0.0000000000000000000, 0.0000000000000000000, 0.0000000000000000000, 0.0000000000000000000, 0.0000000000000000000, 0.0000000000000000000 ) ;
#123 = ORIENTED_EDGE ( 'NONE', *, *, #165, .T. ) ;
#124 = ADVANCED_FACE ( 'NONE', ( #264 ), #133, .T. ) ;
#125 =( LENGTH_UNIT ( ) NAMED_UNIT ( * ) SI_UNIT ( $, .METRE. ) );
#126 = DIRECTION ( 'NONE',  ( 1.000000000000000000, 0.0000000000000000000, 0.0000000000000000000 ) ) ;
#127 = DIRECTION ( 'NONE',  ( 1.000000000000000000, 0.0000000000000000000, 0.0000000000000000000 ) ) ;
#128 = LENGTH_MEASURE_WITH_UNIT ( LENGTH_MEASURE( 0.02539999999999999897 ), #267 );
#129 = AXIS2_PLACEMENT_3D ( 'NONE', #247, #260, #126 ) ;
#130 = PRODUCT_DEFINITION_FORMATION_WITH_SPECIFIED_SOURCE ( 'ANY', '', #149, .NOT_KNOWN. ) ;
#131 = CYLINDRICAL_SURFACE ( 'NONE', #279, 0.1181100000000000066 ) ;
#132 = EDGE_CURVE ( 'NONE', #275, #147, #208, .T. ) ;
#133 = CYLINDRICAL_SURFACE ( 'NONE', #265, 0.09832657500000001327 ) ;
#134 = CARTESIAN_POINT ( 'NONE',  ( 1.474662427518848307E-33, 0.0000000000000000000, 1.204153253448721512E-17 ) ) ;
#135 = CIRCLE ( 'NONE', #162, 0.1181100000000000066 ) ;
#136 = VERTEX_POINT ( 'NONE', #232 ) ;
#137 = MANIFOLD_SOLID_BREP ( 'Cut-Revolve1', #164 ) ;
#138 = DIRECTION ( 'NONE',  ( 0.0000000000000000000, 0.0000000000000000000, 1.000000000000000000 ) ) ;
#139 = LENGTH_MEASURE_WITH_UNIT ( LENGTH_MEASURE( 0.02539999999999999897 ), #191 );
#140 = CIRCLE ( 'NONE', #161, 0.1031100000000002570 ) ;
#141 = AXIS2_PLACEMENT_3D ( 'NONE', #86, #230, #213 ) ;
#142 = FILL_AREA_STYLE_COLOUR ( '', #205 ) ;
#143 = ADVANCED_FACE ( 'NONE', ( #18 ), #4, .T. ) ;
#144 = VERTEX_POINT ( 'NONE', #57 ) ;
#145 = CIRCLE ( 'NONE', #76, 0.1181100000000000066 ) ;
#146 = ORIENTED_EDGE ( 'NONE', *, *, #41, .F. ) ;
#147 = VERTEX_POINT ( 'NONE', #38 ) ;
#148 = ADVANCED_FACE ( 'NONE', ( #293 ), #107, .T. ) ;
#149 = PRODUCT ( 'Micro_SFPM-050-40', 'Micro_SFPM-050-40', '', ( #285 ) ) ;
#150 = CARTESIAN_POINT ( 'NONE',  ( -0.1031100000000002570, 0.0000000000000000000, 2.244094000000000033 ) ) ;
#151 = FACE_OUTER_BOUND ( 'NONE', #27, .T. ) ;
#152 = ADVANCED_FACE ( 'NONE', ( #179 ), #131, .T. ) ;
#153 = DIRECTION ( 'NONE',  ( -1.224646799147353207E-16, -0.0000000000000000000, -1.000000000000000000 ) ) ;
#154 = DIRECTION ( 'NONE',  ( 0.7071067811865358044, 8.659560562354788645E-17, -0.7071067811865590080 ) ) ;
#155 = CIRCLE ( 'NONE', #199, 0.1181100000000000066 ) ;
#156 = LINE ( 'NONE', #55, #114 ) ;
#157 =( CONVERSION_BASED_UNIT ( 'INCH', #128 ) LENGTH_UNIT ( ) NAMED_UNIT ( #228 ) );
#158 = ORIENTED_EDGE ( 'NONE', *, *, #132, .T. ) ;
#159 =( NAMED_UNIT ( * ) SI_UNIT ( $, .STERADIAN. ) SOLID_ANGLE_UNIT ( ) );
#160 = CARTESIAN_POINT ( 'NONE',  ( 0.0000000000000000000, 0.0000000000000000000, 0.0000000000000000000 ) ) ;
#161 = AXIS2_PLACEMENT_3D ( 'NONE', #6, #1, #103 ) ;
#162 = AXIS2_PLACEMENT_3D ( 'NONE', #42, #166, #22 ) ;
#163 = DIRECTION ( 'NONE',  ( 0.0000000000000000000, 0.0000000000000000000, -1.000000000000000000 ) ) ;
#164 = CLOSED_SHELL ( 'NONE', ( #124, #84, #202, #148, #152, #110, #233, #143, #183, #214 ) ) ;
#165 = EDGE_CURVE ( 'NONE', #121, #48, #156, .T. ) ;
#166 = DIRECTION ( 'NONE',  ( -1.224646799147353207E-16, -0.0000000000000000000, -1.000000000000000000 ) ) ;
#167 = APPLICATION_PROTOCOL_DEFINITION ( 'draft international standard', 'automotive_design', 1998, #13 ) ;
#168 = UNCERTAINTY_MEASURE_WITH_UNIT (LENGTH_MEASURE( 1.000000000000000082E-05 ), #273, 'distance_accuracy_value', 'NONE');
#169 =( NAMED_UNIT ( * ) PLANE_ANGLE_UNIT ( ) SI_UNIT ( $, .RADIAN. ) );
#170 = DIRECTION ( 'NONE',  ( -0.0000000000000000000, -0.0000000000000000000, -1.000000000000000000 ) ) ;
#171 = COLOUR_RGB ( '',0.7921568627450980005, 0.8196078431372548767, 0.9333333333333333481 ) ;
#172 = DIRECTION ( 'NONE',  ( 1.000000000000000000, 0.0000000000000000000, 0.0000000000000000000 ) ) ;
#173 = DIRECTION ( 'NONE',  ( 0.0000000000000000000, 0.0000000000000000000, 1.000000000000000000 ) ) ;
#174 = EDGE_LOOP ( 'NONE', ( #253, #287 ) ) ;
#175 = SHAPE_DEFINITION_REPRESENTATION ( #56, #223 ) ;
#176 = LINE ( 'NONE', #244, #101 ) ;
#177 = VERTEX_POINT ( 'NONE', #250 ) ;
#178 = DIRECTION ( 'NONE',  ( -0.0000000000000000000, -0.0000000000000000000, -1.000000000000000000 ) ) ;
#179 = FACE_OUTER_BOUND ( 'NONE', #34, .T. ) ;
#180 = AXIS2_PLACEMENT_3D ( 'NONE', #217, #138, #40 ) ;
#181 =( GEOMETRIC_REPRESENTATION_CONTEXT ( 3 ) GLOBAL_UNCERTAINTY_ASSIGNED_CONTEXT ( ( #168 ) ) GLOBAL_UNIT_ASSIGNED_CONTEXT ( ( #273, #116, #69 ) ) REPRESENTATION_CONTEXT ( 'NONE', 'WORKASPACE' ) );
#182 = SURFACE_STYLE_FILL_AREA ( #83 ) ;
#183 = ADVANCED_FACE ( 'NONE', ( #115 ), #24, .T. ) ;
#184 = ORIENTED_EDGE ( 'NONE', *, *, #97, .F. ) ;
#185 = DIRECTION ( 'NONE',  ( 0.1736481776669313304, 0.0000000000000000000, 0.9848077530122077983 ) ) ;
#186 = ORIENTED_EDGE ( 'NONE', *, *, #276, .T. ) ;
#187 = CARTESIAN_POINT ( 'NONE',  ( 9.088328968579682115E-17, 0.0000000000000000000, 0.7421183785322698068 ) ) ;
#188 = DIRECTION ( 'NONE',  ( -1.000000000000000000, 0.0000000000000000000, 1.224646799147353207E-16 ) ) ;
#189 = PRESENTATION_LAYER_ASSIGNMENT (  '', '', ( #245 ) ) ;
#190 = CARTESIAN_POINT ( 'NONE',  ( 0.0000000000000000000, 0.0000000000000000000, 2.244094000000000033 ) ) ;
#191 =( LENGTH_UNIT ( ) NAMED_UNIT ( * ) SI_UNIT ( $, .METRE. ) );
#192 = DIRECTION ( 'NONE',  ( -1.224646799147353207E-16, -0.0000000000000000000, -1.000000000000000000 ) ) ;
#193 = CARTESIAN_POINT ( 'NONE',  ( 1.474662427518848307E-33, 0.0000000000000000000, 1.204153253448721512E-17 ) ) ;
#194 = ORIENTED_EDGE ( 'NONE', *, *, #36, .F. ) ;
#195 = CARTESIAN_POINT ( 'NONE',  ( -0.1181099999999999234, 0.0000000000000000000, 0.7421183785322698068 ) ) ;
#196 = UNCERTAINTY_MEASURE_WITH_UNIT (LENGTH_MEASURE( 1.000000000000000082E-05 ), #157, 'distance_accuracy_value', 'NONE');
#197 = EDGE_CURVE ( 'NONE', #144, #48, #155, .T. ) ;
#198 = ORIENTED_EDGE ( 'NONE', *, *, #3, .F. ) ;
#199 = AXIS2_PLACEMENT_3D ( 'NONE', #238, #89, #271 ) ;
#200 = ORIENTED_EDGE ( 'NONE', *, *, #74, .F. ) ;
#201 = EDGE_LOOP ( 'NONE', ( #39, #123, #286, #239 ) ) ;
#202 = ADVANCED_FACE ( 'NONE', ( #90 ), #44, .T. ) ;
#203 = APPLICATION_CONTEXT ( 'automotive_design' ) ;
#204 = CARTESIAN_POINT ( 'NONE',  ( -0.09832657499999998552, 0.0000000000000000000, 2.408306506897443024E-17 ) ) ;
#205 = COLOUR_RGB ( '',0.7921568627450980005, 0.8196078431372548767, 0.9333333333333333481 ) ;
#206 = DIRECTION ( 'NONE',  ( -0.0000000000000000000, -0.0000000000000000000, -1.000000000000000000 ) ) ;
#207 = DIRECTION ( 'NONE',  ( -1.224646799147353207E-16, -0.0000000000000000000, -1.000000000000000000 ) ) ;
#208 = LINE ( 'NONE', #78, #66 ) ;
#209 = AXIS2_PLACEMENT_3D ( 'NONE', #246, #33, #127 ) ;
#210 = AXIS2_PLACEMENT_3D ( 'NONE', #272, #294, #20 ) ;
#211 = PLANE ( 'NONE',  #295 ) ;
#212 = EDGE_LOOP ( 'NONE', ( #73, #119, #237, #146 ) ) ;
#213 = DIRECTION ( 'NONE',  ( 1.000000000000000000, 0.0000000000000000000, 0.0000000000000000000 ) ) ;
#214 = ADVANCED_FACE ( 'NONE', ( #274 ), #118, .F. ) ;
#215 = SURFACE_STYLE_USAGE ( .BOTH. , #113 ) ;
#216 = CARTESIAN_POINT ( 'NONE',  ( 0.0000000000000000000, 0.0000000000000000000, 2.244094000000000033 ) ) ;
#217 = CARTESIAN_POINT ( 'NONE',  ( 0.0000000000000000000, 0.0000000000000000000, 0.0000000000000000000 ) ) ;
#218 = DIRECTION ( 'NONE',  ( -1.224646799147353207E-16, -0.0000000000000000000, -1.000000000000000000 ) ) ;
#219 = ORIENTED_EDGE ( 'NONE', *, *, #36, .T. ) ;
#220 = CARTESIAN_POINT ( 'NONE',  ( 0.0000000000000000000, 0.0000000000000000000, 0.0000000000000000000 ) ) ;
#221 = CARTESIAN_POINT ( 'NONE',  ( 0.1181100000000000066, 1.446430334472939084E-17, 2.229093999999999465 ) ) ;
#222 = DIRECTION ( 'NONE',  ( -0.0000000000000000000, -0.0000000000000000000, -1.000000000000000000 ) ) ;
#223 = ADVANCED_BREP_SHAPE_REPRESENTATION ( 'Micro_SFPM-050-40', ( #137, #240 ), #181 ) ;
#224 = ORIENTED_EDGE ( 'NONE', *, *, #3, .T. ) ;
#225 =( CONVERSION_BASED_UNIT ( 'INCH', #282 ) LENGTH_UNIT ( ) NAMED_UNIT ( #122 ) );
#226 = LINE ( 'NONE', #8, #25 ) ;
#227 = ORIENTED_EDGE ( 'NONE', *, *, #14, .T. ) ;
#228 = DIMENSIONAL_EXPONENTS ( 1.000000000000000000, 0.0000000000000000000, 0.0000000000000000000, 0.0000000000000000000, 0.0000000000000000000, 0.0000000000000000000, 0.0000000000000000000 ) ;
#229 = CARTESIAN_POINT ( 'NONE',  ( 0.0000000000000000000, 0.0000000000000000000, 2.244094000000000033 ) ) ;
#230 = DIRECTION ( 'NONE',  ( 1.224646799147353207E-16, 0.0000000000000000000, 1.000000000000000000 ) ) ;
#231 = ORIENTED_EDGE ( 'NONE', *, *, #49, .T. ) ;
#232 = CARTESIAN_POINT ( 'NONE',  ( -0.09832657499999993000, 1.325291793960830375E-17, 0.6299209999999999532 ) ) ;
#233 = ADVANCED_FACE ( 'NONE', ( #92 ), #281, .T. ) ;
#234 = FILL_AREA_STYLE ('',( #142 ) ) ;
#235 = DIRECTION ( 'NONE',  ( -1.000000000000000000, 0.0000000000000000000, 0.0000000000000000000 ) ) ;
#236 = SURFACE_STYLE_FILL_AREA ( #234 ) ;
#237 = ORIENTED_EDGE ( 'NONE', *, *, #32, .T. ) ;
#238 = CARTESIAN_POINT ( 'NONE',  ( 0.0000000000000000000, 0.0000000000000000000, 2.229093999999999465 ) ) ;
#239 = ORIENTED_EDGE ( 'NONE', *, *, #32, .F. ) ;
#240 = AXIS2_PLACEMENT_3D ( 'NONE', #220, #173, #7 ) ;
#241 = PRODUCT_DEFINITION_CONTEXT ( 'detailed design', #203, 'design' ) ;
#242 = LINE ( 'NONE', #51, #278 ) ;
#243 = EDGE_LOOP ( 'NONE', ( #262, #231 ) ) ;
#244 = CARTESIAN_POINT ( 'NONE',  ( -0.09832657499999993000, 1.204153253448721666E-17, 0.6299209999999999532 ) ) ;
#245 = STYLED_ITEM ( 'NONE', ( #251 ), #137 ) ;
#246 = CARTESIAN_POINT ( 'NONE',  ( 7.714307363656999460E-17, 0.0000000000000000000, 0.6299209999999999532 ) ) ;
#247 = CARTESIAN_POINT ( 'NONE',  ( 0.0000000000000000000, 0.0000000000000000000, 2.229093999999999465 ) ) ;
#248 = DIRECTION ( 'NONE',  ( -1.000000000000000000, 0.0000000000000000000, 1.224646799147353207E-16 ) ) ;
#249 = AXIS2_PLACEMENT_3D ( 'NONE', #29, #280, #172 ) ;
#250 = CARTESIAN_POINT ( 'NONE',  ( -0.1031100000000002570, 0.0000000000000000000, 2.244094000000000033 ) ) ;
#251 = PRESENTATION_STYLE_ASSIGNMENT (( #269 ) ) ;
#252 = EDGE_CURVE ( 'NONE', #72, #85, #26, .T. ) ;
#253 = ORIENTED_EDGE ( 'NONE', *, *, #97, .T. ) ;
#254 = CONICAL_SURFACE ( 'NONE', #209, 0.09832657500000001327, 0.1745329251994338360 ) ;
#255 = CARTESIAN_POINT ( 'NONE',  ( 0.09832657500000009654, 0.0000000000000000000, 0.6299209999999999532 ) ) ;
#256 = CARTESIAN_POINT ( 'NONE',  ( 0.0000000000000000000, 0.0000000000000000000, 0.0000000000000000000 ) ) ;
#257 = CARTESIAN_POINT ( 'NONE',  ( 0.09832657499999998552, 1.204153253448721512E-17, -1.895600338963814870E-33 ) ) ;
#258 = LINE ( 'NONE', #150, #94 ) ;
#259 = ORIENTED_EDGE ( 'NONE', *, *, #276, .F. ) ;
#260 = DIRECTION ( 'NONE',  ( 0.0000000000000000000, 0.0000000000000000000, -1.000000000000000000 ) ) ;
#261 = AXIS2_PLACEMENT_3D ( 'NONE', #216, #163, #235 ) ;
#262 = ORIENTED_EDGE ( 'NONE', *, *, #52, .T. ) ;
#263 = DIRECTION ( 'NONE',  ( -1.000000000000000000, 0.0000000000000000000, 0.0000000000000000000 ) ) ;
#264 = FACE_OUTER_BOUND ( 'NONE', #60, .T. ) ;
#265 = AXIS2_PLACEMENT_3D ( 'NONE', #160, #112, #79 ) ;
#266 = DIRECTION ( 'NONE',  ( 1.000000000000000000, 0.0000000000000000000, 0.0000000000000000000 ) ) ;
#267 =( LENGTH_UNIT ( ) NAMED_UNIT ( * ) SI_UNIT ( $, .METRE. ) );
#268 = EDGE_LOOP ( 'NONE', ( #194, #54, #158, #186 ) ) ;
#269 = SURFACE_STYLE_USAGE ( .BOTH. , #35 ) ;
#270 = VECTOR ( 'NONE', #53, 39.37007874015748143 ) ;
#271 = DIRECTION ( 'NONE',  ( 1.000000000000000000, 0.0000000000000000000, 0.0000000000000000000 ) ) ;
#272 = CARTESIAN_POINT ( 'NONE',  ( 7.714307363656999460E-17, 0.0000000000000000000, 0.6299209999999999532 ) ) ;
#273 =( CONVERSION_BASED_UNIT ( 'INCH', #139 ) LENGTH_UNIT ( ) NAMED_UNIT ( #9 ) );
#274 = FACE_OUTER_BOUND ( 'NONE', #174, .T. ) ;
#275 = VERTEX_POINT ( 'NONE', #255 ) ;
#276 = EDGE_CURVE ( 'NONE', #147, #50, #135, .T. ) ;
#277 = ORIENTED_EDGE ( 'NONE', *, *, #252, .F. ) ;
#278 = VECTOR ( 'NONE', #222, 39.37007874015748143 ) ;
#279 = AXIS2_PLACEMENT_3D ( 'NONE', #289, #178, #263 ) ;
#280 = DIRECTION ( 'NONE',  ( 0.0000000000000000000, 0.0000000000000000000, 1.000000000000000000 ) ) ;
#281 = CONICAL_SURFACE ( 'NONE', #261, 0.1031100000000002570, 0.7853981633974318477 ) ;
#282 = LENGTH_MEASURE_WITH_UNIT ( LENGTH_MEASURE( 0.02539999999999999897 ), #125 );
#283 = ORIENTED_EDGE ( 'NONE', *, *, #197, .T. ) ;
#284 = EDGE_CURVE ( 'NONE', #136, #275, #299, .T. ) ;
#285 = PRODUCT_CONTEXT ( 'NONE', #13, 'mechanical' ) ;
#286 = ORIENTED_EDGE ( 'NONE', *, *, #197, .F. ) ;
#287 = ORIENTED_EDGE ( 'NONE', *, *, #252, .T. ) ;
#288 = PRESENTATION_LAYER_ASSIGNMENT (  '', '', ( #120 ) ) ;
#289 = CARTESIAN_POINT ( 'NONE',  ( 0.0000000000000000000, 0.0000000000000000000, 2.244094000000000033 ) ) ;
#290 = DIRECTION ( 'NONE',  ( 0.0000000000000000000, 0.0000000000000000000, 1.000000000000000000 ) ) ;
#291 = DIRECTION ( 'NONE',  ( -1.224646799147353207E-16, -0.0000000000000000000, -1.000000000000000000 ) ) ;
#292 = ORIENTED_EDGE ( 'NONE', *, *, #298, .T. ) ;
#293 = FACE_OUTER_BOUND ( 'NONE', #93, .T. ) ;
#294 = DIRECTION ( 'NONE',  ( -1.224646799147353207E-16, -0.0000000000000000000, -1.000000000000000000 ) ) ;
#295 = AXIS2_PLACEMENT_3D ( 'NONE', #229, #290, #11 ) ;
#296 = DIRECTION ( 'NONE',  ( -1.224646799147353207E-16, -0.0000000000000000000, -1.000000000000000000 ) ) ;
#297 = ORIENTED_EDGE ( 'NONE', *, *, #91, .F. ) ;
#298 = EDGE_CURVE ( 'NONE', #275, #136, #67, .T. ) ;
#299 = CIRCLE ( 'NONE', #210, 0.09832657500000001327 ) ;
ENDSEC;
END-ISO-10303-21;
