ISO-10303-21;
HEADER;
FILE_DESCRIPTION (( 'STEP AP214' ),
    '1' );
FILE_NAME ('Micro_DMM-120-2120.STEP',
    '2021-09-02T16:31:40',
    ( '' ),
    ( '' ),
    'SwSTEP 2.0',
    'SolidWorks 2020',
    '' );
FILE_SCHEMA (( 'AUTOMOTIVE_DESIGN' ));
ENDSEC;

DATA;
#1 = VECTOR ( 'NONE', #190, 39.37007874015748854 ) ;
#2 = DIRECTION ( 'NONE',  ( 1.000000000000000000, 0.0000000000000000000, 0.0000000000000000000 ) ) ;
#3 = CARTESIAN_POINT ( 'NONE',  ( 0.0000000000000000000, 0.0000000000000000000, 1.707404996040164512E-17 ) ) ;
#4 = PRODUCT ( 'Micro_DMM-120-2120', 'Micro_DMM-120-2120', '', ( #154 ) ) ;
#5 = VERTEX_POINT ( 'NONE', #104 ) ;
#6 = ORIENTED_EDGE ( 'NONE', *, *, #281, .T. ) ;
#7 = CONICAL_SURFACE ( 'NONE', #208, 0.007499999999999999722, 1.047197551196600518 ) ;
#8 = AXIS2_PLACEMENT_3D ( 'NONE', #325, #267, #112 ) ;
#9 = LENGTH_MEASURE_WITH_UNIT ( LENGTH_MEASURE( 0.02539999999999999897 ), #83 );
#10 = ORIENTED_EDGE ( 'NONE', *, *, #12, .T. ) ;
#11 = CARTESIAN_POINT ( 'NONE',  ( 0.0000000000000000000, 0.0000000000000000000, 1.181102000000000096 ) ) ;
#12 = EDGE_CURVE ( 'NONE', #21, #71, #97, .T. ) ;
#13 = CARTESIAN_POINT ( 'NONE',  ( 0.0000000000000000000, 0.0000000000000000000, 3.267717000000000649 ) ) ;
#14 = CONICAL_SURFACE ( 'NONE', #323, 0.2212205000000019295, 0.7853981633974482790 ) ;
#15 = DIRECTION ( 'NONE',  ( -0.0000000000000000000, -0.0000000000000000000, -1.000000000000000000 ) ) ;
#16 = CARTESIAN_POINT ( 'NONE',  ( 0.0000000000000000000, 0.0000000000000000000, 1.181102000000000096 ) ) ;
#17 = EDGE_CURVE ( 'NONE', #33, #192, #322, .T. ) ;
#18 = VECTOR ( 'NONE', #15, 39.37007874015748143 ) ;
#19 = CIRCLE ( 'NONE', #305, 0.2362204999999999999 ) ;
#20 = ORIENTED_EDGE ( 'NONE', *, *, #212, .T. ) ;
#21 = VERTEX_POINT ( 'NONE', #282 ) ;
#22 = AXIS2_PLACEMENT_3D ( 'NONE', #198, #103, #194 ) ;
#23 = DIRECTION ( 'NONE',  ( -1.000000000000000000, 0.0000000000000000000, 0.0000000000000000000 ) ) ;
#24 = COLOUR_RGB ( '',0.7921568627450980005, 0.8196078431372548767, 0.9333333333333333481 ) ;
#25 = CARTESIAN_POINT ( 'NONE',  ( 0.0000000000000000000, 0.0000000000000000000, 3.267717000000000649 ) ) ;
#26 = VERTEX_POINT ( 'NONE', #78 ) ;
#27 = CYLINDRICAL_SURFACE ( 'NONE', #37, 0.2361705000000000609 ) ;
#28 = DIRECTION ( 'NONE',  ( -0.0000000000000000000, 0.0000000000000000000, -1.000000000000000000 ) ) ;
#29 = DIRECTION ( 'NONE',  ( -0.0000000000000000000, -0.0000000000000000000, -1.000000000000000000 ) ) ;
#30 = AXIS2_PLACEMENT_3D ( 'NONE', #11, #184, #39 ) ;
#31 = PRESENTATION_LAYER_ASSIGNMENT (  '', '', ( #136 ) ) ;
#32 = FACE_OUTER_BOUND ( 'NONE', #300, .T. ) ;
#33 = VERTEX_POINT ( 'NONE', #148 ) ;
#34 = EDGE_CURVE ( 'NONE', #324, #71, #35, .T. ) ;
#35 = LINE ( 'NONE', #227, #291 ) ;
#36 = SHAPE_DEFINITION_REPRESENTATION ( #151, #102 ) ;
#37 = AXIS2_PLACEMENT_3D ( 'NONE', #174, #209, #107 ) ;
#38 = DIRECTION ( 'NONE',  ( 1.000000000000000000, 0.0000000000000000000, 0.0000000000000000000 ) ) ;
#39 = DIRECTION ( 'NONE',  ( -1.000000000000000000, 0.0000000000000000000, 0.0000000000000000000 ) ) ;
#40 = DIRECTION ( 'NONE',  ( 1.000000000000000000, 0.0000000000000000000, 0.0000000000000000000 ) ) ;
#41 = AXIS2_PLACEMENT_3D ( 'NONE', #173, #224, #2 ) ;
#42 = LINE ( 'NONE', #205, #18 ) ;
#43 = CONICAL_SURFACE ( 'NONE', #8, 0.007499999999999999722, 1.047197551196600518 ) ;
#44 = CARTESIAN_POINT ( 'NONE',  ( 0.2362204999999999999, 2.892866792179872647E-17, 1.181102000000000096 ) ) ;
#45 = SURFACE_STYLE_FILL_AREA ( #247 ) ;
#46 = DIRECTION ( 'NONE',  ( 1.000000000000000000, 0.0000000000000000000, 0.0000000000000000000 ) ) ;
#47 = EDGE_CURVE ( 'NONE', #324, #147, #188, .T. ) ;
#48 = ORIENTED_EDGE ( 'NONE', *, *, #133, .T. ) ;
#49 = DIRECTION ( 'NONE',  ( 1.000000000000000000, 0.0000000000000000000, -0.0000000000000000000 ) ) ;
#50 = CARTESIAN_POINT ( 'NONE',  ( -0.2212205000000019295, 0.0000000000000000000, 3.267717000000000649 ) ) ;
#51 = FACE_OUTER_BOUND ( 'NONE', #161, .T. ) ;
#52 = EDGE_CURVE ( 'NONE', #119, #71, #249, .T. ) ;
#53 = EDGE_LOOP ( 'NONE', ( #250, #304, #278, #248 ) ) ;
#54 =( NAMED_UNIT ( * ) SI_UNIT ( $, .STERADIAN. ) SOLID_ANGLE_UNIT ( ) );
#55 = ORIENTED_EDGE ( 'NONE', *, *, #167, .T. ) ;
#56 = CARTESIAN_POINT ( 'NONE',  ( 0.007499999999999999722, 0.0000000000000000000, 1.707404996040164512E-17 ) ) ;
#57 = CARTESIAN_POINT ( 'NONE',  ( 0.0000000000000000000, 0.0000000000000000000, 3.267717000000000649 ) ) ;
#58 = DIRECTION ( 'NONE',  ( -1.000000000000000000, 0.0000000000000000000, 0.0000000000000000000 ) ) ;
#59 = SURFACE_SIDE_STYLE ('',( #236 ) ) ;
#60 = ORIENTED_EDGE ( 'NONE', *, *, #52, .T. ) ;
#61 = AXIS2_PLACEMENT_3D ( 'NONE', #256, #260, #40 ) ;
#62 =( NAMED_UNIT ( * ) SI_UNIT ( $, .STERADIAN. ) SOLID_ANGLE_UNIT ( ) );
#63 = DIRECTION ( 'NONE',  ( 0.0000000000000000000, 0.0000000000000000000, 1.000000000000000000 ) ) ;
#64 = UNCERTAINTY_MEASURE_WITH_UNIT (LENGTH_MEASURE( 1.000000000000000082E-05 ), #310, 'distance_accuracy_value', 'NONE');
#65 = CARTESIAN_POINT ( 'NONE',  ( -0.2361705000000000609, 0.0000000000000000000, 0.0000000000000000000 ) ) ;
#66 = ADVANCED_FACE ( 'NONE', ( #180, #253 ), #127, .T. ) ;
#67 = CARTESIAN_POINT ( 'NONE',  ( 0.0000000000000000000, 0.0000000000000000000, 3.267717000000000649 ) ) ;
#68 = DIRECTION ( 'NONE',  ( -1.000000000000000000, 0.0000000000000000000, 0.0000000000000000000 ) ) ;
#69 = ORIENTED_EDGE ( 'NONE', *, *, #34, .T. ) ;
#70 = CARTESIAN_POINT ( 'NONE',  ( -0.2362204999999999999, 0.0000000000000000000, 3.252717000000002301 ) ) ;
#71 = VERTEX_POINT ( 'NONE', #75 ) ;
#72 = CONICAL_SURFACE ( 'NONE', #254, 0.2212205000000019295, 0.7853981633974482790 ) ;
#73 = FACE_OUTER_BOUND ( 'NONE', #146, .T. ) ;
#74 = COLOUR_RGB ( '',0.7921568627450980005, 0.8196078431372548767, 0.9333333333333333481 ) ;
#75 = CARTESIAN_POINT ( 'NONE',  ( 0.2361705000000000609, 0.0000000000000000000, 0.1320229747307255508 ) ) ;
#76 = CYLINDRICAL_SURFACE ( 'NONE', #232, 0.2362204999999999999 ) ;
#77 = DIRECTION ( 'NONE',  ( 1.000000000000000000, 0.0000000000000000000, 0.0000000000000000000 ) ) ;
#78 = CARTESIAN_POINT ( 'NONE',  ( -0.2361705000000001164, 0.0000000000000000000, 1.181102000000000096 ) ) ;
#79 = DIRECTION ( 'NONE',  ( -0.0000000000000000000, -0.0000000000000000000, -1.000000000000000000 ) ) ;
#80 = APPLICATION_CONTEXT ( 'automotive_design' ) ;
#81 = PRODUCT_RELATED_PRODUCT_CATEGORY ( 'part', '', ( #4 ) ) ;
#82 = AXIS2_PLACEMENT_3D ( 'NONE', #162, #270, #265 ) ;
#83 =( LENGTH_UNIT ( ) NAMED_UNIT ( * ) SI_UNIT ( $, .METRE. ) );
#84 = FACE_OUTER_BOUND ( 'NONE', #163, .T. ) ;
#85 = CARTESIAN_POINT ( 'NONE',  ( 0.0000000000000000000, 0.0000000000000000000, 0.1320229747307255508 ) ) ;
#86 = FILL_AREA_STYLE_COLOUR ( '', #74 ) ;
#87 = DIRECTION ( 'NONE',  ( 1.000000000000000000, 0.0000000000000000000, 0.0000000000000000000 ) ) ;
#88 = DIRECTION ( 'NONE',  ( -0.8660254037844400399, 1.060575238724908640E-16, 0.4999999999999976685 ) ) ;
#89 = PRESENTATION_STYLE_ASSIGNMENT (( #319 ) ) ;
#90 = VECTOR ( 'NONE', #95, 39.37007874015748854 ) ;
#91 =( NAMED_UNIT ( * ) PLANE_ANGLE_UNIT ( ) SI_UNIT ( $, .RADIAN. ) );
#92 = ORIENTED_EDGE ( 'NONE', *, *, #17, .T. ) ;
#93 = CARTESIAN_POINT ( 'NONE',  ( 0.0000000000000000000, 0.0000000000000000000, 3.252717000000002301 ) ) ;
#94 = ORIENTED_EDGE ( 'NONE', *, *, #231, .T. ) ;
#95 = DIRECTION ( 'NONE',  ( -0.7071067811865474617, 0.0000000000000000000, -0.7071067811865474617 ) ) ;
#96 = ORIENTED_EDGE ( 'NONE', *, *, #17, .F. ) ;
#97 = CIRCLE ( 'NONE', #283, 0.2361705000000000332 ) ;
#98 = DIRECTION ( 'NONE',  ( 0.0000000000000000000, 0.0000000000000000000, 1.000000000000000000 ) ) ;
#99 = DIRECTION ( 'NONE',  ( -0.0000000000000000000, -0.0000000000000000000, -1.000000000000000000 ) ) ;
#100 = EDGE_CURVE ( 'NONE', #326, #5, #121, .T. ) ;
#101 = ORIENTED_EDGE ( 'NONE', *, *, #228, .F. ) ;
#102 = ADVANCED_BREP_SHAPE_REPRESENTATION ( 'Micro_DMM-120-2120', ( #235, #289 ), #275 ) ;
#103 = DIRECTION ( 'NONE',  ( -0.0000000000000000000, -0.0000000000000000000, -1.000000000000000000 ) ) ;
#104 = CARTESIAN_POINT ( 'NONE',  ( 0.2212205000000019295, 2.801018282243833685E-17, 3.267717000000000649 ) ) ;
#105 = EDGE_CURVE ( 'NONE', #5, #326, #142, .T. ) ;
#106 = PLANE ( 'NONE',  #108 ) ;
#107 = DIRECTION ( 'NONE',  ( -1.000000000000000000, 0.0000000000000000000, 0.0000000000000000000 ) ) ;
#108 = AXIS2_PLACEMENT_3D ( 'NONE', #257, #63, #132 ) ;
#109 = VECTOR ( 'NONE', #29, 39.37007874015748143 ) ;
#110 = ORIENTED_EDGE ( 'NONE', *, *, #181, .T. ) ;
#111 =( LENGTH_UNIT ( ) NAMED_UNIT ( * ) SI_UNIT ( $, .METRE. ) );
#112 = DIRECTION ( 'NONE',  ( 1.000000000000000000, 0.0000000000000000000, 0.0000000000000000000 ) ) ;
#113 =( GEOMETRIC_REPRESENTATION_CONTEXT ( 3 ) GLOBAL_UNCERTAINTY_ASSIGNED_CONTEXT ( ( #243 ) ) GLOBAL_UNIT_ASSIGNED_CONTEXT ( ( #160, #91, #62 ) ) REPRESENTATION_CONTEXT ( 'NONE', 'WORKASPACE' ) );
#114 =( LENGTH_UNIT ( ) NAMED_UNIT ( * ) SI_UNIT ( $, .METRE. ) );
#115 = ADVANCED_FACE ( 'NONE', ( #32 ), #7, .T. ) ;
#116 = DIRECTION ( 'NONE',  ( -0.0000000000000000000, -0.0000000000000000000, -1.000000000000000000 ) ) ;
#117 = EDGE_LOOP ( 'NONE', ( #264, #309 ) ) ;
#118 = DIRECTION ( 'NONE',  ( -0.0000000000000000000, -0.0000000000000000000, -1.000000000000000000 ) ) ;
#119 = VERTEX_POINT ( 'NONE', #182 ) ;
#120 = CARTESIAN_POINT ( 'NONE',  ( -0.007499999999999999722, 9.184850993605147975E-19, 1.707404996040164512E-17 ) ) ;
#121 = CIRCLE ( 'NONE', #41, 0.2212205000000019295 ) ;
#122 = AXIS2_PLACEMENT_3D ( 'NONE', #25, #168, #49 ) ;
#123 = EDGE_LOOP ( 'NONE', ( #222, #242 ) ) ;
#124 = ORIENTED_EDGE ( 'NONE', *, *, #159, .F. ) ;
#125 = CARTESIAN_POINT ( 'NONE',  ( 0.2361705000000000609, 2.892254468780301005E-17, 0.0000000000000000000 ) ) ;
#126 =( GEOMETRIC_REPRESENTATION_CONTEXT ( 3 ) GLOBAL_UNCERTAINTY_ASSIGNED_CONTEXT ( ( #64 ) ) GLOBAL_UNIT_ASSIGNED_CONTEXT ( ( #310, #285, #149 ) ) REPRESENTATION_CONTEXT ( 'NONE', 'WORKASPACE' ) );
#127 = PLANE ( 'NONE',  #258 ) ;
#128 = PRESENTATION_STYLE_ASSIGNMENT (( #314 ) ) ;
#129 = ADVANCED_FACE ( 'NONE', ( #155 ), #106, .F. ) ;
#130 = APPLICATION_PROTOCOL_DEFINITION ( 'draft international standard', 'automotive_design', 1998, #80 ) ;
#131 = CIRCLE ( 'NONE', #158, 0.2361705000000001164 ) ;
#132 = DIRECTION ( 'NONE',  ( 1.000000000000000000, 0.0000000000000000000, -0.0000000000000000000 ) ) ;
#133 = EDGE_CURVE ( 'NONE', #192, #33, #134, .T. ) ;
#134 = CIRCLE ( 'NONE', #30, 0.2362204999999999999 ) ;
#135 = DIRECTION ( 'NONE',  ( 0.0000000000000000000, 0.0000000000000000000, -1.000000000000000000 ) ) ;
#136 = STYLED_ITEM ( 'NONE', ( #89 ), #235 ) ;
#137 = MECHANICAL_DESIGN_GEOMETRIC_PRESENTATION_REPRESENTATION (  '', ( #136 ), #113 ) ;
#138 = DIRECTION ( 'NONE',  ( -1.000000000000000000, 0.0000000000000000000, 0.0000000000000000000 ) ) ;
#139 = ADVANCED_FACE ( 'NONE', ( #290 ), #72, .T. ) ;
#140 = CARTESIAN_POINT ( 'NONE',  ( 0.0000000000000000000, 0.0000000000000000000, 3.267717000000000649 ) ) ;
#141 = ORIENTED_EDGE ( 'NONE', *, *, #34, .F. ) ;
#142 = CIRCLE ( 'NONE', #214, 0.2212205000000019295 ) ;
#143 = FACE_OUTER_BOUND ( 'NONE', #177, .T. ) ;
#144 = APPLICATION_CONTEXT ( 'automotive_design' ) ;
#145 = CARTESIAN_POINT ( 'NONE',  ( 0.0000000000000000000, 0.0000000000000000000, 1.181102000000000096 ) ) ;
#146 = EDGE_LOOP ( 'NONE', ( #297, #266 ) ) ;
#147 = VERTEX_POINT ( 'NONE', #206 ) ;
#148 = CARTESIAN_POINT ( 'NONE',  ( -0.2362204999999999999, 0.0000000000000000000, 1.181102000000000096 ) ) ;
#149 =( NAMED_UNIT ( * ) SI_UNIT ( $, .STERADIAN. ) SOLID_ANGLE_UNIT ( ) );
#150 = ORIENTED_EDGE ( 'NONE', *, *, #231, .F. ) ;
#151 = PRODUCT_DEFINITION_SHAPE ( 'NONE', 'NONE',  #193 ) ;
#152 = ORIENTED_EDGE ( 'NONE', *, *, #281, .F. ) ;
#153 = AXIS2_PLACEMENT_3D ( 'NONE', #16, #293, #240 ) ;
#154 = PRODUCT_CONTEXT ( 'NONE', #144, 'mechanical' ) ;
#155 = FACE_OUTER_BOUND ( 'NONE', #123, .T. ) ;
#156 = EDGE_CURVE ( 'NONE', #119, #26, #185, .T. ) ;
#157 = DIRECTION ( 'NONE',  ( -1.000000000000000000, 0.0000000000000000000, 0.0000000000000000000 ) ) ;
#158 = AXIS2_PLACEMENT_3D ( 'NONE', #145, #218, #138 ) ;
#159 = EDGE_CURVE ( 'NONE', #229, #33, #42, .T. ) ;
#160 =( CONVERSION_BASED_UNIT ( 'INCH', #328 ) LENGTH_UNIT ( ) NAMED_UNIT ( #207 ) );
#161 = EDGE_LOOP ( 'NONE', ( #211, #55, #189, #268 ) ) ;
#162 = CARTESIAN_POINT ( 'NONE',  ( 0.0000000000000000000, 0.0000000000000000000, 1.707404996040164512E-17 ) ) ;
#163 = EDGE_LOOP ( 'NONE', ( #187, #245, #20, #295 ) ) ;
#164 = VECTOR ( 'NONE', #210, 39.37007874015748143 ) ;
#165 = SURFACE_SIDE_STYLE ('',( #45 ) ) ;
#166 = ORIENTED_EDGE ( 'NONE', *, *, #212, .F. ) ;
#167 = EDGE_CURVE ( 'NONE', #179, #229, #195, .T. ) ;
#168 = DIRECTION ( 'NONE',  ( 0.0000000000000000000, 0.0000000000000000000, 1.000000000000000000 ) ) ;
#169 = EDGE_LOOP ( 'NONE', ( #94, #311, #96, #124 ) ) ;
#170 = PRODUCT_DEFINITION_CONTEXT ( 'detailed design', #80, 'design' ) ;
#171 = PRODUCT_DEFINITION_FORMATION_WITH_SPECIFIED_SOURCE ( 'ANY', '', #4, .NOT_KNOWN. ) ;
#172 = LINE ( 'NONE', #301, #109 ) ;
#173 = CARTESIAN_POINT ( 'NONE',  ( 0.0000000000000000000, 0.0000000000000000000, 3.267717000000000649 ) ) ;
#174 = CARTESIAN_POINT ( 'NONE',  ( 0.0000000000000000000, 0.0000000000000000000, 0.0000000000000000000 ) ) ;
#175 = DIRECTION ( 'NONE',  ( -0.0000000000000000000, -0.0000000000000000000, -1.000000000000000000 ) ) ;
#176 = DIRECTION ( 'NONE',  ( 0.0000000000000000000, 0.0000000000000000000, 1.000000000000000000 ) ) ;
#177 = EDGE_LOOP ( 'NONE', ( #313, #60, #274, #166 ) ) ;
#178 = AXIS2_PLACEMENT_3D ( 'NONE', #203, #201, #287 ) ;
#179 = VERTEX_POINT ( 'NONE', #316 ) ;
#180 = FACE_BOUND ( 'NONE', #117, .T. ) ;
#181 = EDGE_CURVE ( 'NONE', #71, #21, #259, .T. ) ;
#182 = CARTESIAN_POINT ( 'NONE',  ( 0.2361705000000001164, 2.892254468780301621E-17, 1.181102000000000096 ) ) ;
#183 = DIRECTION ( 'NONE',  ( -0.0000000000000000000, -0.0000000000000000000, -1.000000000000000000 ) ) ;
#184 = DIRECTION ( 'NONE',  ( -0.0000000000000000000, -0.0000000000000000000, -1.000000000000000000 ) ) ;
#185 = CIRCLE ( 'NONE', #153, 0.2361705000000001164 ) ;
#186 = AXIS2_PLACEMENT_3D ( 'NONE', #238, #118, #226 ) ;
#187 = ORIENTED_EDGE ( 'NONE', *, *, #52, .F. ) ;
#188 = CIRCLE ( 'NONE', #178, 0.007499999999999999722 ) ;
#189 = ORIENTED_EDGE ( 'NONE', *, *, #159, .T. ) ;
#190 = DIRECTION ( 'NONE',  ( 0.7071067811865474617, 8.659560562354932858E-17, -0.7071067811865474617 ) ) ;
#191 = ORIENTED_EDGE ( 'NONE', *, *, #105, .F. ) ;
#192 = VERTEX_POINT ( 'NONE', #44 ) ;
#193 = PRODUCT_DEFINITION ( 'UNKNOWN', '', #171, #170 ) ;
#194 = DIRECTION ( 'NONE',  ( -1.000000000000000000, 0.0000000000000000000, 0.0000000000000000000 ) ) ;
#195 = CIRCLE ( 'NONE', #61, 0.2362204999999999999 ) ;
#196 = STYLED_ITEM ( 'NONE', ( #128 ), #102 ) ;
#197 = LENGTH_MEASURE_WITH_UNIT ( LENGTH_MEASURE( 0.02539999999999999897 ), #114 );
#198 = CARTESIAN_POINT ( 'NONE',  ( 0.0000000000000000000, 0.0000000000000000000, 1.181102000000000096 ) ) ;
#199 = CARTESIAN_POINT ( 'NONE',  ( 0.0000000000000000000, 0.0000000000000000000, 0.0000000000000000000 ) ) ;
#200 = DIRECTION ( 'NONE',  ( 0.0000000000000000000, 0.0000000000000000000, 1.000000000000000000 ) ) ;
#201 = DIRECTION ( 'NONE',  ( -0.0000000000000000000, -0.0000000000000000000, -1.000000000000000000 ) ) ;
#202 = ADVANCED_FACE ( 'NONE', ( #317 ), #262, .T. ) ;
#203 = CARTESIAN_POINT ( 'NONE',  ( 0.0000000000000000000, 0.0000000000000000000, 1.707404996040164512E-17 ) ) ;
#204 = EDGE_CURVE ( 'NONE', #147, #324, #292, .T. ) ;
#205 = CARTESIAN_POINT ( 'NONE',  ( -0.2362204999999999999, 0.0000000000000000000, 3.267717000000000649 ) ) ;
#206 = CARTESIAN_POINT ( 'NONE',  ( -0.007499999999999999722, 1.492051489358175838E-17, 1.707404996040164512E-17 ) ) ;
#207 = DIMENSIONAL_EXPONENTS ( 1.000000000000000000, 0.0000000000000000000, 0.0000000000000000000, 0.0000000000000000000, 0.0000000000000000000, 0.0000000000000000000, 0.0000000000000000000 ) ;
#208 = AXIS2_PLACEMENT_3D ( 'NONE', #3, #200, #87 ) ;
#209 = DIRECTION ( 'NONE',  ( -0.0000000000000000000, -0.0000000000000000000, -1.000000000000000000 ) ) ;
#210 = DIRECTION ( 'NONE',  ( -0.0000000000000000000, -0.0000000000000000000, -1.000000000000000000 ) ) ;
#211 = ORIENTED_EDGE ( 'NONE', *, *, #315, .F. ) ;
#212 = EDGE_CURVE ( 'NONE', #26, #21, #215, .T. ) ;
#213 = FACE_OUTER_BOUND ( 'NONE', #320, .T. ) ;
#214 = AXIS2_PLACEMENT_3D ( 'NONE', #57, #98, #77 ) ;
#215 = LINE ( 'NONE', #65, #164 ) ;
#216 = EDGE_LOOP ( 'NONE', ( #92, #48 ) ) ;
#217 = AXIS2_PLACEMENT_3D ( 'NONE', #85, #183, #225 ) ;
#218 = DIRECTION ( 'NONE',  ( -0.0000000000000000000, -0.0000000000000000000, -1.000000000000000000 ) ) ;
#219 = ORIENTED_EDGE ( 'NONE', *, *, #47, .F. ) ;
#220 = ADVANCED_FACE ( 'NONE', ( #213 ), #43, .T. ) ;
#221 = CARTESIAN_POINT ( 'NONE',  ( -0.2212205000000019295, 0.0000000000000000000, 3.267717000000000649 ) ) ;
#222 = ORIENTED_EDGE ( 'NONE', *, *, #47, .T. ) ;
#223 = DIRECTION ( 'NONE',  ( 0.0000000000000000000, 0.0000000000000000000, -1.000000000000000000 ) ) ;
#224 = DIRECTION ( 'NONE',  ( 0.0000000000000000000, 0.0000000000000000000, 1.000000000000000000 ) ) ;
#225 = DIRECTION ( 'NONE',  ( -1.000000000000000000, 0.0000000000000000000, 0.0000000000000000000 ) ) ;
#226 = DIRECTION ( 'NONE',  ( -1.000000000000000000, 0.0000000000000000000, 0.0000000000000000000 ) ) ;
#227 = CARTESIAN_POINT ( 'NONE',  ( 0.007499999999999999722, 0.0000000000000000000, 1.707404996040164512E-17 ) ) ;
#228 = EDGE_CURVE ( 'NONE', #326, #229, #302, .T. ) ;
#229 = VERTEX_POINT ( 'NONE', #70 ) ;
#230 = DIRECTION ( 'NONE',  ( 0.8660254037844400399, 0.0000000000000000000, 0.4999999999999976685 ) ) ;
#231 = EDGE_CURVE ( 'NONE', #229, #179, #19, .T. ) ;
#232 = AXIS2_PLACEMENT_3D ( 'NONE', #298, #99, #303 ) ;
#233 = DIRECTION ( 'NONE',  ( -1.000000000000000000, 0.0000000000000000000, 0.0000000000000000000 ) ) ;
#234 = EDGE_CURVE ( 'NONE', #26, #119, #131, .T. ) ;
#235 = MANIFOLD_SOLID_BREP ( 'Cut-Revolve4', #237 ) ;
#236 = SURFACE_STYLE_FILL_AREA ( #296 ) ;
#237 = CLOSED_SHELL ( 'NONE', ( #271, #115, #318, #202, #252, #307, #139, #66, #220, #239, #129 ) ) ;
#238 = CARTESIAN_POINT ( 'NONE',  ( 0.0000000000000000000, 0.0000000000000000000, 0.0000000000000000000 ) ) ;
#239 = ADVANCED_FACE ( 'NONE', ( #84 ), #299, .T. ) ;
#240 = DIRECTION ( 'NONE',  ( -1.000000000000000000, 0.0000000000000000000, 0.0000000000000000000 ) ) ;
#241 = FILL_AREA_STYLE_COLOUR ( '', #24 ) ;
#242 = ORIENTED_EDGE ( 'NONE', *, *, #204, .T. ) ;
#243 = UNCERTAINTY_MEASURE_WITH_UNIT (LENGTH_MEASURE( 1.000000000000000082E-05 ), #160, 'distance_accuracy_value', 'NONE');
#244 = FACE_OUTER_BOUND ( 'NONE', #321, .T. ) ;
#245 = ORIENTED_EDGE ( 'NONE', *, *, #156, .T. ) ;
#246 = AXIS2_PLACEMENT_3D ( 'NONE', #67, #116, #68 ) ;
#247 = FILL_AREA_STYLE ('',( #241 ) ) ;
#248 = ORIENTED_EDGE ( 'NONE', *, *, #167, .F. ) ;
#249 = LINE ( 'NONE', #125, #273 ) ;
#250 = ORIENTED_EDGE ( 'NONE', *, *, #286, .F. ) ;
#251 = ORIENTED_EDGE ( 'NONE', *, *, #204, .F. ) ;
#252 = ADVANCED_FACE ( 'NONE', ( #51 ), #76, .T. ) ;
#253 = FACE_OUTER_BOUND ( 'NONE', #216, .T. ) ;
#254 = AXIS2_PLACEMENT_3D ( 'NONE', #13, #261, #157 ) ;
#255 = PRESENTATION_LAYER_ASSIGNMENT (  '', '', ( #196 ) ) ;
#256 = CARTESIAN_POINT ( 'NONE',  ( 0.0000000000000000000, 0.0000000000000000000, 3.252717000000002301 ) ) ;
#257 = CARTESIAN_POINT ( 'NONE',  ( 0.0000000000000000000, 0.0000000000000000000, 0.0000000000000000000 ) ) ;
#258 = AXIS2_PLACEMENT_3D ( 'NONE', #280, #28, #233 ) ;
#259 = CIRCLE ( 'NONE', #217, 0.2361705000000000332 ) ;
#260 = DIRECTION ( 'NONE',  ( 0.0000000000000000000, 0.0000000000000000000, -1.000000000000000000 ) ) ;
#261 = DIRECTION ( 'NONE',  ( 0.0000000000000000000, 0.0000000000000000000, -1.000000000000000000 ) ) ;
#262 = CYLINDRICAL_SURFACE ( 'NONE', #246, 0.2362204999999999999 ) ;
#263 = UNCERTAINTY_MEASURE_WITH_UNIT (LENGTH_MEASURE( 1.000000000000000082E-05 ), #279, 'distance_accuracy_value', 'NONE');
#264 = ORIENTED_EDGE ( 'NONE', *, *, #234, .F. ) ;
#265 = DIRECTION ( 'NONE',  ( -1.000000000000000000, 0.0000000000000000000, 0.0000000000000000000 ) ) ;
#266 = ORIENTED_EDGE ( 'NONE', *, *, #105, .T. ) ;
#267 = DIRECTION ( 'NONE',  ( 0.0000000000000000000, 0.0000000000000000000, 1.000000000000000000 ) ) ;
#268 = ORIENTED_EDGE ( 'NONE', *, *, #133, .F. ) ;
#269 = LINE ( 'NONE', #272, #1 ) ;
#270 = DIRECTION ( 'NONE',  ( -0.0000000000000000000, -0.0000000000000000000, -1.000000000000000000 ) ) ;
#271 = ADVANCED_FACE ( 'NONE', ( #143 ), #27, .T. ) ;
#272 = CARTESIAN_POINT ( 'NONE',  ( 0.2212205000000019295, 2.709169772307794108E-17, 3.267717000000000649 ) ) ;
#273 = VECTOR ( 'NONE', #79, 39.37007874015748143 ) ;
#274 = ORIENTED_EDGE ( 'NONE', *, *, #12, .F. ) ;
#275 =( GEOMETRIC_REPRESENTATION_CONTEXT ( 3 ) GLOBAL_UNCERTAINTY_ASSIGNED_CONTEXT ( ( #263 ) ) GLOBAL_UNIT_ASSIGNED_CONTEXT ( ( #279, #277, #54 ) ) REPRESENTATION_CONTEXT ( 'NONE', 'WORKASPACE' ) );
#276 = DIMENSIONAL_EXPONENTS ( 1.000000000000000000, 0.0000000000000000000, 0.0000000000000000000, 0.0000000000000000000, 0.0000000000000000000, 0.0000000000000000000, 0.0000000000000000000 ) ;
#277 =( NAMED_UNIT ( * ) PLANE_ANGLE_UNIT ( ) SI_UNIT ( $, .RADIAN. ) );
#278 = ORIENTED_EDGE ( 'NONE', *, *, #228, .T. ) ;
#279 =( CONVERSION_BASED_UNIT ( 'INCH', #197 ) LENGTH_UNIT ( ) NAMED_UNIT ( #294 ) );
#280 = CARTESIAN_POINT ( 'NONE',  ( 0.2361705000000001164, 0.0000000000000000000, 1.181102000000000096 ) ) ;
#281 = EDGE_CURVE ( 'NONE', #147, #21, #327, .T. ) ;
#282 = CARTESIAN_POINT ( 'NONE',  ( -0.2361705000000000609, 2.892254468780301005E-17, 0.1320229747307255508 ) ) ;
#283 = AXIS2_PLACEMENT_3D ( 'NONE', #308, #175, #58 ) ;
#284 = VECTOR ( 'NONE', #88, 39.37007874015748143 ) ;
#285 =( NAMED_UNIT ( * ) PLANE_ANGLE_UNIT ( ) SI_UNIT ( $, .RADIAN. ) );
#286 = EDGE_CURVE ( 'NONE', #5, #179, #269, .T. ) ;
#287 = DIRECTION ( 'NONE',  ( -1.000000000000000000, 0.0000000000000000000, 0.0000000000000000000 ) ) ;
#288 = APPLICATION_PROTOCOL_DEFINITION ( 'draft international standard', 'automotive_design', 1998, #144 ) ;
#289 = AXIS2_PLACEMENT_3D ( 'NONE', #199, #176, #38 ) ;
#290 = FACE_OUTER_BOUND ( 'NONE', #53, .T. ) ;
#291 = VECTOR ( 'NONE', #230, 39.37007874015748143 ) ;
#292 = CIRCLE ( 'NONE', #82, 0.007499999999999999722 ) ;
#293 = DIRECTION ( 'NONE',  ( -0.0000000000000000000, -0.0000000000000000000, -1.000000000000000000 ) ) ;
#294 = DIMENSIONAL_EXPONENTS ( 1.000000000000000000, 0.0000000000000000000, 0.0000000000000000000, 0.0000000000000000000, 0.0000000000000000000, 0.0000000000000000000, 0.0000000000000000000 ) ;
#295 = ORIENTED_EDGE ( 'NONE', *, *, #181, .F. ) ;
#296 = FILL_AREA_STYLE ('',( #86 ) ) ;
#297 = ORIENTED_EDGE ( 'NONE', *, *, #100, .T. ) ;
#298 = CARTESIAN_POINT ( 'NONE',  ( 0.0000000000000000000, 0.0000000000000000000, 3.267717000000000649 ) ) ;
#299 = CYLINDRICAL_SURFACE ( 'NONE', #186, 0.2361705000000000609 ) ;
#300 = EDGE_LOOP ( 'NONE', ( #251, #6, #10, #141 ) ) ;
#301 = CARTESIAN_POINT ( 'NONE',  ( 0.2362204999999999999, 2.892866792179872647E-17, 3.267717000000000649 ) ) ;
#302 = LINE ( 'NONE', #50, #90 ) ;
#303 = DIRECTION ( 'NONE',  ( -1.000000000000000000, 0.0000000000000000000, 0.0000000000000000000 ) ) ;
#304 = ORIENTED_EDGE ( 'NONE', *, *, #100, .F. ) ;
#305 = AXIS2_PLACEMENT_3D ( 'NONE', #93, #135, #46 ) ;
#306 = PLANE ( 'NONE',  #122 ) ;
#307 = ADVANCED_FACE ( 'NONE', ( #73 ), #306, .T. ) ;
#308 = CARTESIAN_POINT ( 'NONE',  ( 0.0000000000000000000, 0.0000000000000000000, 0.1320229747307255508 ) ) ;
#309 = ORIENTED_EDGE ( 'NONE', *, *, #156, .F. ) ;
#310 =( CONVERSION_BASED_UNIT ( 'INCH', #9 ) LENGTH_UNIT ( ) NAMED_UNIT ( #276 ) );
#311 = ORIENTED_EDGE ( 'NONE', *, *, #315, .T. ) ;
#312 = MECHANICAL_DESIGN_GEOMETRIC_PRESENTATION_REPRESENTATION (  '', ( #196 ), #126 ) ;
#313 = ORIENTED_EDGE ( 'NONE', *, *, #234, .T. ) ;
#314 = SURFACE_STYLE_USAGE ( .BOTH. , #59 ) ;
#315 = EDGE_CURVE ( 'NONE', #179, #192, #172, .T. ) ;
#316 = CARTESIAN_POINT ( 'NONE',  ( 0.2362204999999999999, 2.892866792179872647E-17, 3.252717000000002301 ) ) ;
#317 = FACE_OUTER_BOUND ( 'NONE', #169, .T. ) ;
#318 = ADVANCED_FACE ( 'NONE', ( #244 ), #14, .T. ) ;
#319 = SURFACE_STYLE_USAGE ( .BOTH. , #165 ) ;
#320 = EDGE_LOOP ( 'NONE', ( #152, #219, #69, #110 ) ) ;
#321 = EDGE_LOOP ( 'NONE', ( #191, #329, #150, #101 ) ) ;
#322 = CIRCLE ( 'NONE', #22, 0.2362204999999999999 ) ;
#323 = AXIS2_PLACEMENT_3D ( 'NONE', #140, #223, #23 ) ;
#324 = VERTEX_POINT ( 'NONE', #56 ) ;
#325 = CARTESIAN_POINT ( 'NONE',  ( 0.0000000000000000000, 0.0000000000000000000, 1.707404996040164512E-17 ) ) ;
#326 = VERTEX_POINT ( 'NONE', #221 ) ;
#327 = LINE ( 'NONE', #120, #284 ) ;
#328 = LENGTH_MEASURE_WITH_UNIT ( LENGTH_MEASURE( 0.02539999999999999897 ), #111 );
#329 = ORIENTED_EDGE ( 'NONE', *, *, #286, .T. ) ;
ENDSEC;
END-ISO-10303-21;
