ISO-10303-21;
HEADER;
FILE_DESCRIPTION (( 'STEP AP214' ),
    '1' );
FILE_NAME ('81311.STEP',
    '2023-06-23T00:21:02',
    ( '' ),
    ( '' ),
    'SwSTEP 2.0',
    'SolidWorks 2023',
    '' );
FILE_SCHEMA (( 'AUTOMOTIVE_DESIGN' ));
ENDSEC;

DATA;
#1 = ORIENTED_EDGE ( 'NONE', *, *, #181, .F. ) ;
#2 = DIMENSIONAL_EXPONENTS ( 1.000000000000000000, 0.000000000000000000, 0.000000000000000000, 0.000000000000000000, 0.000000000000000000, 0.000000000000000000, 0.000000000000000000 ) ;
#3 = DIRECTION ( 'NONE',  ( 0.000000000000000000, -0.000000000000000000, 1.000000000000000000 ) ) ;
#4 = ORIENTED_EDGE ( 'NONE', *, *, #241, .F. ) ;
#5 = MECHANICAL_DESIGN_GEOMETRIC_PRESENTATION_REPRESENTATION (  '', ( #200 ), #130 ) ;
#6 = ORIENTED_EDGE ( 'NONE', *, *, #133, .F. ) ;
#7 = FILL_AREA_STYLE ('',( #18 ) ) ;
#8 = CARTESIAN_POINT ( 'NONE',  ( 0.09374999999999998612, 2.500000000000000000, 0.000000000000000000 ) ) ;
#9 = DIMENSIONAL_EXPONENTS ( 1.000000000000000000, 0.000000000000000000, 0.000000000000000000, 0.000000000000000000, 0.000000000000000000, 0.000000000000000000, 0.000000000000000000 ) ;
#10 = STYLED_ITEM ( 'NONE', ( #219 ), #180 ) ;
#11 = ORIENTED_EDGE ( 'NONE', *, *, #149, .F. ) ;
#12 =( NAMED_UNIT ( * ) SI_UNIT ( $, .STERADIAN. ) SOLID_ANGLE_UNIT ( ) );
#13 =( NAMED_UNIT ( * ) SI_UNIT ( $, .STERADIAN. ) SOLID_ANGLE_UNIT ( ) );
#14 = ORIENTED_EDGE ( 'NONE', *, *, #34, .F. ) ;
#15 = FILL_AREA_STYLE_COLOUR ( '', #93 ) ;
#16 = AXIS2_PLACEMENT_3D ( 'NONE', #44, #22, #3 ) ;
#17 = APPLICATION_CONTEXT ( 'automotive_design' ) ;
#18 = FILL_AREA_STYLE_COLOUR ( '', #243 ) ;
#19 = VECTOR ( 'NONE', #198, 39.37007874015748143 ) ;
#20 = DIMENSIONAL_EXPONENTS ( 1.000000000000000000, 0.000000000000000000, 0.000000000000000000, 0.000000000000000000, 0.000000000000000000, 0.000000000000000000, 0.000000000000000000 ) ;
#21 = DIRECTION ( 'NONE',  ( -1.000000000000000000, 0.000000000000000000, 0.000000000000000000 ) ) ;
#22 = DIRECTION ( 'NONE',  ( 0.000000000000000000, 1.000000000000000000, 0.000000000000000000 ) ) ;
#23 = CLOSED_SHELL ( 'NONE', ( #180, #45, #246, #295 ) ) ;
#24 =( CONVERSION_BASED_UNIT ( 'INCH', #204 ) LENGTH_UNIT ( ) NAMED_UNIT ( #9 ) );
#25 = AXIS2_PLACEMENT_3D ( 'NONE', #67, #186, #169 ) ;
#26 = CARTESIAN_POINT ( 'NONE',  ( 1.148106374200643401E-17, 0.000000000000000000, 0.09374999999999998612 ) ) ;
#27 = DIRECTION ( 'NONE',  ( 1.224646799147353207E-16, 1.000000000000000000, -0.000000000000000000 ) ) ;
#28 = DIRECTION ( 'NONE',  ( -0.000000000000000000, -1.000000000000000000, -0.000000000000000000 ) ) ;
#29 = VERTEX_POINT ( 'NONE', #302 ) ;
#30 = COLOUR_RGB ( '',1.000000000000000000, 0.000000000000000000, 0.000000000000000000 ) ;
#31 = CIRCLE ( 'NONE', #43, 0.09374999999999998612 ) ;
#32 = MANIFOLD_SOLID_BREP ( 'Revolve - Tool Body (Straight Shanked)', #257 ) ;
#33 = VERTEX_POINT ( 'NONE', #56 ) ;
#34 = EDGE_CURVE ( 'NONE', #49, #245, #37, .T. ) ;
#35 = MANIFOLD_SOLID_BREP ( 'Revolve - Cutting Edge', #23 ) ;
#36 = MECHANICAL_DESIGN_GEOMETRIC_PRESENTATION_REPRESENTATION (  '', ( #74 ), #293 ) ;
#37 = LINE ( 'NONE', #259, #19 ) ;
#38 = SURFACE_STYLE_USAGE ( .BOTH. , #61 ) ;
#39 = PRESENTATION_LAYER_ASSIGNMENT (  '', '', ( #10 ) ) ;
#40 = FILL_AREA_STYLE ('',( #81 ) ) ;
#41 =( CONVERSION_BASED_UNIT ( 'INCH', #182 ) LENGTH_UNIT ( ) NAMED_UNIT ( #20 ) );
#42 = UNCERTAINTY_MEASURE_WITH_UNIT (LENGTH_MEASURE( 1.000000000000000082E-05 ), #224, 'distance_accuracy_value', 'NONE');
#43 = AXIS2_PLACEMENT_3D ( 'NONE', #187, #103, #21 ) ;
#44 = CARTESIAN_POINT ( 'NONE',  ( 0.000000000000000000, 1.000000000000000000, 0.000000000000000000 ) ) ;
#45 = ADVANCED_FACE ( 'NONE', ( #202 ), #305, .T. ) ;
#46 = CYLINDRICAL_SURFACE ( 'NONE', #150, 0.09374999999999988898 ) ;
#47 = CARTESIAN_POINT ( 'NONE',  ( 0.000000000000000000, 0.000000000000000000, 0.000000000000000000 ) ) ;
#48 = EDGE_LOOP ( 'NONE', ( #6, #120 ) ) ;
#49 = VERTEX_POINT ( 'NONE', #184 ) ;
#50 = UNCERTAINTY_MEASURE_WITH_UNIT (LENGTH_MEASURE( 1.000000000000000082E-05 ), #106, 'distance_accuracy_value', 'NONE');
#51 = DIRECTION ( 'NONE',  ( -1.000000000000000000, 0.000000000000000000, 0.000000000000000000 ) ) ;
#52 =( CONVERSION_BASED_UNIT ( 'INCH', #177 ) LENGTH_UNIT ( ) NAMED_UNIT ( #271 ) );
#53 = PRESENTATION_STYLE_ASSIGNMENT (( #283 ) ) ;
#54 = CYLINDRICAL_SURFACE ( 'NONE', #211, 0.09374999999999998612 ) ;
#55 =( NAMED_UNIT ( * ) PLANE_ANGLE_UNIT ( ) SI_UNIT ( $, .RADIAN. ) );
#56 = CARTESIAN_POINT ( 'NONE',  ( 0.000000000000000000, 0.000000000000000000, -0.09374999999999998612 ) ) ;
#57 = AXIS2_PLACEMENT_3D ( 'NONE', #127, #147, #51 ) ;
#58 = SURFACE_STYLE_FILL_AREA ( #252 ) ;
#59 =( GEOMETRIC_REPRESENTATION_CONTEXT ( 3 ) GLOBAL_UNCERTAINTY_ASSIGNED_CONTEXT ( ( #248 ) ) GLOBAL_UNIT_ASSIGNED_CONTEXT ( ( #139, #132, #284 ) ) REPRESENTATION_CONTEXT ( 'NONE', 'WORKASPACE' ) );
#60 = SURFACE_STYLE_USAGE ( .BOTH. , #294 ) ;
#61 = SURFACE_SIDE_STYLE ('',( #58 ) ) ;
#62 = PLANE ( 'NONE',  #275 ) ;
#63 = APPLICATION_CONTEXT ( 'automotive_design' ) ;
#64 = CARTESIAN_POINT ( 'NONE',  ( 0.09375000000000006939, 2.500000000000000000, 1.148106374200642322E-17 ) ) ;
#65 = STYLED_ITEM ( 'NONE', ( #263 ), #45 ) ;
#66 = DIMENSIONAL_EXPONENTS ( 1.000000000000000000, 0.000000000000000000, 0.000000000000000000, 0.000000000000000000, 0.000000000000000000, 0.000000000000000000, 0.000000000000000000 ) ;
#67 = CARTESIAN_POINT ( 'NONE',  ( 7.030123981227455826E-34, 1.000000000000000000, 0.000000000000000000 ) ) ;
#68 = FACE_OUTER_BOUND ( 'NONE', #212, .T. ) ;
#69 = DIRECTION ( 'NONE',  ( -0.000000000000000000, -1.000000000000000000, -0.000000000000000000 ) ) ;
#70 = STYLED_ITEM ( 'NONE', ( #53 ), #32 ) ;
#71 = DIRECTION ( 'NONE',  ( -0.000000000000000000, -1.000000000000000000, -0.000000000000000000 ) ) ;
#72 = DIRECTION ( 'NONE',  ( 0.000000000000000000, 0.000000000000000000, -1.000000000000000000 ) ) ;
#73 = DIRECTION ( 'NONE',  ( 1.224646799147353207E-16, 1.000000000000000000, -0.000000000000000000 ) ) ;
#74 = STYLED_ITEM ( 'NONE', ( #218 ), #35 ) ;
#75 = ORIENTED_EDGE ( 'NONE', *, *, #233, .T. ) ;
#76 = PRESENTATION_STYLE_ASSIGNMENT (( #158 ) ) ;
#77 = FILL_AREA_STYLE_COLOUR ( '', #261 ) ;
#78 = CIRCLE ( 'NONE', #185, 0.09374999999999998612 ) ;
#79 = SURFACE_SIDE_STYLE ('',( #306 ) ) ;
#80 = DIRECTION ( 'NONE',  ( 0.000000000000000000, -1.000000000000000000, -0.000000000000000000 ) ) ;
#81 = FILL_AREA_STYLE_COLOUR ( '', #287 ) ;
#82 = CARTESIAN_POINT ( 'NONE',  ( 1.836970198721029688E-16, 2.500000000000000000, 0.000000000000000000 ) ) ;
#83 = MECHANICAL_DESIGN_GEOMETRIC_PRESENTATION_REPRESENTATION (  '', ( #285 ), #91 ) ;
#84 = SURFACE_STYLE_USAGE ( .BOTH. , #155 ) ;
#85 =( NAMED_UNIT ( * ) PLANE_ANGLE_UNIT ( ) SI_UNIT ( $, .RADIAN. ) );
#86 = PRESENTATION_LAYER_ASSIGNMENT (  '', '', ( #65 ) ) ;
#87 = FACE_OUTER_BOUND ( 'NONE', #121, .T. ) ;
#88 = DIMENSIONAL_EXPONENTS ( 1.000000000000000000, 0.000000000000000000, 0.000000000000000000, 0.000000000000000000, 0.000000000000000000, 0.000000000000000000, 0.000000000000000000 ) ;
#89 = VERTEX_POINT ( 'NONE', #165 ) ;
#90 = CARTESIAN_POINT ( 'NONE',  ( -3.032960542342103792E-32, 1.000000000000000000, 0.000000000000000000 ) ) ;
#91 =( GEOMETRIC_REPRESENTATION_CONTEXT ( 3 ) GLOBAL_UNCERTAINTY_ASSIGNED_CONTEXT ( ( #199 ) ) GLOBAL_UNIT_ASSIGNED_CONTEXT ( ( #52, #55, #12 ) ) REPRESENTATION_CONTEXT ( 'NONE', 'WORKASPACE' ) );
#92 = ORIENTED_EDGE ( 'NONE', *, *, #251, .F. ) ;
#93 = COLOUR_RGB ( '',1.000000000000000000, 0.000000000000000000, 0.000000000000000000 ) ;
#94 = ORIENTED_EDGE ( 'NONE', *, *, #244, .F. ) ;
#95 = PRODUCT_RELATED_PRODUCT_CATEGORY ( 'part', '', ( #110 ) ) ;
#96 =( LENGTH_UNIT ( ) NAMED_UNIT ( * ) SI_UNIT ( $, .METRE. ) );
#97 = DIMENSIONAL_EXPONENTS ( 1.000000000000000000, 0.000000000000000000, 0.000000000000000000, 0.000000000000000000, 0.000000000000000000, 0.000000000000000000, 0.000000000000000000 ) ;
#98 = PRESENTATION_LAYER_ASSIGNMENT (  '', '', ( #74 ) ) ;
#99 = FILL_AREA_STYLE ('',( #15 ) ) ;
#100 = ORIENTED_EDGE ( 'NONE', *, *, #143, .T. ) ;
#101 = SURFACE_STYLE_FILL_AREA ( #40 ) ;
#102 = EDGE_LOOP ( 'NONE', ( #11, #217, #116, #4 ) ) ;
#103 = DIRECTION ( 'NONE',  ( 1.224646799147353207E-16, 1.000000000000000000, -0.000000000000000000 ) ) ;
#104 = PRESENTATION_LAYER_ASSIGNMENT (  '', '', ( #285 ) ) ;
#105 = CARTESIAN_POINT ( 'NONE',  ( 0.000000000000000000, 1.000000000000000000, 0.000000000000000000 ) ) ;
#106 =( CONVERSION_BASED_UNIT ( 'INCH', #236 ) LENGTH_UNIT ( ) NAMED_UNIT ( #66 ) );
#107 = DIRECTION ( 'NONE',  ( 0.000000000000000000, 0.000000000000000000, -1.000000000000000000 ) ) ;
#108 = DIRECTION ( 'NONE',  ( -0.000000000000000000, -1.000000000000000000, -0.000000000000000000 ) ) ;
#109 = CIRCLE ( 'NONE', #203, 0.09374999999999998612 ) ;
#110 = PRODUCT ( '81311', '81311', '', ( #166 ) ) ;
#111 = CARTESIAN_POINT ( 'NONE',  ( 0.000000000000000000, 1.000000000000000000, -0.09374999999999998612 ) ) ;
#112 = EDGE_CURVE ( 'NONE', #197, #29, #258, .T. ) ;
#113 = LENGTH_MEASURE_WITH_UNIT ( LENGTH_MEASURE( 0.02539999999999999897 ), #226 );
#114 =( NAMED_UNIT ( * ) SI_UNIT ( $, .STERADIAN. ) SOLID_ANGLE_UNIT ( ) );
#115 = PLANE ( 'NONE',  #163 ) ;
#116 = ORIENTED_EDGE ( 'NONE', *, *, #229, .T. ) ;
#117 = ADVANCED_FACE ( 'NONE', ( #183 ), #46, .T. ) ;
#118 = LINE ( 'NONE', #194, #227 ) ;
#119 = CARTESIAN_POINT ( 'NONE',  ( 0.000000000000000000, 0.000000000000000000, 0.000000000000000000 ) ) ;
#120 = ORIENTED_EDGE ( 'NONE', *, *, #143, .F. ) ;
#121 = EDGE_LOOP ( 'NONE', ( #92, #123 ) ) ;
#122 = MECHANICAL_DESIGN_GEOMETRIC_PRESENTATION_REPRESENTATION (  '', ( #65 ), #207 ) ;
#123 = ORIENTED_EDGE ( 'NONE', *, *, #112, .F. ) ;
#124 = LENGTH_MEASURE_WITH_UNIT ( LENGTH_MEASURE( 0.02539999999999999897 ), #161 );
#125 =( NAMED_UNIT ( * ) PLANE_ANGLE_UNIT ( ) SI_UNIT ( $, .RADIAN. ) );
#126 = CARTESIAN_POINT ( 'NONE',  ( 0.000000000000000000, 0.000000000000000000, 0.000000000000000000 ) ) ;
#127 = CARTESIAN_POINT ( 'NONE',  ( 1.836970198721029688E-16, 2.500000000000000000, 0.000000000000000000 ) ) ;
#128 =( NAMED_UNIT ( * ) SI_UNIT ( $, .STERADIAN. ) SOLID_ANGLE_UNIT ( ) );
#129 = COLOUR_RGB ( '',0.7921568627450980005, 0.8196078431372548767, 0.9333333333333333481 ) ;
#130 =( GEOMETRIC_REPRESENTATION_CONTEXT ( 3 ) GLOBAL_UNCERTAINTY_ASSIGNED_CONTEXT ( ( #280 ) ) GLOBAL_UNIT_ASSIGNED_CONTEXT ( ( #24, #172, #114 ) ) REPRESENTATION_CONTEXT ( 'NONE', 'WORKASPACE' ) );
#131 = ORIENTED_EDGE ( 'NONE', *, *, #181, .T. ) ;
#132 =( NAMED_UNIT ( * ) PLANE_ANGLE_UNIT ( ) SI_UNIT ( $, .RADIAN. ) );
#133 = EDGE_CURVE ( 'NONE', #174, #49, #109, .T. ) ;
#134 = SURFACE_SIDE_STYLE ('',( #301 ) ) ;
#135 = ORIENTED_EDGE ( 'NONE', *, *, #34, .T. ) ;
#136 = DIRECTION ( 'NONE',  ( 1.224646799147353207E-16, 1.000000000000000000, -0.000000000000000000 ) ) ;
#137 = ORIENTED_EDGE ( 'NONE', *, *, #229, .F. ) ;
#138 = FILL_AREA_STYLE_COLOUR ( '', #30 ) ;
#139 =( CONVERSION_BASED_UNIT ( 'INCH', #265 ) LENGTH_UNIT ( ) NAMED_UNIT ( #97 ) );
#140 = CARTESIAN_POINT ( 'NONE',  ( 1.836970198721029688E-16, 2.500000000000000000, 0.000000000000000000 ) ) ;
#141 = VECTOR ( 'NONE', #208, 39.37007874015748143 ) ;
#142 = SURFACE_SIDE_STYLE ('',( #234 ) ) ;
#143 = EDGE_CURVE ( 'NONE', #49, #174, #78, .T. ) ;
#144 = DIRECTION ( 'NONE',  ( -1.000000000000000000, 0.000000000000000000, 0.000000000000000000 ) ) ;
#145 = DIRECTION ( 'NONE',  ( -0.000000000000000000, -1.000000000000000000, -0.000000000000000000 ) ) ;
#146 = ORIENTED_EDGE ( 'NONE', *, *, #133, .T. ) ;
#147 = DIRECTION ( 'NONE',  ( 1.224646799147353207E-16, 1.000000000000000000, -0.000000000000000000 ) ) ;
#148 = FACE_OUTER_BOUND ( 'NONE', #102, .T. ) ;
#149 = EDGE_CURVE ( 'NONE', #197, #286, #267, .T. ) ;
#150 = AXIS2_PLACEMENT_3D ( 'NONE', #140, #27, #232 ) ;
#151 = CARTESIAN_POINT ( 'NONE',  ( 0.000000000000000000, 0.000000000000000000, 0.000000000000000000 ) ) ;
#152 = ORIENTED_EDGE ( 'NONE', *, *, #149, .T. ) ;
#153 = ADVANCED_BREP_SHAPE_REPRESENTATION ( '81311', ( #35, #32, #159 ), #59 ) ;
#154 = DIRECTION ( 'NONE',  ( 1.000000000000000000, 0.000000000000000000, 0.000000000000000000 ) ) ;
#155 = SURFACE_SIDE_STYLE ('',( #101 ) ) ;
#156 = APPLICATION_PROTOCOL_DEFINITION ( 'draft international standard', 'automotive_design', 1998, #63 ) ;
#157 = FILL_AREA_STYLE_COLOUR ( '', #129 ) ;
#158 = SURFACE_STYLE_USAGE ( .BOTH. , #134 ) ;
#159 = AXIS2_PLACEMENT_3D ( 'NONE', #151, #273, #154 ) ;
#160 =( NAMED_UNIT ( * ) PLANE_ANGLE_UNIT ( ) SI_UNIT ( $, .RADIAN. ) );
#161 =( LENGTH_UNIT ( ) NAMED_UNIT ( * ) SI_UNIT ( $, .METRE. ) );
#162 = ADVANCED_FACE ( 'NONE', ( #87 ), #205, .F. ) ;
#163 = AXIS2_PLACEMENT_3D ( 'NONE', #8, #239, #268 ) ;
#164 = AXIS2_PLACEMENT_3D ( 'NONE', #119, #299, #173 ) ;
#165 = CARTESIAN_POINT ( 'NONE',  ( -0.09374999999999961142, 2.500000000000000000, 0.000000000000000000 ) ) ;
#166 = PRODUCT_CONTEXT ( 'NONE', #63, 'mechanical' ) ;
#167 =( LENGTH_UNIT ( ) NAMED_UNIT ( * ) SI_UNIT ( $, .METRE. ) );
#168 =( LENGTH_UNIT ( ) NAMED_UNIT ( * ) SI_UNIT ( $, .METRE. ) );
#169 = DIRECTION ( 'NONE',  ( -1.000000000000000000, 1.224646799147353207E-16, 0.000000000000000000 ) ) ;
#170 = MECHANICAL_DESIGN_GEOMETRIC_PRESENTATION_REPRESENTATION (  '', ( #10 ), #300 ) ;
#171 = ORIENTED_EDGE ( 'NONE', *, *, #233, .F. ) ;
#172 =( NAMED_UNIT ( * ) PLANE_ANGLE_UNIT ( ) SI_UNIT ( $, .RADIAN. ) );
#173 = DIRECTION ( 'NONE',  ( 0.000000000000000000, 0.000000000000000000, -1.000000000000000000 ) ) ;
#174 = VERTEX_POINT ( 'NONE', #111 ) ;
#175 = CARTESIAN_POINT ( 'NONE',  ( 0.09374999999999997224, 1.000000000000000000, 1.148106374200642938E-17 ) ) ;
#176 = ORIENTED_EDGE ( 'NONE', *, *, #241, .T. ) ;
#177 = LENGTH_MEASURE_WITH_UNIT ( LENGTH_MEASURE( 0.02539999999999999897 ), #282 );
#178 = CIRCLE ( 'NONE', #308, 0.09374999999999998612 ) ;
#179 = PRESENTATION_LAYER_ASSIGNMENT (  '', '', ( #200 ) ) ;
#180 = ADVANCED_FACE ( 'NONE', ( #260 ), #192, .T. ) ;
#181 = EDGE_CURVE ( 'NONE', #33, #245, #178, .T. ) ;
#182 = LENGTH_MEASURE_WITH_UNIT ( LENGTH_MEASURE( 0.02539999999999999897 ), #96 );
#183 = FACE_OUTER_BOUND ( 'NONE', #247, .T. ) ;
#184 = CARTESIAN_POINT ( 'NONE',  ( 1.148106374200643401E-17, 1.000000000000000000, 0.09374999999999998612 ) ) ;
#185 = AXIS2_PLACEMENT_3D ( 'NONE', #309, #69, #290 ) ;
#186 = DIRECTION ( 'NONE',  ( 1.224646799147353207E-16, 1.000000000000000000, -0.000000000000000000 ) ) ;
#187 = CARTESIAN_POINT ( 'NONE',  ( -3.032960542342103792E-32, 1.000000000000000000, 0.000000000000000000 ) ) ;
#188 = DIRECTION ( 'NONE',  ( 1.224646799147353207E-16, 1.000000000000000000, -0.000000000000000000 ) ) ;
#189 = SURFACE_STYLE_FILL_AREA ( #7 ) ;
#190 = AXIS2_PLACEMENT_3D ( 'NONE', #272, #242, #213 ) ;
#191 = EDGE_CURVE ( 'NONE', #245, #33, #262, .T. ) ;
#192 = CYLINDRICAL_SURFACE ( 'NONE', #164, 0.09374999999999998612 ) ;
#193 = EDGE_LOOP ( 'NONE', ( #146, #135, #1, #94 ) ) ;
#194 = CARTESIAN_POINT ( 'NONE',  ( -0.09374999999999969469, 2.500000000000000000, 0.000000000000000000 ) ) ;
#195 = PRESENTATION_LAYER_ASSIGNMENT (  '', '', ( #70 ) ) ;
#196 = AXIS2_PLACEMENT_3D ( 'NONE', #47, #145, #72 ) ;
#197 = VERTEX_POINT ( 'NONE', #175 ) ;
#198 = DIRECTION ( 'NONE',  ( -0.000000000000000000, -1.000000000000000000, -0.000000000000000000 ) ) ;
#199 = UNCERTAINTY_MEASURE_WITH_UNIT (LENGTH_MEASURE( 1.000000000000000082E-05 ), #52, 'distance_accuracy_value', 'NONE');
#200 = STYLED_ITEM ( 'NONE', ( #266 ), #295 ) ;
#201 = ADVANCED_FACE ( 'NONE', ( #148 ), #274, .T. ) ;
#202 = FACE_OUTER_BOUND ( 'NONE', #48, .T. ) ;
#203 = AXIS2_PLACEMENT_3D ( 'NONE', #105, #108, #107 ) ;
#204 = LENGTH_MEASURE_WITH_UNIT ( LENGTH_MEASURE( 0.02539999999999999897 ), #168 );
#205 = PLANE ( 'NONE',  #25 ) ;
#206 = SURFACE_STYLE_USAGE ( .BOTH. , #142 ) ;
#207 =( GEOMETRIC_REPRESENTATION_CONTEXT ( 3 ) GLOBAL_UNCERTAINTY_ASSIGNED_CONTEXT ( ( #50 ) ) GLOBAL_UNIT_ASSIGNED_CONTEXT ( ( #106, #85, #209 ) ) REPRESENTATION_CONTEXT ( 'NONE', 'WORKASPACE' ) );
#208 = DIRECTION ( 'NONE',  ( 1.224646799147353207E-16, 1.000000000000000000, -0.000000000000000000 ) ) ;
#209 =( NAMED_UNIT ( * ) SI_UNIT ( $, .STERADIAN. ) SOLID_ANGLE_UNIT ( ) );
#210 = PRODUCT_DEFINITION ( 'UNKNOWN', '', #238, #307 ) ;
#211 = AXIS2_PLACEMENT_3D ( 'NONE', #220, #255, #223 ) ;
#212 = EDGE_LOOP ( 'NONE', ( #14, #100, #214, #288 ) ) ;
#213 = DIRECTION ( 'NONE',  ( -1.000000000000000000, 0.000000000000000000, 0.000000000000000000 ) ) ;
#214 = ORIENTED_EDGE ( 'NONE', *, *, #244, .T. ) ;
#215 = MECHANICAL_DESIGN_GEOMETRIC_PRESENTATION_REPRESENTATION (  '', ( #70 ), #249 ) ;
#216 = AXIS2_PLACEMENT_3D ( 'NONE', #82, #188, #144 ) ;
#217 = ORIENTED_EDGE ( 'NONE', *, *, #112, .T. ) ;
#218 = PRESENTATION_STYLE_ASSIGNMENT (( #38 ) ) ;
#219 = PRESENTATION_STYLE_ASSIGNMENT (( #60 ) ) ;
#220 = CARTESIAN_POINT ( 'NONE',  ( 0.000000000000000000, 0.000000000000000000, 0.000000000000000000 ) ) ;
#221 =( CONVERSION_BASED_UNIT ( 'INCH', #113 ) LENGTH_UNIT ( ) NAMED_UNIT ( #88 ) );
#222 =( NAMED_UNIT ( * ) SI_UNIT ( $, .STERADIAN. ) SOLID_ANGLE_UNIT ( ) );
#223 = DIRECTION ( 'NONE',  ( 0.000000000000000000, 0.000000000000000000, -1.000000000000000000 ) ) ;
#224 =( CONVERSION_BASED_UNIT ( 'INCH', #124 ) LENGTH_UNIT ( ) NAMED_UNIT ( #2 ) );
#225 = FILL_AREA_STYLE ('',( #77 ) ) ;
#226 =( LENGTH_UNIT ( ) NAMED_UNIT ( * ) SI_UNIT ( $, .METRE. ) );
#227 = VECTOR ( 'NONE', #73, 39.37007874015748143 ) ;
#228 =( LENGTH_UNIT ( ) NAMED_UNIT ( * ) SI_UNIT ( $, .METRE. ) );
#229 = EDGE_CURVE ( 'NONE', #29, #89, #118, .T. ) ;
#230 = UNCERTAINTY_MEASURE_WITH_UNIT (LENGTH_MEASURE( 1.000000000000000082E-05 ), #221, 'distance_accuracy_value', 'NONE');
#231 = CARTESIAN_POINT ( 'NONE',  ( 0.000000000000000000, 0.000000000000000000, -0.09374999999999998612 ) ) ;
#232 = DIRECTION ( 'NONE',  ( -1.000000000000000000, 0.000000000000000000, 0.000000000000000000 ) ) ;
#233 = EDGE_CURVE ( 'NONE', #89, #286, #250, .T. ) ;
#234 = SURFACE_STYLE_FILL_AREA ( #292 ) ;
#235 = LINE ( 'NONE', #231, #237 ) ;
#236 = LENGTH_MEASURE_WITH_UNIT ( LENGTH_MEASURE( 0.02539999999999999897 ), #228 );
#237 = VECTOR ( 'NONE', #71, 39.37007874015748143 ) ;
#238 = PRODUCT_DEFINITION_FORMATION_WITH_SPECIFIED_SOURCE ( 'ANY', '', #110, .NOT_KNOWN. ) ;
#239 = DIRECTION ( 'NONE',  ( -1.224646799147353207E-16, -1.000000000000000000, 0.000000000000000000 ) ) ;
#240 = CARTESIAN_POINT ( 'NONE',  ( 0.09374999999999997224, 2.500000000000000000, 1.148106374200642938E-17 ) ) ;
#241 = EDGE_CURVE ( 'NONE', #286, #89, #278, .T. ) ;
#242 = DIRECTION ( 'NONE',  ( 1.224646799147353207E-16, 1.000000000000000000, -0.000000000000000000 ) ) ;
#243 = COLOUR_RGB ( '',1.000000000000000000, 0.000000000000000000, 0.000000000000000000 ) ;
#244 = EDGE_CURVE ( 'NONE', #174, #33, #235, .T. ) ;
#245 = VERTEX_POINT ( 'NONE', #26 ) ;
#246 = ADVANCED_FACE ( 'NONE', ( #68 ), #54, .T. ) ;
#247 = EDGE_LOOP ( 'NONE', ( #297, #152, #171, #137 ) ) ;
#248 = UNCERTAINTY_MEASURE_WITH_UNIT (LENGTH_MEASURE( 1.000000000000000082E-05 ), #139, 'distance_accuracy_value', 'NONE');
#249 =( GEOMETRIC_REPRESENTATION_CONTEXT ( 3 ) GLOBAL_UNCERTAINTY_ASSIGNED_CONTEXT ( ( #42 ) ) GLOBAL_UNIT_ASSIGNED_CONTEXT ( ( #224, #125, #13 ) ) REPRESENTATION_CONTEXT ( 'NONE', 'WORKASPACE' ) );
#250 = CIRCLE ( 'NONE', #57, 0.09374999999999980571 ) ;
#251 = EDGE_CURVE ( 'NONE', #29, #197, #31, .T. ) ;
#252 = FILL_AREA_STYLE ('',( #157 ) ) ;
#253 = SHAPE_DEFINITION_REPRESENTATION ( #279, #153 ) ;
#254 =( NAMED_UNIT ( * ) PLANE_ANGLE_UNIT ( ) SI_UNIT ( $, .RADIAN. ) );
#255 = DIRECTION ( 'NONE',  ( -0.000000000000000000, -1.000000000000000000, -0.000000000000000000 ) ) ;
#256 = EDGE_LOOP ( 'NONE', ( #131, #303 ) ) ;
#257 = CLOSED_SHELL ( 'NONE', ( #117, #162, #201, #269 ) ) ;
#258 = CIRCLE ( 'NONE', #304, 0.09374999999999998612 ) ;
#259 = CARTESIAN_POINT ( 'NONE',  ( 1.148106374200643401E-17, 0.000000000000000000, 0.09374999999999998612 ) ) ;
#260 = FACE_OUTER_BOUND ( 'NONE', #193, .T. ) ;
#261 = COLOUR_RGB ( '',0.7921568627450980005, 0.8196078431372548767, 0.9333333333333333481 ) ;
#262 = CIRCLE ( 'NONE', #196, 0.09374999999999998612 ) ;
#263 = PRESENTATION_STYLE_ASSIGNMENT (( #84 ) ) ;
#264 = FACE_OUTER_BOUND ( 'NONE', #256, .T. ) ;
#265 = LENGTH_MEASURE_WITH_UNIT ( LENGTH_MEASURE( 0.02539999999999999897 ), #167 );
#266 = PRESENTATION_STYLE_ASSIGNMENT (( #206 ) ) ;
#267 = LINE ( 'NONE', #64, #141 ) ;
#268 = DIRECTION ( 'NONE',  ( 1.000000000000000000, -1.224646799147353207E-16, 0.000000000000000000 ) ) ;
#269 = ADVANCED_FACE ( 'NONE', ( #289 ), #115, .F. ) ;
#270 = DIRECTION ( 'NONE',  ( 0.000000000000000000, 0.000000000000000000, -1.000000000000000000 ) ) ;
#271 = DIMENSIONAL_EXPONENTS ( 1.000000000000000000, 0.000000000000000000, 0.000000000000000000, 0.000000000000000000, 0.000000000000000000, 0.000000000000000000, 0.000000000000000000 ) ;
#272 = CARTESIAN_POINT ( 'NONE',  ( 1.836970198721029688E-16, 2.500000000000000000, 0.000000000000000000 ) ) ;
#273 = DIRECTION ( 'NONE',  ( 0.000000000000000000, 0.000000000000000000, 1.000000000000000000 ) ) ;
#274 = CYLINDRICAL_SURFACE ( 'NONE', #190, 0.09374999999999988898 ) ;
#275 = AXIS2_PLACEMENT_3D ( 'NONE', #126, #80, #281 ) ;
#276 = EDGE_LOOP ( 'NONE', ( #75, #176 ) ) ;
#277 = UNCERTAINTY_MEASURE_WITH_UNIT (LENGTH_MEASURE( 1.000000000000000082E-05 ), #41, 'distance_accuracy_value', 'NONE');
#278 = CIRCLE ( 'NONE', #216, 0.09374999999999980571 ) ;
#279 = PRODUCT_DEFINITION_SHAPE ( 'NONE', 'NONE',  #210 ) ;
#280 = UNCERTAINTY_MEASURE_WITH_UNIT (LENGTH_MEASURE( 1.000000000000000082E-05 ), #24, 'distance_accuracy_value', 'NONE');
#281 = DIRECTION ( 'NONE',  ( 0.000000000000000000, 0.000000000000000000, -1.000000000000000000 ) ) ;
#282 =( LENGTH_UNIT ( ) NAMED_UNIT ( * ) SI_UNIT ( $, .METRE. ) );
#283 = SURFACE_STYLE_USAGE ( .BOTH. , #79 ) ;
#284 =( NAMED_UNIT ( * ) SI_UNIT ( $, .STERADIAN. ) SOLID_ANGLE_UNIT ( ) );
#285 = STYLED_ITEM ( 'NONE', ( #76 ), #246 ) ;
#286 = VERTEX_POINT ( 'NONE', #240 ) ;
#287 = COLOUR_RGB ( '',1.000000000000000000, 0.000000000000000000, 0.000000000000000000 ) ;
#288 = ORIENTED_EDGE ( 'NONE', *, *, #191, .F. ) ;
#289 = FACE_OUTER_BOUND ( 'NONE', #276, .T. ) ;
#290 = DIRECTION ( 'NONE',  ( 0.000000000000000000, 0.000000000000000000, -1.000000000000000000 ) ) ;
#291 = DIRECTION ( 'NONE',  ( -1.000000000000000000, 0.000000000000000000, 0.000000000000000000 ) ) ;
#292 = FILL_AREA_STYLE ('',( #138 ) ) ;
#293 =( GEOMETRIC_REPRESENTATION_CONTEXT ( 3 ) GLOBAL_UNCERTAINTY_ASSIGNED_CONTEXT ( ( #277 ) ) GLOBAL_UNIT_ASSIGNED_CONTEXT ( ( #41, #254, #222 ) ) REPRESENTATION_CONTEXT ( 'NONE', 'WORKASPACE' ) );
#294 = SURFACE_SIDE_STYLE ('',( #189 ) ) ;
#295 = ADVANCED_FACE ( 'NONE', ( #264 ), #62, .T. ) ;
#296 = CARTESIAN_POINT ( 'NONE',  ( 0.000000000000000000, 0.000000000000000000, 0.000000000000000000 ) ) ;
#297 = ORIENTED_EDGE ( 'NONE', *, *, #251, .T. ) ;
#298 = APPLICATION_PROTOCOL_DEFINITION ( 'draft international standard', 'automotive_design', 1998, #17 ) ;
#299 = DIRECTION ( 'NONE',  ( -0.000000000000000000, -1.000000000000000000, -0.000000000000000000 ) ) ;
#300 =( GEOMETRIC_REPRESENTATION_CONTEXT ( 3 ) GLOBAL_UNCERTAINTY_ASSIGNED_CONTEXT ( ( #230 ) ) GLOBAL_UNIT_ASSIGNED_CONTEXT ( ( #221, #160, #128 ) ) REPRESENTATION_CONTEXT ( 'NONE', 'WORKASPACE' ) );
#301 = SURFACE_STYLE_FILL_AREA ( #99 ) ;
#302 = CARTESIAN_POINT ( 'NONE',  ( -0.09374999999999998612, 1.000000000000000000, 0.000000000000000000 ) ) ;
#303 = ORIENTED_EDGE ( 'NONE', *, *, #191, .T. ) ;
#304 = AXIS2_PLACEMENT_3D ( 'NONE', #90, #136, #291 ) ;
#305 = PLANE ( 'NONE',  #16 ) ;
#306 = SURFACE_STYLE_FILL_AREA ( #225 ) ;
#307 = PRODUCT_DEFINITION_CONTEXT ( 'detailed design', #17, 'design' ) ;
#308 = AXIS2_PLACEMENT_3D ( 'NONE', #296, #28, #270 ) ;
#309 = CARTESIAN_POINT ( 'NONE',  ( 0.000000000000000000, 1.000000000000000000, 0.000000000000000000 ) ) ;
ENDSEC;
END-ISO-10303-21;
