ISO-10303-21;
HEADER;
FILE_DESCRIPTION (( 'STEP AP214' ),
    '1' );
FILE_NAME ('Micro_AMRM-012-2.STEP',
    '2021-09-01T17:12:52',
    ( '' ),
    ( '' ),
    'SwSTEP 2.0',
    'SolidWorks 2020',
    '' );
FILE_SCHEMA (( 'AUTOMOTIVE_DESIGN' ));
ENDSEC;

DATA;
#1 = DIRECTION ( 'NONE',  ( -0.0000000000000000000, -0.0000000000000000000, -1.000000000000000000 ) ) ;
#2 = SURFACE_STYLE_FILL_AREA ( #139 ) ;
#3 = VECTOR ( 'NONE', #94, 39.37007874015748143 ) ;
#4 = LINE ( 'NONE', #51, #3 ) ;
#5 = EDGE_CURVE ( 'NONE', #135, #297, #32, .T. ) ;
#6 = CARTESIAN_POINT ( 'NONE',  ( 3.539189826045237101E-34, 0.0000000000000000000, 2.889967808276932569E-18 ) ) ;
#7 = DIRECTION ( 'NONE',  ( -0.0000000000000000000, -0.0000000000000000000, -1.000000000000000000 ) ) ;
#8 = AXIS2_PLACEMENT_3D ( 'NONE', #79, #284, #218 ) ;
#9 = DIRECTION ( 'NONE',  ( -0.1736481776669311916, 2.126576849575783316E-17, 0.9848077530122080203 ) ) ;
#10 = ADVANCED_FACE ( 'NONE', ( #35 ), #143, .T. ) ;
#11 = FACE_OUTER_BOUND ( 'NONE', #156, .T. ) ;
#12 = ORIENTED_EDGE ( 'NONE', *, *, #248, .T. ) ;
#13 = FILL_AREA_STYLE ('',( #266 ) ) ;
#14 = ORIENTED_EDGE ( 'NONE', *, *, #224, .T. ) ;
#15 = ORIENTED_EDGE ( 'NONE', *, *, #292, .F. ) ;
#16 = PRESENTATION_LAYER_ASSIGNMENT (  '', '', ( #239 ) ) ;
#17 = ORIENTED_EDGE ( 'NONE', *, *, #237, .F. ) ;
#18 = ADVANCED_FACE ( 'NONE', ( #256 ), #235, .T. ) ;
#19 = VERTEX_POINT ( 'NONE', #50 ) ;
#20 =( NAMED_UNIT ( * ) PLANE_ANGLE_UNIT ( ) SI_UNIT ( $, .RADIAN. ) );
#21 = LENGTH_MEASURE_WITH_UNIT ( LENGTH_MEASURE( 0.02539999999999999897 ), #70 );
#22 = VECTOR ( 'NONE', #144, 39.37007874015748143 ) ;
#23 = DIRECTION ( 'NONE',  ( 1.000000000000000000, 0.0000000000000000000, -0.0000000000000000000 ) ) ;
#24 = LINE ( 'NONE', #211, #36 ) ;
#25 = PRODUCT_DEFINITION ( 'UNKNOWN', '', #283, #231 ) ;
#26 = AXIS2_PLACEMENT_3D ( 'NONE', #53, #187, #279 ) ;
#27 = ADVANCED_FACE ( 'NONE', ( #241 ), #58, .T. ) ;
#28 = CARTESIAN_POINT ( 'NONE',  ( 0.07874000000000001831, 9.642868896486260050E-18, 1.968503999999999809 ) ) ;
#29 = CARTESIAN_POINT ( 'NONE',  ( 0.0000000000000000000, 0.0000000000000000000, 1.968503999999999809 ) ) ;
#30 = CARTESIAN_POINT ( 'NONE',  ( 0.0000000000000000000, 0.0000000000000000000, 1.953504000000000129 ) ) ;
#31 = ORIENTED_EDGE ( 'NONE', *, *, #217, .T. ) ;
#32 = CIRCLE ( 'NONE', #68, 0.07874000000000001831 ) ;
#33 = LINE ( 'NONE', #56, #100 ) ;
#34 = ADVANCED_FACE ( 'NONE', ( #121 ), #49, .F. ) ;
#35 = FACE_OUTER_BOUND ( 'NONE', #273, .T. ) ;
#36 = VECTOR ( 'NONE', #249, 39.37007874015748143 ) ;
#37 = VECTOR ( 'NONE', #189, 39.37007874015748143 ) ;
#38 = VERTEX_POINT ( 'NONE', #184 ) ;
#39 = ORIENTED_EDGE ( 'NONE', *, *, #212, .T. ) ;
#40 = DIRECTION ( 'NONE',  ( 1.224646799147353207E-16, 0.0000000000000000000, 1.000000000000000000 ) ) ;
#41 = ORIENTED_EDGE ( 'NONE', *, *, #112, .F. ) ;
#42 =( NAMED_UNIT ( * ) SI_UNIT ( $, .STERADIAN. ) SOLID_ANGLE_UNIT ( ) );
#43 = ADVANCED_FACE ( 'NONE', ( #232 ), #90, .T. ) ;
#44 = CIRCLE ( 'NONE', #203, 0.07874000000000001831 ) ;
#45 = PRODUCT ( 'Micro_AMRM-012-2', 'Micro_AMRM-012-2', '', ( #177 ) ) ;
#46 = ORIENTED_EDGE ( 'NONE', *, *, #209, .T. ) ;
#47 = EDGE_CURVE ( 'NONE', #113, #157, #107, .T. ) ;
#48 = UNCERTAINTY_MEASURE_WITH_UNIT (LENGTH_MEASURE( 1.000000000000000082E-05 ), #147, 'distance_accuracy_value', 'NONE');
#49 = PLANE ( 'NONE',  #69 ) ;
#50 = CARTESIAN_POINT ( 'NONE',  ( 0.06374000000000018540, 8.724383797125754882E-18, 1.968503999999999809 ) ) ;
#51 = CARTESIAN_POINT ( 'NONE',  ( -0.06374000000000018540, 0.0000000000000000000, 1.968503999999999809 ) ) ;
#52 = EDGE_LOOP ( 'NONE', ( #17, #295, #39, #268 ) ) ;
#53 = CARTESIAN_POINT ( 'NONE',  ( 0.0000000000000000000, 0.0000000000000000000, 0.0000000000000000000 ) ) ;
#54 = PRESENTATION_STYLE_ASSIGNMENT (( #142 ) ) ;
#55 = CARTESIAN_POINT ( 'NONE',  ( 0.0000000000000000000, 0.0000000000000000000, 0.0000000000000000000 ) ) ;
#56 = CARTESIAN_POINT ( 'NONE',  ( 0.02359837800000000665, 2.889967808276932569E-18, -2.889967808276932569E-18 ) ) ;
#57 = CIRCLE ( 'NONE', #169, 0.02359837800000000665 ) ;
#58 = CYLINDRICAL_SURFACE ( 'NONE', #108, 0.02359837800000000665 ) ;
#59 = DIRECTION ( 'NONE',  ( -1.224646799147353207E-16, -0.0000000000000000000, -1.000000000000000000 ) ) ;
#60 = LENGTH_MEASURE_WITH_UNIT ( LENGTH_MEASURE( 0.02539999999999999897 ), #78 );
#61 = ORIENTED_EDGE ( 'NONE', *, *, #292, .T. ) ;
#62 = CARTESIAN_POINT ( 'NONE',  ( 0.07874000000000007382, 9.642868896486266213E-18, 0.4623296783528303422 ) ) ;
#63 = EDGE_LOOP ( 'NONE', ( #131, #244, #226, #269 ) ) ;
#64 = DIRECTION ( 'NONE',  ( -1.000000000000000000, 0.0000000000000000000, 1.224646799147353207E-16 ) ) ;
#65 = VECTOR ( 'NONE', #9, 39.37007874015747433 ) ;
#66 = DIRECTION ( 'NONE',  ( 1.000000000000000000, 0.0000000000000000000, 0.0000000000000000000 ) ) ;
#67 = ORIENTED_EDGE ( 'NONE', *, *, #86, .F. ) ;
#68 = AXIS2_PLACEMENT_3D ( 'NONE', #193, #214, #205 ) ;
#69 = AXIS2_PLACEMENT_3D ( 'NONE', #134, #95, #23 ) ;
#70 =( LENGTH_UNIT ( ) NAMED_UNIT ( * ) SI_UNIT ( $, .METRE. ) );
#71 = ORIENTED_EDGE ( 'NONE', *, *, #192, .T. ) ;
#72 = CARTESIAN_POINT ( 'NONE',  ( 0.07874000000000001831, 9.642868896486260050E-18, 1.953504000000000129 ) ) ;
#73 = ADVANCED_FACE ( 'NONE', ( #229 ), #183, .T. ) ;
#74 = ORIENTED_EDGE ( 'NONE', *, *, #123, .T. ) ;
#75 = FILL_AREA_STYLE_COLOUR ( '', #116 ) ;
#76 = CARTESIAN_POINT ( 'NONE',  ( -0.07873999999999996280, 0.0000000000000000000, 0.4623296783528303422 ) ) ;
#77 = MANIFOLD_SOLID_BREP ( 'Cut-Revolve1', #115 ) ;
#78 =( LENGTH_UNIT ( ) NAMED_UNIT ( * ) SI_UNIT ( $, .METRE. ) );
#79 = CARTESIAN_POINT ( 'NONE',  ( 0.0000000000000000000, 0.0000000000000000000, 1.968503999999999809 ) ) ;
#80 = AXIS2_PLACEMENT_3D ( 'NONE', #106, #243, #66 ) ;
#81 = CARTESIAN_POINT ( 'NONE',  ( 0.0000000000000000000, 0.0000000000000000000, 1.968503999999999809 ) ) ;
#82 = DIRECTION ( 'NONE',  ( 0.0000000000000000000, 0.0000000000000000000, 1.000000000000000000 ) ) ;
#83 = DIRECTION ( 'NONE',  ( 0.0000000000000000000, 0.0000000000000000000, -1.000000000000000000 ) ) ;
#84 = DIRECTION ( 'NONE',  ( -1.000000000000000000, 0.0000000000000000000, 0.0000000000000000000 ) ) ;
#85 = AXIS2_PLACEMENT_3D ( 'NONE', #30, #83, #240 ) ;
#86 = EDGE_CURVE ( 'NONE', #199, #19, #245, .T. ) ;
#87 = AXIS2_PLACEMENT_3D ( 'NONE', #29, #172, #122 ) ;
#88 = ORIENTED_EDGE ( 'NONE', *, *, #112, .T. ) ;
#89 = SURFACE_SIDE_STYLE ('',( #197 ) ) ;
#90 = CONICAL_SURFACE ( 'NONE', #250, 0.02359837800000000665, 0.1745329251994338915 ) ;
#91 = CARTESIAN_POINT ( 'NONE',  ( 0.0000000000000000000, 0.0000000000000000000, 1.968503999999999809 ) ) ;
#92 = ORIENTED_EDGE ( 'NONE', *, *, #200, .T. ) ;
#93 = DIRECTION ( 'NONE',  ( -1.000000000000000000, 0.0000000000000000000, 1.224646799147353207E-16 ) ) ;
#94 = DIRECTION ( 'NONE',  ( -0.7071067811865507924, 0.0000000000000000000, -0.7071067811865443531 ) ) ;
#95 = DIRECTION ( 'NONE',  ( 0.0000000000000000000, 0.0000000000000000000, 1.000000000000000000 ) ) ;
#96 = DIRECTION ( 'NONE',  ( -1.224646799147353207E-16, -0.0000000000000000000, -1.000000000000000000 ) ) ;
#97 = CARTESIAN_POINT ( 'NONE',  ( -0.06374000000000018540, 0.0000000000000000000, 1.968503999999999809 ) ) ;
#98 = DIMENSIONAL_EXPONENTS ( 1.000000000000000000, 0.0000000000000000000, 0.0000000000000000000, 0.0000000000000000000, 0.0000000000000000000, 0.0000000000000000000, 0.0000000000000000000 ) ;
#99 = ADVANCED_FACE ( 'NONE', ( #165 ), #282, .T. ) ;
#100 = VECTOR ( 'NONE', #96, 39.37007874015748143 ) ;
#101 = CARTESIAN_POINT ( 'NONE',  ( 0.02359837800000000665, 2.889967808276932569E-18, 0.0000000000000000000 ) ) ;
#102 = DIRECTION ( 'NONE',  ( -1.000000000000000000, 0.0000000000000000000, 1.224646799147353207E-16 ) ) ;
#103 = LINE ( 'NONE', #281, #190 ) ;
#104 = VERTEX_POINT ( 'NONE', #72 ) ;
#105 = SHAPE_DEFINITION_REPRESENTATION ( #111, #138 ) ;
#106 = CARTESIAN_POINT ( 'NONE',  ( 0.0000000000000000000, 0.0000000000000000000, 0.0000000000000000000 ) ) ;
#107 = CIRCLE ( 'NONE', #276, 0.02359837800000000665 ) ;
#108 = AXIS2_PLACEMENT_3D ( 'NONE', #55, #253, #93 ) ;
#109 =( GEOMETRIC_REPRESENTATION_CONTEXT ( 3 ) GLOBAL_UNCERTAINTY_ASSIGNED_CONTEXT ( ( #110 ) ) GLOBAL_UNIT_ASSIGNED_CONTEXT ( ( #291, #130, #42 ) ) REPRESENTATION_CONTEXT ( 'NONE', 'WORKASPACE' ) );
#110 = UNCERTAINTY_MEASURE_WITH_UNIT (LENGTH_MEASURE( 1.000000000000000082E-05 ), #291, 'distance_accuracy_value', 'NONE');
#111 = PRODUCT_DEFINITION_SHAPE ( 'NONE', 'NONE',  #25 ) ;
#112 = EDGE_CURVE ( 'NONE', #19, #104, #24, .T. ) ;
#113 = VERTEX_POINT ( 'NONE', #247 ) ;
#114 =( NAMED_UNIT ( * ) SI_UNIT ( $, .STERADIAN. ) SOLID_ANGLE_UNIT ( ) );
#115 = CLOSED_SHELL ( 'NONE', ( #137, #263, #228, #73, #18, #10, #99, #43, #27, #34 ) ) ;
#116 = COLOUR_RGB ( '',0.7921568627450980005, 0.8196078431372548767, 0.9333333333333333481 ) ;
#117 = ORIENTED_EDGE ( 'NONE', *, *, #47, .F. ) ;
#118 = DIRECTION ( 'NONE',  ( 0.0000000000000000000, 0.0000000000000000000, 1.000000000000000000 ) ) ;
#119 = DIRECTION ( 'NONE',  ( 1.224646799147353207E-16, 0.0000000000000000000, 1.000000000000000000 ) ) ;
#120 = AXIS2_PLACEMENT_3D ( 'NONE', #298, #118, #162 ) ;
#121 = FACE_OUTER_BOUND ( 'NONE', #198, .T. ) ;
#122 = DIRECTION ( 'NONE',  ( -1.000000000000000000, 0.0000000000000000000, 0.0000000000000000000 ) ) ;
#123 = EDGE_CURVE ( 'NONE', #199, #38, #4, .T. ) ;
#124 = CARTESIAN_POINT ( 'NONE',  ( 1.832145090332389117E-17, 0.0000000000000000000, 0.1496059999999999890 ) ) ;
#125 = LINE ( 'NONE', #28, #37 ) ;
#126 = STYLED_ITEM ( 'NONE', ( #54 ), #77 ) ;
#127 = CIRCLE ( 'NONE', #149, 0.07874000000000001831 ) ;
#128 =( NAMED_UNIT ( * ) PLANE_ANGLE_UNIT ( ) SI_UNIT ( $, .RADIAN. ) );
#129 = PRESENTATION_STYLE_ASSIGNMENT (( #223 ) ) ;
#130 =( NAMED_UNIT ( * ) PLANE_ANGLE_UNIT ( ) SI_UNIT ( $, .RADIAN. ) );
#131 = ORIENTED_EDGE ( 'NONE', *, *, #246, .T. ) ;
#132 = EDGE_LOOP ( 'NONE', ( #225, #12, #287, #151 ) ) ;
#133 = ORIENTED_EDGE ( 'NONE', *, *, #155, .T. ) ;
#134 = CARTESIAN_POINT ( 'NONE',  ( 0.0000000000000000000, 0.0000000000000000000, 0.0000000000000000000 ) ) ;
#135 = VERTEX_POINT ( 'NONE', #76 ) ;
#136 = CONICAL_SURFACE ( 'NONE', #8, 0.06374000000000018540, 0.7853981633974528309 ) ;
#137 = ADVANCED_FACE ( 'NONE', ( #206 ), #299, .T. ) ;
#138 = ADVANCED_BREP_SHAPE_REPRESENTATION ( 'Micro_AMRM-012-2', ( #77, #80 ), #290 ) ;
#139 = FILL_AREA_STYLE ('',( #75 ) ) ;
#140 = PRODUCT_RELATED_PRODUCT_CATEGORY ( 'part', '', ( #45 ) ) ;
#141 = DIRECTION ( 'NONE',  ( -1.000000000000000000, 0.0000000000000000000, 0.0000000000000000000 ) ) ;
#142 = SURFACE_STYLE_USAGE ( .BOTH. , #185 ) ;
#143 = PLANE ( 'NONE',  #163 ) ;
#144 = DIRECTION ( 'NONE',  ( -1.224646799147353207E-16, -0.0000000000000000000, -1.000000000000000000 ) ) ;
#145 = CARTESIAN_POINT ( 'NONE',  ( 0.0000000000000000000, 0.0000000000000000000, 1.953504000000000129 ) ) ;
#146 = DIRECTION ( 'NONE',  ( 1.000000000000000000, 0.0000000000000000000, 0.0000000000000000000 ) ) ;
#147 =( CONVERSION_BASED_UNIT ( 'INCH', #60 ) LENGTH_UNIT ( ) NAMED_UNIT ( #210 ) );
#148 = VECTOR ( 'NONE', #7, 39.37007874015748143 ) ;
#149 = AXIS2_PLACEMENT_3D ( 'NONE', #145, #194, #280 ) ;
#150 = CARTESIAN_POINT ( 'NONE',  ( -0.02359837800000000665, 0.0000000000000000000, 2.889967808276932569E-18 ) ) ;
#151 = ORIENTED_EDGE ( 'NONE', *, *, #209, .F. ) ;
#152 = ORIENTED_EDGE ( 'NONE', *, *, #5, .T. ) ;
#153 =( NAMED_UNIT ( * ) SI_UNIT ( $, .STERADIAN. ) SOLID_ANGLE_UNIT ( ) );
#154 = CIRCLE ( 'NONE', #277, 0.06374000000000018540 ) ;
#155 = EDGE_CURVE ( 'NONE', #178, #219, #289, .T. ) ;
#156 = EDGE_LOOP ( 'NONE', ( #15, #88, #259, #179 ) ) ;
#157 = VERTEX_POINT ( 'NONE', #255 ) ;
#158 = DIRECTION ( 'NONE',  ( 1.000000000000000000, 0.0000000000000000000, 0.0000000000000000000 ) ) ;
#159 = EDGE_LOOP ( 'NONE', ( #261, #14, #152, #207 ) ) ;
#160 = DIRECTION ( 'NONE',  ( 0.0000000000000000000, 0.0000000000000000000, -1.000000000000000000 ) ) ;
#161 = ORIENTED_EDGE ( 'NONE', *, *, #86, .T. ) ;
#162 = DIRECTION ( 'NONE',  ( 1.000000000000000000, 0.0000000000000000000, 0.0000000000000000000 ) ) ;
#163 = AXIS2_PLACEMENT_3D ( 'NONE', #168, #82, #181 ) ;
#164 = AXIS2_PLACEMENT_3D ( 'NONE', #124, #40, #215 ) ;
#165 = FACE_OUTER_BOUND ( 'NONE', #202, .T. ) ;
#166 = CARTESIAN_POINT ( 'NONE',  ( 1.832145090332389117E-17, 0.0000000000000000000, 0.1496059999999999890 ) ) ;
#167 = CARTESIAN_POINT ( 'NONE',  ( 1.832145090332389117E-17, 0.0000000000000000000, 0.1496059999999999890 ) ) ;
#168 = CARTESIAN_POINT ( 'NONE',  ( 0.0000000000000000000, 0.0000000000000000000, 1.968503999999999809 ) ) ;
#169 = AXIS2_PLACEMENT_3D ( 'NONE', #167, #59, #84 ) ;
#170 = CARTESIAN_POINT ( 'NONE',  ( -0.02359837800000000665, 0.0000000000000000000, 5.779935616553865137E-18 ) ) ;
#171 = DIRECTION ( 'NONE',  ( 0.0000000000000000000, 0.0000000000000000000, 1.000000000000000000 ) ) ;
#172 = DIRECTION ( 'NONE',  ( -0.0000000000000000000, -0.0000000000000000000, -1.000000000000000000 ) ) ;
#173 = CARTESIAN_POINT ( 'NONE',  ( -0.02359837799999998931, 2.889967808276932569E-18, 0.1496059999999999890 ) ) ;
#174 = APPLICATION_CONTEXT ( 'automotive_design' ) ;
#175 = DIRECTION ( 'NONE',  ( 1.000000000000000000, 0.0000000000000000000, 0.0000000000000000000 ) ) ;
#176 = APPLICATION_PROTOCOL_DEFINITION ( 'draft international standard', 'automotive_design', 1998, #174 ) ;
#177 = PRODUCT_CONTEXT ( 'NONE', #252, 'mechanical' ) ;
#178 = VERTEX_POINT ( 'NONE', #170 ) ;
#179 = ORIENTED_EDGE ( 'NONE', *, *, #123, .F. ) ;
#180 = CIRCLE ( 'NONE', #265, 0.02359837800000000665 ) ;
#181 = DIRECTION ( 'NONE',  ( 1.000000000000000000, 0.0000000000000000000, -0.0000000000000000000 ) ) ;
#182 = ORIENTED_EDGE ( 'NONE', *, *, #248, .F. ) ;
#183 = CYLINDRICAL_SURFACE ( 'NONE', #213, 0.07874000000000001831 ) ;
#184 = CARTESIAN_POINT ( 'NONE',  ( -0.07874000000000001831, 0.0000000000000000000, 1.953504000000000129 ) ) ;
#185 = SURFACE_SIDE_STYLE ('',( #2 ) ) ;
#186 = MECHANICAL_DESIGN_GEOMETRIC_PRESENTATION_REPRESENTATION (  '', ( #239 ), #109 ) ;
#187 = DIRECTION ( 'NONE',  ( -1.224646799147353207E-16, -0.0000000000000000000, -1.000000000000000000 ) ) ;
#188 = DIRECTION ( 'NONE',  ( -1.000000000000000000, 0.0000000000000000000, 0.0000000000000000000 ) ) ;
#189 = DIRECTION ( 'NONE',  ( -0.0000000000000000000, -0.0000000000000000000, -1.000000000000000000 ) ) ;
#190 = VECTOR ( 'NONE', #285, 39.37007874015748143 ) ;
#191 = DIRECTION ( 'NONE',  ( -1.224646799147353207E-16, -0.0000000000000000000, -1.000000000000000000 ) ) ;
#192 = EDGE_CURVE ( 'NONE', #219, #178, #180, .T. ) ;
#193 = CARTESIAN_POINT ( 'NONE',  ( 5.661905607456188872E-17, 0.0000000000000000000, 0.4623296783528303422 ) ) ;
#194 = DIRECTION ( 'NONE',  ( 0.0000000000000000000, 0.0000000000000000000, -1.000000000000000000 ) ) ;
#195 = CARTESIAN_POINT ( 'NONE',  ( 5.661905607456188872E-17, 0.0000000000000000000, 0.4623296783528303422 ) ) ;
#196 = AXIS2_PLACEMENT_3D ( 'NONE', #236, #191, #64 ) ;
#197 = SURFACE_STYLE_FILL_AREA ( #13 ) ;
#198 = EDGE_LOOP ( 'NONE', ( #133, #71 ) ) ;
#199 = VERTEX_POINT ( 'NONE', #97 ) ;
#200 = EDGE_CURVE ( 'NONE', #157, #113, #57, .T. ) ;
#201 = ORIENTED_EDGE ( 'NONE', *, *, #155, .F. ) ;
#202 = EDGE_LOOP ( 'NONE', ( #41, #67, #74, #182 ) ) ;
#203 = AXIS2_PLACEMENT_3D ( 'NONE', #195, #258, #175 ) ;
#204 = EDGE_LOOP ( 'NONE', ( #242, #117, #31, #46 ) ) ;
#205 = DIRECTION ( 'NONE',  ( 1.000000000000000000, 0.0000000000000000000, 0.0000000000000000000 ) ) ;
#206 = FACE_OUTER_BOUND ( 'NONE', #296, .T. ) ;
#207 = ORIENTED_EDGE ( 'NONE', *, *, #217, .F. ) ;
#208 = DIRECTION ( 'NONE',  ( -1.224646799147353207E-16, -0.0000000000000000000, -1.000000000000000000 ) ) ;
#209 = EDGE_CURVE ( 'NONE', #297, #135, #44, .T. ) ;
#210 = DIMENSIONAL_EXPONENTS ( 1.000000000000000000, 0.0000000000000000000, 0.0000000000000000000, 0.0000000000000000000, 0.0000000000000000000, 0.0000000000000000000, 0.0000000000000000000 ) ;
#211 = CARTESIAN_POINT ( 'NONE',  ( 0.06374000000000018540, 7.805898697765251255E-18, 1.968503999999999809 ) ) ;
#212 = EDGE_CURVE ( 'NONE', #157, #178, #262, .T. ) ;
#213 = AXIS2_PLACEMENT_3D ( 'NONE', #254, #1, #188 ) ;
#214 = DIRECTION ( 'NONE',  ( -1.224646799147353207E-16, -0.0000000000000000000, -1.000000000000000000 ) ) ;
#215 = DIRECTION ( 'NONE',  ( 1.000000000000000000, 0.0000000000000000000, 0.0000000000000000000 ) ) ;
#216 = LINE ( 'NONE', #260, #148 ) ;
#217 = EDGE_CURVE ( 'NONE', #113, #297, #103, .T. ) ;
#218 = DIRECTION ( 'NONE',  ( -1.000000000000000000, 0.0000000000000000000, 0.0000000000000000000 ) ) ;
#219 = VERTEX_POINT ( 'NONE', #101 ) ;
#220 = ORIENTED_EDGE ( 'NONE', *, *, #212, .F. ) ;
#221 = LENGTH_MEASURE_WITH_UNIT ( LENGTH_MEASURE( 0.02539999999999999897 ), #264 );
#222 = AXIS2_PLACEMENT_3D ( 'NONE', #91, #160, #141 ) ;
#223 = SURFACE_STYLE_USAGE ( .BOTH. , #89 ) ;
#224 = EDGE_CURVE ( 'NONE', #157, #135, #238, .T. ) ;
#225 = ORIENTED_EDGE ( 'NONE', *, *, #270, .F. ) ;
#226 = ORIENTED_EDGE ( 'NONE', *, *, #5, .F. ) ;
#227 = DIRECTION ( 'NONE',  ( -1.000000000000000000, 0.0000000000000000000, 0.0000000000000000000 ) ) ;
#228 = ADVANCED_FACE ( 'NONE', ( #11 ), #136, .T. ) ;
#229 = FACE_OUTER_BOUND ( 'NONE', #63, .T. ) ;
#230 =( CONVERSION_BASED_UNIT ( 'INCH', #21 ) LENGTH_UNIT ( ) NAMED_UNIT ( #98 ) );
#231 = PRODUCT_DEFINITION_CONTEXT ( 'detailed design', #174, 'design' ) ;
#232 = FACE_OUTER_BOUND ( 'NONE', #204, .T. ) ;
#233 = UNCERTAINTY_MEASURE_WITH_UNIT (LENGTH_MEASURE( 1.000000000000000082E-05 ), #230, 'distance_accuracy_value', 'NONE');
#234 = FACE_OUTER_BOUND ( 'NONE', #159, .T. ) ;
#235 = CYLINDRICAL_SURFACE ( 'NONE', #87, 0.07874000000000001831 ) ;
#236 = CARTESIAN_POINT ( 'NONE',  ( 3.539189826045237101E-34, 0.0000000000000000000, 2.889967808276932569E-18 ) ) ;
#237 = EDGE_CURVE ( 'NONE', #113, #219, #33, .T. ) ;
#238 = LINE ( 'NONE', #173, #65 ) ;
#239 = STYLED_ITEM ( 'NONE', ( #129 ), #138 ) ;
#240 = DIRECTION ( 'NONE',  ( 1.000000000000000000, 0.0000000000000000000, 0.0000000000000000000 ) ) ;
#241 = FACE_OUTER_BOUND ( 'NONE', #52, .T. ) ;
#242 = ORIENTED_EDGE ( 'NONE', *, *, #224, .F. ) ;
#243 = DIRECTION ( 'NONE',  ( 0.0000000000000000000, 0.0000000000000000000, 1.000000000000000000 ) ) ;
#244 = ORIENTED_EDGE ( 'NONE', *, *, #270, .T. ) ;
#245 = CIRCLE ( 'NONE', #120, 0.06374000000000018540 ) ;
#246 = EDGE_CURVE ( 'NONE', #38, #104, #127, .T. ) ;
#247 = CARTESIAN_POINT ( 'NONE',  ( 0.02359837800000002400, 0.0000000000000000000, 0.1496059999999999890 ) ) ;
#248 = EDGE_CURVE ( 'NONE', #104, #38, #251, .T. ) ;
#249 = DIRECTION ( 'NONE',  ( 0.7071067811865507924, 8.659560562354973534E-17, -0.7071067811865443531 ) ) ;
#250 = AXIS2_PLACEMENT_3D ( 'NONE', #166, #119, #158 ) ;
#251 = CIRCLE ( 'NONE', #85, 0.07874000000000001831 ) ;
#252 = APPLICATION_CONTEXT ( 'automotive_design' ) ;
#253 = DIRECTION ( 'NONE',  ( -1.224646799147353207E-16, -0.0000000000000000000, -1.000000000000000000 ) ) ;
#254 = CARTESIAN_POINT ( 'NONE',  ( 0.0000000000000000000, 0.0000000000000000000, 1.968503999999999809 ) ) ;
#255 = CARTESIAN_POINT ( 'NONE',  ( -0.02359837799999998931, 6.266418352381596887E-18, 0.1496059999999999890 ) ) ;
#256 = FACE_OUTER_BOUND ( 'NONE', #132, .T. ) ;
#257 = MECHANICAL_DESIGN_GEOMETRIC_PRESENTATION_REPRESENTATION (  '', ( #126 ), #293 ) ;
#258 = DIRECTION ( 'NONE',  ( -1.224646799147353207E-16, -0.0000000000000000000, -1.000000000000000000 ) ) ;
#259 = ORIENTED_EDGE ( 'NONE', *, *, #246, .F. ) ;
#260 = CARTESIAN_POINT ( 'NONE',  ( -0.07874000000000001831, 0.0000000000000000000, 1.968503999999999809 ) ) ;
#261 = ORIENTED_EDGE ( 'NONE', *, *, #200, .F. ) ;
#262 = LINE ( 'NONE', #150, #22 ) ;
#263 = ADVANCED_FACE ( 'NONE', ( #234 ), #272, .T. ) ;
#264 =( LENGTH_UNIT ( ) NAMED_UNIT ( * ) SI_UNIT ( $, .METRE. ) );
#265 = AXIS2_PLACEMENT_3D ( 'NONE', #6, #288, #102 ) ;
#266 = FILL_AREA_STYLE_COLOUR ( '', #278 ) ;
#267 = APPLICATION_PROTOCOL_DEFINITION ( 'draft international standard', 'automotive_design', 1998, #252 ) ;
#268 = ORIENTED_EDGE ( 'NONE', *, *, #192, .F. ) ;
#269 = ORIENTED_EDGE ( 'NONE', *, *, #286, .F. ) ;
#270 = EDGE_CURVE ( 'NONE', #104, #297, #125, .T. ) ;
#271 = PRESENTATION_LAYER_ASSIGNMENT (  '', '', ( #126 ) ) ;
#272 = CONICAL_SURFACE ( 'NONE', #164, 0.02359837800000000665, 0.1745329251994338915 ) ;
#273 = EDGE_LOOP ( 'NONE', ( #161, #61 ) ) ;
#274 = CARTESIAN_POINT ( 'NONE',  ( 1.832145090332389117E-17, 0.0000000000000000000, 0.1496059999999999890 ) ) ;
#275 = DIMENSIONAL_EXPONENTS ( 1.000000000000000000, 0.0000000000000000000, 0.0000000000000000000, 0.0000000000000000000, 0.0000000000000000000, 0.0000000000000000000, 0.0000000000000000000 ) ;
#276 = AXIS2_PLACEMENT_3D ( 'NONE', #274, #208, #227 ) ;
#277 = AXIS2_PLACEMENT_3D ( 'NONE', #81, #171, #146 ) ;
#278 = COLOUR_RGB ( '',0.7921568627450980005, 0.8196078431372548767, 0.9333333333333333481 ) ;
#279 = DIRECTION ( 'NONE',  ( -1.000000000000000000, 0.0000000000000000000, 1.224646799147353207E-16 ) ) ;
#280 = DIRECTION ( 'NONE',  ( 1.000000000000000000, 0.0000000000000000000, 0.0000000000000000000 ) ) ;
#281 = CARTESIAN_POINT ( 'NONE',  ( 0.02359837800000002400, 0.0000000000000000000, 0.1496059999999999890 ) ) ;
#282 = CONICAL_SURFACE ( 'NONE', #222, 0.06374000000000018540, 0.7853981633974528309 ) ;
#283 = PRODUCT_DEFINITION_FORMATION_WITH_SPECIFIED_SOURCE ( 'ANY', '', #45, .NOT_KNOWN. ) ;
#284 = DIRECTION ( 'NONE',  ( 0.0000000000000000000, 0.0000000000000000000, -1.000000000000000000 ) ) ;
#285 = DIRECTION ( 'NONE',  ( 0.1736481776669313859, 0.0000000000000000000, 0.9848077530122077983 ) ) ;
#286 = EDGE_CURVE ( 'NONE', #38, #135, #216, .T. ) ;
#287 = ORIENTED_EDGE ( 'NONE', *, *, #286, .T. ) ;
#288 = DIRECTION ( 'NONE',  ( -1.224646799147353207E-16, -0.0000000000000000000, -1.000000000000000000 ) ) ;
#289 = CIRCLE ( 'NONE', #196, 0.02359837800000000665 ) ;
#290 =( GEOMETRIC_REPRESENTATION_CONTEXT ( 3 ) GLOBAL_UNCERTAINTY_ASSIGNED_CONTEXT ( ( #48 ) ) GLOBAL_UNIT_ASSIGNED_CONTEXT ( ( #147, #128, #153 ) ) REPRESENTATION_CONTEXT ( 'NONE', 'WORKASPACE' ) );
#291 =( CONVERSION_BASED_UNIT ( 'INCH', #221 ) LENGTH_UNIT ( ) NAMED_UNIT ( #275 ) );
#292 = EDGE_CURVE ( 'NONE', #19, #199, #154, .T. ) ;
#293 =( GEOMETRIC_REPRESENTATION_CONTEXT ( 3 ) GLOBAL_UNCERTAINTY_ASSIGNED_CONTEXT ( ( #233 ) ) GLOBAL_UNIT_ASSIGNED_CONTEXT ( ( #230, #20, #114 ) ) REPRESENTATION_CONTEXT ( 'NONE', 'WORKASPACE' ) );
#294 = ORIENTED_EDGE ( 'NONE', *, *, #237, .T. ) ;
#295 = ORIENTED_EDGE ( 'NONE', *, *, #47, .T. ) ;
#296 = EDGE_LOOP ( 'NONE', ( #92, #294, #201, #220 ) ) ;
#297 = VERTEX_POINT ( 'NONE', #62 ) ;
#298 = CARTESIAN_POINT ( 'NONE',  ( 0.0000000000000000000, 0.0000000000000000000, 1.968503999999999809 ) ) ;
#299 = CYLINDRICAL_SURFACE ( 'NONE', #26, 0.02359837800000000665 ) ;
ENDSEC;
END-ISO-10303-21;
