ISO-10303-21;
HEADER;
FILE_DESCRIPTION (( 'STEP AP214' ),
    '1' );
FILE_NAME ('05892.STEP',
    '2023-06-22T16:25:22',
    ( '' ),
    ( '' ),
    'SwSTEP 2.0',
    'SolidWorks 2023',
    '' );
FILE_SCHEMA (( 'AUTOMOTIVE_DESIGN' ));
ENDSEC;

DATA;
#1 = LENGTH_MEASURE_WITH_UNIT ( LENGTH_MEASURE( 0.02539999999999999897 ), #161 );
#2 = EDGE_CURVE ( 'NONE', #52, #198, #272, .T. ) ;
#3 = DIRECTION ( 'NONE',  ( -0.000000000000000000, -1.000000000000000000, -0.000000000000000000 ) ) ;
#4 = FILL_AREA_STYLE ('',( #231 ) ) ;
#5 = PRESENTATION_LAYER_ASSIGNMENT (  '', '', ( #209 ) ) ;
#6 = EDGE_CURVE ( 'NONE', #33, #62, #63, .T. ) ;
#7 =( LENGTH_UNIT ( ) NAMED_UNIT ( * ) SI_UNIT ( $, .METRE. ) );
#8 = ORIENTED_EDGE ( 'NONE', *, *, #2, .F. ) ;
#9 = VECTOR ( 'NONE', #181, 39.37007874015748143 ) ;
#10 = AXIS2_PLACEMENT_3D ( 'NONE', #20, #281, #39 ) ;
#11 =( GEOMETRIC_REPRESENTATION_CONTEXT ( 3 ) GLOBAL_UNCERTAINTY_ASSIGNED_CONTEXT ( ( #186 ) ) GLOBAL_UNIT_ASSIGNED_CONTEXT ( ( #206, #88, #279 ) ) REPRESENTATION_CONTEXT ( 'NONE', 'WORKASPACE' ) );
#12 = EDGE_CURVE ( 'NONE', #196, #242, #102, .T. ) ;
#13 = CARTESIAN_POINT ( 'NONE',  ( 0.000000000000000000, 2.625000000000000000, -0.5000000000000000000 ) ) ;
#14 = DIRECTION ( 'NONE',  ( -2.578203787678635185E-17, 1.000000000000000000, 0.000000000000000000 ) ) ;
#15 = ORIENTED_EDGE ( 'NONE', *, *, #54, .T. ) ;
#16 = LENGTH_MEASURE_WITH_UNIT ( LENGTH_MEASURE( 0.02539999999999999897 ), #191 );
#17 = AXIS2_PLACEMENT_3D ( 'NONE', #241, #193, #280 ) ;
#18 = VECTOR ( 'NONE', #79, 39.37007874015748143 ) ;
#19 = EDGE_LOOP ( 'NONE', ( #222, #247, #176, #276 ) ) ;
#20 = CARTESIAN_POINT ( 'NONE',  ( 0.000000000000000000, 2.625000000000000000, 0.000000000000000000 ) ) ;
#21 = PRESENTATION_LAYER_ASSIGNMENT (  '', '', ( #263 ) ) ;
#22 = DIRECTION ( 'NONE',  ( -1.000000000000000000, 0.000000000000000000, 0.000000000000000000 ) ) ;
#23 = SURFACE_SIDE_STYLE ('',( #138 ) ) ;
#24 = CARTESIAN_POINT ( 'NONE',  ( 0.000000000000000000, 0.000000000000000000, -0.5000000000000000000 ) ) ;
#25 = AXIS2_PLACEMENT_3D ( 'NONE', #37, #153, #249 ) ;
#26 =( NAMED_UNIT ( * ) PLANE_ANGLE_UNIT ( ) SI_UNIT ( $, .RADIAN. ) );
#27 = FACE_OUTER_BOUND ( 'NONE', #95, .T. ) ;
#28 = MECHANICAL_DESIGN_GEOMETRIC_PRESENTATION_REPRESENTATION (  '', ( #305 ), #140 ) ;
#29 = FILL_AREA_STYLE_COLOUR ( '', #76 ) ;
#30 = DIRECTION ( 'NONE',  ( -2.578203787678635185E-17, 1.000000000000000000, -0.000000000000000000 ) ) ;
#31 = ORIENTED_EDGE ( 'NONE', *, *, #6, .F. ) ;
#32 =( GEOMETRIC_REPRESENTATION_CONTEXT ( 3 ) GLOBAL_UNCERTAINTY_ASSIGNED_CONTEXT ( ( #214 ) ) GLOBAL_UNIT_ASSIGNED_CONTEXT ( ( #71, #26, #46 ) ) REPRESENTATION_CONTEXT ( 'NONE', 'WORKASPACE' ) );
#33 = VERTEX_POINT ( 'NONE', #132 ) ;
#34 =( CONVERSION_BASED_UNIT ( 'INCH', #246 ) LENGTH_UNIT ( ) NAMED_UNIT ( #236 ) );
#35 = EDGE_LOOP ( 'NONE', ( #302, #83, #55, #171 ) ) ;
#36 = PRESENTATION_STYLE_ASSIGNMENT (( #248 ) ) ;
#37 = CARTESIAN_POINT ( 'NONE',  ( 0.000000000000000000, 2.625000000000000000, 0.000000000000000000 ) ) ;
#38 = CIRCLE ( 'NONE', #232, 0.5000000000000000000 ) ;
#39 = DIRECTION ( 'NONE',  ( 0.000000000000000000, -0.000000000000000000, 1.000000000000000000 ) ) ;
#40 = SURFACE_STYLE_FILL_AREA ( #229 ) ;
#41 = PRODUCT_CONTEXT ( 'NONE', #149, 'mechanical' ) ;
#42 = CLOSED_SHELL ( 'NONE', ( #97, #217, #135, #292 ) ) ;
#43 = CARTESIAN_POINT ( 'NONE',  ( 0.5000000000000000000, 5.000000000000000000, 6.123233995736766036E-17 ) ) ;
#44 = PRESENTATION_STYLE_ASSIGNMENT (( #306 ) ) ;
#45 = ADVANCED_FACE ( 'NONE', ( #156 ), #107, .T. ) ;
#46 =( NAMED_UNIT ( * ) SI_UNIT ( $, .STERADIAN. ) SOLID_ANGLE_UNIT ( ) );
#47 = CIRCLE ( 'NONE', #219, 0.5000000000000000000 ) ;
#48 =( NAMED_UNIT ( * ) SI_UNIT ( $, .STERADIAN. ) SOLID_ANGLE_UNIT ( ) );
#49 = SURFACE_SIDE_STYLE ('',( #261 ) ) ;
#50 = DIMENSIONAL_EXPONENTS ( 1.000000000000000000, 0.000000000000000000, 0.000000000000000000, 0.000000000000000000, 0.000000000000000000, 0.000000000000000000, 0.000000000000000000 ) ;
#51 = AXIS2_PLACEMENT_3D ( 'NONE', #221, #14, #78 ) ;
#52 = VERTEX_POINT ( 'NONE', #134 ) ;
#53 = CYLINDRICAL_SURFACE ( 'NONE', #91, 0.5000000000000000000 ) ;
#54 = EDGE_CURVE ( 'NONE', #62, #33, #139, .T. ) ;
#55 = ORIENTED_EDGE ( 'NONE', *, *, #262, .T. ) ;
#56 = CARTESIAN_POINT ( 'NONE',  ( 0.000000000000000000, 2.625000000000000000, 0.000000000000000000 ) ) ;
#57 = EDGE_LOOP ( 'NONE', ( #200, #268 ) ) ;
#58 = AXIS2_PLACEMENT_3D ( 'NONE', #56, #59, #298 ) ;
#59 = DIRECTION ( 'NONE',  ( -2.578203787678635493E-17, 1.000000000000000000, -0.000000000000000000 ) ) ;
#60 = ORIENTED_EDGE ( 'NONE', *, *, #240, .F. ) ;
#61 = SURFACE_STYLE_FILL_AREA ( #82 ) ;
#62 = VERTEX_POINT ( 'NONE', #43 ) ;
#63 = CIRCLE ( 'NONE', #173, 0.5000000000000001110 ) ;
#64 = MECHANICAL_DESIGN_GEOMETRIC_PRESENTATION_REPRESENTATION (  '', ( #209 ), #69 ) ;
#65 = PRODUCT_RELATED_PRODUCT_CATEGORY ( 'part', '', ( #165 ) ) ;
#66 = LINE ( 'NONE', #24, #244 ) ;
#67 = LENGTH_MEASURE_WITH_UNIT ( LENGTH_MEASURE( 0.02539999999999999897 ), #207 );
#68 = PRESENTATION_STYLE_ASSIGNMENT (( #251 ) ) ;
#69 =( GEOMETRIC_REPRESENTATION_CONTEXT ( 3 ) GLOBAL_UNCERTAINTY_ASSIGNED_CONTEXT ( ( #104 ) ) GLOBAL_UNIT_ASSIGNED_CONTEXT ( ( #154, #178, #48 ) ) REPRESENTATION_CONTEXT ( 'NONE', 'WORKASPACE' ) );
#70 = EDGE_CURVE ( 'NONE', #101, #62, #89, .T. ) ;
#71 =( CONVERSION_BASED_UNIT ( 'INCH', #1 ) LENGTH_UNIT ( ) NAMED_UNIT ( #230 ) );
#72 =( LENGTH_UNIT ( ) NAMED_UNIT ( * ) SI_UNIT ( $, .METRE. ) );
#73 = SURFACE_SIDE_STYLE ('',( #190 ) ) ;
#74 = UNCERTAINTY_MEASURE_WITH_UNIT (LENGTH_MEASURE( 1.000000000000000082E-05 ), #34, 'distance_accuracy_value', 'NONE');
#75 = DIRECTION ( 'NONE',  ( -1.000000000000000000, 0.000000000000000000, 0.000000000000000000 ) ) ;
#76 = COLOUR_RGB ( '',1.000000000000000000, 0.000000000000000000, 0.000000000000000000 ) ;
#77 = DIMENSIONAL_EXPONENTS ( 1.000000000000000000, 0.000000000000000000, 0.000000000000000000, 0.000000000000000000, 0.000000000000000000, 0.000000000000000000, 0.000000000000000000 ) ;
#78 = DIRECTION ( 'NONE',  ( -1.000000000000000000, -2.578203787678635185E-17, 0.000000000000000000 ) ) ;
#79 = DIRECTION ( 'NONE',  ( -0.000000000000000000, -1.000000000000000000, -0.000000000000000000 ) ) ;
#80 = ORIENTED_EDGE ( 'NONE', *, *, #6, .T. ) ;
#81 =( GEOMETRIC_REPRESENTATION_CONTEXT ( 3 ) GLOBAL_UNCERTAINTY_ASSIGNED_CONTEXT ( ( #137 ) ) GLOBAL_UNIT_ASSIGNED_CONTEXT ( ( #255, #226, #90 ) ) REPRESENTATION_CONTEXT ( 'NONE', 'WORKASPACE' ) );
#82 = FILL_AREA_STYLE ('',( #29 ) ) ;
#83 = ORIENTED_EDGE ( 'NONE', *, *, #299, .T. ) ;
#84 = ORIENTED_EDGE ( 'NONE', *, *, #70, .T. ) ;
#85 = CARTESIAN_POINT ( 'NONE',  ( 0.000000000000000000, 0.000000000000000000, 0.000000000000000000 ) ) ;
#86 = CARTESIAN_POINT ( 'NONE',  ( 0.000000000000000000, 0.000000000000000000, 0.000000000000000000 ) ) ;
#87 = CARTESIAN_POINT ( 'NONE',  ( -6.123233995736759873E-17, 5.000000000000000000, 0.000000000000000000 ) ) ;
#88 =( NAMED_UNIT ( * ) PLANE_ANGLE_UNIT ( ) SI_UNIT ( $, .RADIAN. ) );
#89 = LINE ( 'NONE', #136, #9 ) ;
#90 =( NAMED_UNIT ( * ) SI_UNIT ( $, .STERADIAN. ) SOLID_ANGLE_UNIT ( ) );
#91 = AXIS2_PLACEMENT_3D ( 'NONE', #269, #168, #75 ) ;
#92 =( NAMED_UNIT ( * ) PLANE_ANGLE_UNIT ( ) SI_UNIT ( $, .RADIAN. ) );
#93 = EDGE_CURVE ( 'NONE', #242, #196, #47, .T. ) ;
#94 =( NAMED_UNIT ( * ) PLANE_ANGLE_UNIT ( ) SI_UNIT ( $, .RADIAN. ) );
#95 = EDGE_LOOP ( 'NONE', ( #220, #270, #151, #295 ) ) ;
#96 = DIRECTION ( 'NONE',  ( 2.578203787678635185E-17, -1.000000000000000000, 0.000000000000000000 ) ) ;
#97 = ADVANCED_FACE ( 'NONE', ( #131 ), #203, .T. ) ;
#98 = CARTESIAN_POINT ( 'NONE',  ( 0.000000000000000000, 2.625000000000000000, 0.000000000000000000 ) ) ;
#99 = EDGE_LOOP ( 'NONE', ( #60, #8 ) ) ;
#100 = FACE_OUTER_BOUND ( 'NONE', #274, .T. ) ;
#101 = VERTEX_POINT ( 'NONE', #282 ) ;
#102 = CIRCLE ( 'NONE', #17, 0.5000000000000000000 ) ;
#103 = DIRECTION ( 'NONE',  ( -2.578203787678635493E-17, 1.000000000000000000, -0.000000000000000000 ) ) ;
#104 = UNCERTAINTY_MEASURE_WITH_UNIT (LENGTH_MEASURE( 1.000000000000000082E-05 ), #154, 'distance_accuracy_value', 'NONE');
#105 =( LENGTH_UNIT ( ) NAMED_UNIT ( * ) SI_UNIT ( $, .METRE. ) );
#106 = MANIFOLD_SOLID_BREP ( 'Revolve - Cutting Edge', #179 ) ;
#107 = PLANE ( 'NONE',  #223 ) ;
#108 =( CONVERSION_BASED_UNIT ( 'INCH', #202 ) LENGTH_UNIT ( ) NAMED_UNIT ( #50 ) );
#109 = DIRECTION ( 'NONE',  ( -2.578203787678635493E-17, 1.000000000000000000, -0.000000000000000000 ) ) ;
#110 = SURFACE_SIDE_STYLE ('',( #40 ) ) ;
#111 = CARTESIAN_POINT ( 'NONE',  ( -6.123233995736759873E-17, 5.000000000000000000, 0.000000000000000000 ) ) ;
#112 = PRESENTATION_LAYER_ASSIGNMENT (  '', '', ( #250 ) ) ;
#113 = MANIFOLD_SOLID_BREP ( 'Revolve - Tool Body (Straight Shanked)', #42 ) ;
#114 = PRODUCT_DEFINITION_CONTEXT ( 'detailed design', #164, 'design' ) ;
#115 = EDGE_CURVE ( 'NONE', #198, #242, #66, .T. ) ;
#116 = CYLINDRICAL_SURFACE ( 'NONE', #228, 0.5000000000000000000 ) ;
#117 = PRODUCT_DEFINITION_SHAPE ( 'NONE', 'NONE',  #208 ) ;
#118 = COLOUR_RGB ( '',1.000000000000000000, 0.000000000000000000, 0.000000000000000000 ) ;
#119 = FILL_AREA_STYLE_COLOUR ( '', #293 ) ;
#120 = ADVANCED_FACE ( 'NONE', ( #288 ), #287, .T. ) ;
#121 = DIRECTION ( 'NONE',  ( -0.000000000000000000, -1.000000000000000000, -0.000000000000000000 ) ) ;
#122 = DIRECTION ( 'NONE',  ( 0.000000000000000000, 0.000000000000000000, -1.000000000000000000 ) ) ;
#123 = MECHANICAL_DESIGN_GEOMETRIC_PRESENTATION_REPRESENTATION (  '', ( #162 ), #32 ) ;
#124 = VERTEX_POINT ( 'NONE', #235 ) ;
#125 = DIRECTION ( 'NONE',  ( 1.000000000000000000, 2.578203787678635185E-17, 0.000000000000000000 ) ) ;
#126 = ORIENTED_EDGE ( 'NONE', *, *, #185, .T. ) ;
#127 = PRESENTATION_STYLE_ASSIGNMENT (( #143 ) ) ;
#128 = ORIENTED_EDGE ( 'NONE', *, *, #299, .F. ) ;
#129 = AXIS2_PLACEMENT_3D ( 'NONE', #172, #294, #122 ) ;
#130 = ADVANCED_FACE ( 'NONE', ( #27 ), #116, .T. ) ;
#131 = FACE_OUTER_BOUND ( 'NONE', #245, .T. ) ;
#132 = CARTESIAN_POINT ( 'NONE',  ( -0.5000000000000001110, 5.000000000000000000, 0.000000000000000000 ) ) ;
#133 = APPLICATION_PROTOCOL_DEFINITION ( 'draft international standard', 'automotive_design', 1998, #164 ) ;
#134 = CARTESIAN_POINT ( 'NONE',  ( 6.123233995736766036E-17, 2.625000000000000000, 0.5000000000000000000 ) ) ;
#135 = ADVANCED_FACE ( 'NONE', ( #175 ), #53, .T. ) ;
#136 = CARTESIAN_POINT ( 'NONE',  ( 0.4999999999999999445, 5.000000000000000000, 6.123233995736766036E-17 ) ) ;
#137 = UNCERTAINTY_MEASURE_WITH_UNIT (LENGTH_MEASURE( 1.000000000000000082E-05 ), #255, 'distance_accuracy_value', 'NONE');
#138 = SURFACE_STYLE_FILL_AREA ( #286 ) ;
#139 = CIRCLE ( 'NONE', #308, 0.5000000000000001110 ) ;
#140 =( GEOMETRIC_REPRESENTATION_CONTEXT ( 3 ) GLOBAL_UNCERTAINTY_ASSIGNED_CONTEXT ( ( #167 ) ) GLOBAL_UNIT_ASSIGNED_CONTEXT ( ( #215, #92, #234 ) ) REPRESENTATION_CONTEXT ( 'NONE', 'WORKASPACE' ) );
#141 = DIRECTION ( 'NONE',  ( -0.000000000000000000, -1.000000000000000000, -0.000000000000000000 ) ) ;
#142 = CARTESIAN_POINT ( 'NONE',  ( 0.000000000000000000, 0.000000000000000000, 0.000000000000000000 ) ) ;
#143 = SURFACE_STYLE_USAGE ( .BOTH. , #49 ) ;
#144 = CIRCLE ( 'NONE', #58, 0.5000000000000000000 ) ;
#145 = PLANE ( 'NONE',  #51 ) ;
#146 = LINE ( 'NONE', #199, #309 ) ;
#147 = ORIENTED_EDGE ( 'NONE', *, *, #185, .F. ) ;
#148 = COLOUR_RGB ( '',1.000000000000000000, 0.000000000000000000, 0.000000000000000000 ) ;
#149 = APPLICATION_CONTEXT ( 'automotive_design' ) ;
#150 = DIRECTION ( 'NONE',  ( -1.000000000000000000, 0.000000000000000000, 0.000000000000000000 ) ) ;
#151 = ORIENTED_EDGE ( 'NONE', *, *, #93, .F. ) ;
#152 = SURFACE_SIDE_STYLE ('',( #61 ) ) ;
#153 = DIRECTION ( 'NONE',  ( -0.000000000000000000, -1.000000000000000000, -0.000000000000000000 ) ) ;
#154 =( CONVERSION_BASED_UNIT ( 'INCH', #307 ) LENGTH_UNIT ( ) NAMED_UNIT ( #189 ) );
#155 = MECHANICAL_DESIGN_GEOMETRIC_PRESENTATION_REPRESENTATION (  '', ( #250 ), #11 ) ;
#156 = FACE_OUTER_BOUND ( 'NONE', #57, .T. ) ;
#157 = DIRECTION ( 'NONE',  ( -1.000000000000000000, 0.000000000000000000, 0.000000000000000000 ) ) ;
#158 = FILL_AREA_STYLE_COLOUR ( '', #148 ) ;
#159 =( LENGTH_UNIT ( ) NAMED_UNIT ( * ) SI_UNIT ( $, .METRE. ) );
#160 = SURFACE_STYLE_USAGE ( .BOTH. , #73 ) ;
#161 =( LENGTH_UNIT ( ) NAMED_UNIT ( * ) SI_UNIT ( $, .METRE. ) );
#162 = STYLED_ITEM ( 'NONE', ( #291 ), #113 ) ;
#163 = SURFACE_STYLE_USAGE ( .BOTH. , #237 ) ;
#164 = APPLICATION_CONTEXT ( 'automotive_design' ) ;
#165 = PRODUCT ( '05892', '05892', '', ( #41 ) ) ;
#166 = FILL_AREA_STYLE ('',( #212 ) ) ;
#167 = UNCERTAINTY_MEASURE_WITH_UNIT (LENGTH_MEASURE( 1.000000000000000082E-05 ), #215, 'distance_accuracy_value', 'NONE');
#168 = DIRECTION ( 'NONE',  ( -2.578203787678635493E-17, 1.000000000000000000, -0.000000000000000000 ) ) ;
#169 = AXIS2_PLACEMENT_3D ( 'NONE', #239, #96, #125 ) ;
#170 = LINE ( 'NONE', #243, #18 ) ;
#171 = ORIENTED_EDGE ( 'NONE', *, *, #54, .F. ) ;
#172 = CARTESIAN_POINT ( 'NONE',  ( 0.000000000000000000, 2.625000000000000000, 0.000000000000000000 ) ) ;
#173 = AXIS2_PLACEMENT_3D ( 'NONE', #201, #103, #177 ) ;
#174 = AXIS2_PLACEMENT_3D ( 'NONE', #87, #278, #22 ) ;
#175 = FACE_OUTER_BOUND ( 'NONE', #35, .T. ) ;
#176 = ORIENTED_EDGE ( 'NONE', *, *, #115, .T. ) ;
#177 = DIRECTION ( 'NONE',  ( -1.000000000000000000, 0.000000000000000000, 0.000000000000000000 ) ) ;
#178 =( NAMED_UNIT ( * ) PLANE_ANGLE_UNIT ( ) SI_UNIT ( $, .RADIAN. ) );
#179 = CLOSED_SHELL ( 'NONE', ( #130, #303, #120, #45 ) ) ;
#180 = ADVANCED_BREP_SHAPE_REPRESENTATION ( '05892', ( #106, #113, #266 ), #258 ) ;
#181 = DIRECTION ( 'NONE',  ( -2.578203787678635185E-17, 1.000000000000000000, -0.000000000000000000 ) ) ;
#182 = DIRECTION ( 'NONE',  ( 0.000000000000000000, 0.000000000000000000, -1.000000000000000000 ) ) ;
#183 = MECHANICAL_DESIGN_GEOMETRIC_PRESENTATION_REPRESENTATION (  '', ( #263 ), #81 ) ;
#184 = COLOUR_RGB ( '',0.7921568627450980005, 0.8196078431372548767, 0.9333333333333333481 ) ;
#185 = EDGE_CURVE ( 'NONE', #124, #101, #144, .T. ) ;
#186 = UNCERTAINTY_MEASURE_WITH_UNIT (LENGTH_MEASURE( 1.000000000000000082E-05 ), #206, 'distance_accuracy_value', 'NONE');
#187 = AXIS2_PLACEMENT_3D ( 'NONE', #142, #141, #233 ) ;
#188 = EDGE_CURVE ( 'NONE', #52, #196, #170, .T. ) ;
#189 = DIMENSIONAL_EXPONENTS ( 1.000000000000000000, 0.000000000000000000, 0.000000000000000000, 0.000000000000000000, 0.000000000000000000, 0.000000000000000000, 0.000000000000000000 ) ;
#190 = SURFACE_STYLE_FILL_AREA ( #4 ) ;
#191 =( LENGTH_UNIT ( ) NAMED_UNIT ( * ) SI_UNIT ( $, .METRE. ) );
#192 = CARTESIAN_POINT ( 'NONE',  ( 6.123233995736766036E-17, 0.000000000000000000, 0.5000000000000000000 ) ) ;
#193 = DIRECTION ( 'NONE',  ( -0.000000000000000000, -1.000000000000000000, -0.000000000000000000 ) ) ;
#194 = MECHANICAL_DESIGN_GEOMETRIC_PRESENTATION_REPRESENTATION (  '', ( #301 ), #211 ) ;
#195 = DIRECTION ( 'NONE',  ( -2.578203787678635493E-17, 1.000000000000000000, -0.000000000000000000 ) ) ;
#196 = VERTEX_POINT ( 'NONE', #192 ) ;
#197 =( NAMED_UNIT ( * ) SI_UNIT ( $, .STERADIAN. ) SOLID_ANGLE_UNIT ( ) );
#198 = VERTEX_POINT ( 'NONE', #13 ) ;
#199 = CARTESIAN_POINT ( 'NONE',  ( -0.5000000000000001110, 5.000000000000000000, 0.000000000000000000 ) ) ;
#200 = ORIENTED_EDGE ( 'NONE', *, *, #93, .T. ) ;
#201 = CARTESIAN_POINT ( 'NONE',  ( -6.123233995736759873E-17, 5.000000000000000000, 0.000000000000000000 ) ) ;
#202 = LENGTH_MEASURE_WITH_UNIT ( LENGTH_MEASURE( 0.02539999999999999897 ), #105 );
#203 = CYLINDRICAL_SURFACE ( 'NONE', #174, 0.5000000000000000000 ) ;
#204 = COLOUR_RGB ( '',0.7921568627450980005, 0.8196078431372548767, 0.9333333333333333481 ) ;
#205 = CARTESIAN_POINT ( 'NONE',  ( 0.000000000000000000, 0.000000000000000000, 0.000000000000000000 ) ) ;
#206 =( CONVERSION_BASED_UNIT ( 'INCH', #16 ) LENGTH_UNIT ( ) NAMED_UNIT ( #77 ) );
#207 =( LENGTH_UNIT ( ) NAMED_UNIT ( * ) SI_UNIT ( $, .METRE. ) );
#208 = PRODUCT_DEFINITION ( 'UNKNOWN', '', #238, #114 ) ;
#209 = STYLED_ITEM ( 'NONE', ( #68 ), #106 ) ;
#210 = SURFACE_STYLE_FILL_AREA ( #256 ) ;
#211 =( GEOMETRIC_REPRESENTATION_CONTEXT ( 3 ) GLOBAL_UNCERTAINTY_ASSIGNED_CONTEXT ( ( #74 ) ) GLOBAL_UNIT_ASSIGNED_CONTEXT ( ( #34, #94, #197 ) ) REPRESENTATION_CONTEXT ( 'NONE', 'WORKASPACE' ) );
#212 = FILL_AREA_STYLE_COLOUR ( '', #118 ) ;
#213 = DIMENSIONAL_EXPONENTS ( 1.000000000000000000, 0.000000000000000000, 0.000000000000000000, 0.000000000000000000, 0.000000000000000000, 0.000000000000000000, 0.000000000000000000 ) ;
#214 = UNCERTAINTY_MEASURE_WITH_UNIT (LENGTH_MEASURE( 1.000000000000000082E-05 ), #71, 'distance_accuracy_value', 'NONE');
#215 =( CONVERSION_BASED_UNIT ( 'INCH', #260 ) LENGTH_UNIT ( ) NAMED_UNIT ( #213 ) );
#216 = ORIENTED_EDGE ( 'NONE', *, *, #262, .F. ) ;
#217 = ADVANCED_FACE ( 'NONE', ( #100 ), #145, .F. ) ;
#218 = CARTESIAN_POINT ( 'NONE',  ( 0.000000000000000000, 0.000000000000000000, 0.000000000000000000 ) ) ;
#219 = AXIS2_PLACEMENT_3D ( 'NONE', #205, #253, #182 ) ;
#220 = ORIENTED_EDGE ( 'NONE', *, *, #240, .T. ) ;
#221 = CARTESIAN_POINT ( 'NONE',  ( 1.661783692700115704E-34, 2.625000000000000000, 0.000000000000000000 ) ) ;
#222 = ORIENTED_EDGE ( 'NONE', *, *, #188, .F. ) ;
#223 = AXIS2_PLACEMENT_3D ( 'NONE', #85, #254, #225 ) ;
#224 = CIRCLE ( 'NONE', #129, 0.5000000000000000000 ) ;
#225 = DIRECTION ( 'NONE',  ( 0.000000000000000000, 0.000000000000000000, -1.000000000000000000 ) ) ;
#226 =( NAMED_UNIT ( * ) PLANE_ANGLE_UNIT ( ) SI_UNIT ( $, .RADIAN. ) );
#227 = SHAPE_DEFINITION_REPRESENTATION ( #117, #180 ) ;
#228 = AXIS2_PLACEMENT_3D ( 'NONE', #218, #121, #265 ) ;
#229 = FILL_AREA_STYLE ('',( #158 ) ) ;
#230 = DIMENSIONAL_EXPONENTS ( 1.000000000000000000, 0.000000000000000000, 0.000000000000000000, 0.000000000000000000, 0.000000000000000000, 0.000000000000000000, 0.000000000000000000 ) ;
#231 = FILL_AREA_STYLE_COLOUR ( '', #184 ) ;
#232 = AXIS2_PLACEMENT_3D ( 'NONE', #98, #195, #150 ) ;
#233 = DIRECTION ( 'NONE',  ( 0.000000000000000000, 0.000000000000000000, -1.000000000000000000 ) ) ;
#234 =( NAMED_UNIT ( * ) SI_UNIT ( $, .STERADIAN. ) SOLID_ANGLE_UNIT ( ) );
#235 = CARTESIAN_POINT ( 'NONE',  ( -0.5000000000000000000, 2.625000000000000000, 0.000000000000000000 ) ) ;
#236 = DIMENSIONAL_EXPONENTS ( 1.000000000000000000, 0.000000000000000000, 0.000000000000000000, 0.000000000000000000, 0.000000000000000000, 0.000000000000000000, 0.000000000000000000 ) ;
#237 = SURFACE_SIDE_STYLE ('',( #210 ) ) ;
#238 = PRODUCT_DEFINITION_FORMATION_WITH_SPECIFIED_SOURCE ( 'ANY', '', #165, .NOT_KNOWN. ) ;
#239 = CARTESIAN_POINT ( 'NONE',  ( 0.5000000000000000000, 5.000000000000000000, 0.000000000000000000 ) ) ;
#240 = EDGE_CURVE ( 'NONE', #198, #52, #224, .T. ) ;
#241 = CARTESIAN_POINT ( 'NONE',  ( 0.000000000000000000, 0.000000000000000000, 0.000000000000000000 ) ) ;
#242 = VERTEX_POINT ( 'NONE', #267 ) ;
#243 = CARTESIAN_POINT ( 'NONE',  ( 6.123233995736766036E-17, 0.000000000000000000, 0.5000000000000000000 ) ) ;
#244 = VECTOR ( 'NONE', #3, 39.37007874015748143 ) ;
#245 = EDGE_LOOP ( 'NONE', ( #126, #84, #31, #216 ) ) ;
#246 = LENGTH_MEASURE_WITH_UNIT ( LENGTH_MEASURE( 0.02539999999999999897 ), #7 );
#247 = ORIENTED_EDGE ( 'NONE', *, *, #2, .T. ) ;
#248 = SURFACE_STYLE_USAGE ( .BOTH. , #152 ) ;
#249 = DIRECTION ( 'NONE',  ( 0.000000000000000000, 0.000000000000000000, -1.000000000000000000 ) ) ;
#250 = STYLED_ITEM ( 'NONE', ( #36 ), #303 ) ;
#251 = SURFACE_STYLE_USAGE ( .BOTH. , #23 ) ;
#252 = APPLICATION_PROTOCOL_DEFINITION ( 'draft international standard', 'automotive_design', 1998, #149 ) ;
#253 = DIRECTION ( 'NONE',  ( -0.000000000000000000, -1.000000000000000000, -0.000000000000000000 ) ) ;
#254 = DIRECTION ( 'NONE',  ( 0.000000000000000000, -1.000000000000000000, -0.000000000000000000 ) ) ;
#255 =( CONVERSION_BASED_UNIT ( 'INCH', #67 ) LENGTH_UNIT ( ) NAMED_UNIT ( #257 ) );
#256 = FILL_AREA_STYLE ('',( #119 ) ) ;
#257 = DIMENSIONAL_EXPONENTS ( 1.000000000000000000, 0.000000000000000000, 0.000000000000000000, 0.000000000000000000, 0.000000000000000000, 0.000000000000000000, 0.000000000000000000 ) ;
#258 =( GEOMETRIC_REPRESENTATION_CONTEXT ( 3 ) GLOBAL_UNCERTAINTY_ASSIGNED_CONTEXT ( ( #259 ) ) GLOBAL_UNIT_ASSIGNED_CONTEXT ( ( #108, #304, #285 ) ) REPRESENTATION_CONTEXT ( 'NONE', 'WORKASPACE' ) );
#259 = UNCERTAINTY_MEASURE_WITH_UNIT (LENGTH_MEASURE( 1.000000000000000082E-05 ), #108, 'distance_accuracy_value', 'NONE');
#260 = LENGTH_MEASURE_WITH_UNIT ( LENGTH_MEASURE( 0.02539999999999999897 ), #72 );
#261 = SURFACE_STYLE_FILL_AREA ( #166 ) ;
#262 = EDGE_CURVE ( 'NONE', #124, #33, #146, .T. ) ;
#263 = STYLED_ITEM ( 'NONE', ( #44 ), #45 ) ;
#264 = PRESENTATION_LAYER_ASSIGNMENT (  '', '', ( #301 ) ) ;
#265 = DIRECTION ( 'NONE',  ( 0.000000000000000000, 0.000000000000000000, -1.000000000000000000 ) ) ;
#266 = AXIS2_PLACEMENT_3D ( 'NONE', #86, #277, #283 ) ;
#267 = CARTESIAN_POINT ( 'NONE',  ( 0.000000000000000000, 0.000000000000000000, -0.5000000000000000000 ) ) ;
#268 = ORIENTED_EDGE ( 'NONE', *, *, #12, .T. ) ;
#269 = CARTESIAN_POINT ( 'NONE',  ( -6.123233995736759873E-17, 5.000000000000000000, 0.000000000000000000 ) ) ;
#270 = ORIENTED_EDGE ( 'NONE', *, *, #188, .T. ) ;
#271 = PLANE ( 'NONE',  #169 ) ;
#272 = CIRCLE ( 'NONE', #25, 0.5000000000000000000 ) ;
#273 = PRESENTATION_LAYER_ASSIGNMENT (  '', '', ( #162 ) ) ;
#274 = EDGE_LOOP ( 'NONE', ( #147, #128 ) ) ;
#275 = FACE_OUTER_BOUND ( 'NONE', #297, .T. ) ;
#276 = ORIENTED_EDGE ( 'NONE', *, *, #12, .F. ) ;
#277 = DIRECTION ( 'NONE',  ( 0.000000000000000000, 0.000000000000000000, 1.000000000000000000 ) ) ;
#278 = DIRECTION ( 'NONE',  ( -2.578203787678635493E-17, 1.000000000000000000, -0.000000000000000000 ) ) ;
#279 =( NAMED_UNIT ( * ) SI_UNIT ( $, .STERADIAN. ) SOLID_ANGLE_UNIT ( ) );
#280 = DIRECTION ( 'NONE',  ( 0.000000000000000000, 0.000000000000000000, -1.000000000000000000 ) ) ;
#281 = DIRECTION ( 'NONE',  ( 0.000000000000000000, 1.000000000000000000, 0.000000000000000000 ) ) ;
#282 = CARTESIAN_POINT ( 'NONE',  ( 0.5000000000000000000, 2.625000000000000000, 6.123233995736766036E-17 ) ) ;
#283 = DIRECTION ( 'NONE',  ( 1.000000000000000000, 0.000000000000000000, 0.000000000000000000 ) ) ;
#284 = FILL_AREA_STYLE_COLOUR ( '', #204 ) ;
#285 =( NAMED_UNIT ( * ) SI_UNIT ( $, .STERADIAN. ) SOLID_ANGLE_UNIT ( ) );
#286 = FILL_AREA_STYLE ('',( #284 ) ) ;
#287 = CYLINDRICAL_SURFACE ( 'NONE', #187, 0.5000000000000000000 ) ;
#288 = FACE_OUTER_BOUND ( 'NONE', #19, .T. ) ;
#289 = PRESENTATION_LAYER_ASSIGNMENT (  '', '', ( #305 ) ) ;
#290 = PRESENTATION_STYLE_ASSIGNMENT (( #163 ) ) ;
#291 = PRESENTATION_STYLE_ASSIGNMENT (( #160 ) ) ;
#292 = ADVANCED_FACE ( 'NONE', ( #275 ), #271, .F. ) ;
#293 = COLOUR_RGB ( '',1.000000000000000000, 0.000000000000000000, 0.000000000000000000 ) ;
#294 = DIRECTION ( 'NONE',  ( -0.000000000000000000, -1.000000000000000000, -0.000000000000000000 ) ) ;
#295 = ORIENTED_EDGE ( 'NONE', *, *, #115, .F. ) ;
#296 = FACE_OUTER_BOUND ( 'NONE', #99, .T. ) ;
#297 = EDGE_LOOP ( 'NONE', ( #80, #15 ) ) ;
#298 = DIRECTION ( 'NONE',  ( -1.000000000000000000, 0.000000000000000000, 0.000000000000000000 ) ) ;
#299 = EDGE_CURVE ( 'NONE', #101, #124, #38, .T. ) ;
#300 = PLANE ( 'NONE',  #10 ) ;
#301 = STYLED_ITEM ( 'NONE', ( #127 ), #130 ) ;
#302 = ORIENTED_EDGE ( 'NONE', *, *, #70, .F. ) ;
#303 = ADVANCED_FACE ( 'NONE', ( #296 ), #300, .T. ) ;
#304 =( NAMED_UNIT ( * ) PLANE_ANGLE_UNIT ( ) SI_UNIT ( $, .RADIAN. ) );
#305 = STYLED_ITEM ( 'NONE', ( #290 ), #120 ) ;
#306 = SURFACE_STYLE_USAGE ( .BOTH. , #110 ) ;
#307 = LENGTH_MEASURE_WITH_UNIT ( LENGTH_MEASURE( 0.02539999999999999897 ), #159 );
#308 = AXIS2_PLACEMENT_3D ( 'NONE', #111, #109, #157 ) ;
#309 = VECTOR ( 'NONE', #30, 39.37007874015748143 ) ;
ENDSEC;
END-ISO-10303-21;
