ISO-10303-21;
HEADER;
FILE_DESCRIPTION (( 'STEP AP214' ),
    '1' );
FILE_NAME ('59468.STEP',
    '2023-07-24T15:07:05',
    ( '' ),
    ( '' ),
    'SwSTEP 2.0',
    'SolidWorks 2023',
    '' );
FILE_SCHEMA (( 'AUTOMOTIVE_DESIGN' ));
ENDSEC;

DATA;
#1 = FACE_OUTER_BOUND ( 'NONE', #158, .T. ) ;
#2 = ADVANCED_FACE ( 'NONE', ( #96 ), #39, .F. ) ;
#3 = CIRCLE ( 'NONE', #263, 6.000000000000001776 ) ;
#4 = EDGE_LOOP ( 'NONE', ( #6, #304 ) ) ;
#5 = EDGE_CURVE ( 'NONE', #312, #82, #3, .T. ) ;
#6 = ORIENTED_EDGE ( 'NONE', *, *, #160, .F. ) ;
#7 = AXIS2_PLACEMENT_3D ( 'NONE', #143, #363, #316 ) ;
#8 = STYLED_ITEM ( 'NONE', ( #162 ), #292 ) ;
#9 = FACE_OUTER_BOUND ( 'NONE', #4, .T. ) ;
#10 =( NAMED_UNIT ( * ) SI_UNIT ( $, .STERADIAN. ) SOLID_ANGLE_UNIT ( ) );
#11 = SHAPE_DEFINITION_REPRESENTATION ( #63, #305 ) ;
#12 = CIRCLE ( 'NONE', #355, 5.500000000000000000 ) ;
#13 = SURFACE_STYLE_FILL_AREA ( #297 ) ;
#14 = FILL_AREA_STYLE ('',( #151 ) ) ;
#15 = ORIENTED_EDGE ( 'NONE', *, *, #185, .T. ) ;
#16 = UNCERTAINTY_MEASURE_WITH_UNIT (LENGTH_MEASURE( 1.000000000000000082E-05 ), #126, 'distance_accuracy_value', 'NONE');
#17 = EDGE_CURVE ( 'NONE', #350, #293, #354, .T. ) ;
#18 = PRESENTATION_STYLE_ASSIGNMENT (( #45 ) ) ;
#19 = SURFACE_STYLE_FILL_AREA ( #42 ) ;
#20 = CARTESIAN_POINT ( 'NONE',  ( 0.000000000000000000, 18.00000000000000000, 0.000000000000000000 ) ) ;
#21 = EDGE_LOOP ( 'NONE', ( #25, #109, #278, #130 ) ) ;
#22 = EDGE_CURVE ( 'NONE', #352, #52, #98, .T. ) ;
#23 = DIRECTION ( 'NONE',  ( -1.208874916035850209E-16, 1.000000000000000000, -0.000000000000000000 ) ) ;
#24 = DIRECTION ( 'NONE',  ( -1.208874916035850209E-16, 1.000000000000000000, -0.000000000000000000 ) ) ;
#25 = ORIENTED_EDGE ( 'NONE', *, *, #58, .F. ) ;
#26 = AXIS2_PLACEMENT_3D ( 'NONE', #166, #114, #223 ) ;
#27 = MECHANICAL_DESIGN_GEOMETRIC_PRESENTATION_REPRESENTATION (  '', ( #368 ), #203 ) ;
#28 = DIRECTION ( 'NONE',  ( 0.000000000000000000, 0.000000000000000000, -1.000000000000000000 ) ) ;
#29 = CARTESIAN_POINT ( 'NONE',  ( 0.000000000000000000, 0.5000000000000000000, -6.000000000000000000 ) ) ;
#30 = CIRCLE ( 'NONE', #254, 5.999999999999994671 ) ;
#31 = CARTESIAN_POINT ( 'NONE',  ( -1.469576158976823750E-15, 75.00000000000000000, 0.000000000000000000 ) ) ;
#32 = MECHANICAL_DESIGN_GEOMETRIC_PRESENTATION_REPRESENTATION (  '', ( #249 ), #285 ) ;
#33 = CARTESIAN_POINT ( 'NONE',  ( 0.000000000000000000, 0.000000000000000000, 0.000000000000000000 ) ) ;
#34 = SURFACE_STYLE_USAGE ( .BOTH. , #318 ) ;
#35 = DIRECTION ( 'NONE',  ( 0.000000000000000000, 0.000000000000000000, -1.000000000000000000 ) ) ;
#36 = CIRCLE ( 'NONE', #26, 5.500000000000000000 ) ;
#37 = AXIS2_PLACEMENT_3D ( 'NONE', #165, #197, #315 ) ;
#38 = DIRECTION ( 'NONE',  ( -1.208874916035850209E-16, 1.000000000000000000, -0.000000000000000000 ) ) ;
#39 = PLANE ( 'NONE',  #7 ) ;
#40 = CLOSED_SHELL ( 'NONE', ( #282, #325, #177, #131, #286, #85 ) ) ;
#41 = MECHANICAL_DESIGN_GEOMETRIC_PRESENTATION_REPRESENTATION (  '', ( #260 ), #310 ) ;
#42 = FILL_AREA_STYLE ('',( #268 ) ) ;
#43 = EDGE_LOOP ( 'NONE', ( #192, #200 ) ) ;
#44 = UNCERTAINTY_MEASURE_WITH_UNIT (LENGTH_MEASURE( 1.000000000000000082E-05 ), #326, 'distance_accuracy_value', 'NONE');
#45 = SURFACE_STYLE_USAGE ( .BOTH. , #71 ) ;
#46 = DIRECTION ( 'NONE',  ( 0.000000000000000000, -0.000000000000000000, 1.000000000000000000 ) ) ;
#47 =( GEOMETRIC_REPRESENTATION_CONTEXT ( 3 ) GLOBAL_UNCERTAINTY_ASSIGNED_CONTEXT ( ( #238 ) ) GLOBAL_UNIT_ASSIGNED_CONTEXT ( ( #215, #137, #88 ) ) REPRESENTATION_CONTEXT ( 'NONE', 'WORKASPACE' ) );
#48 =( GEOMETRIC_REPRESENTATION_CONTEXT ( 3 ) GLOBAL_UNCERTAINTY_ASSIGNED_CONTEXT ( ( #332 ) ) GLOBAL_UNIT_ASSIGNED_CONTEXT ( ( #118, #221, #276 ) ) REPRESENTATION_CONTEXT ( 'NONE', 'WORKASPACE' ) );
#49 = PRODUCT_DEFINITION_CONTEXT ( 'detailed design', #65, 'design' ) ;
#50 = FILL_AREA_STYLE_COLOUR ( '', #334 ) ;
#51 = DIRECTION ( 'NONE',  ( -0.000000000000000000, -1.000000000000000000, -0.000000000000000000 ) ) ;
#52 = VERTEX_POINT ( 'NONE', #327 ) ;
#53 = DIRECTION ( 'NONE',  ( -1.000000000000000000, 0.000000000000000000, 0.000000000000000000 ) ) ;
#54 = ORIENTED_EDGE ( 'NONE', *, *, #17, .F. ) ;
#55 = CIRCLE ( 'NONE', #141, 6.000000000000000000 ) ;
#56 = FACE_OUTER_BOUND ( 'NONE', #43, .T. ) ;
#57 = ORIENTED_EDGE ( 'NONE', *, *, #161, .T. ) ;
#58 = EDGE_CURVE ( 'NONE', #311, #312, #245, .T. ) ;
#59 = CARTESIAN_POINT ( 'NONE',  ( 6.000000000000000000, 18.00000000000000355, 7.347880794884119736E-16 ) ) ;
#60 = PRESENTATION_LAYER_ASSIGNMENT (  '', '', ( #301 ) ) ;
#61 = PRODUCT_DEFINITION_FORMATION_WITH_SPECIFIED_SOURCE ( 'ANY', '', #321, .NOT_KNOWN. ) ;
#62 = LINE ( 'NONE', #144, #212 ) ;
#63 = PRODUCT_DEFINITION_SHAPE ( 'NONE', 'NONE',  #307 ) ;
#64 =( NAMED_UNIT ( * ) SI_UNIT ( $, .STERADIAN. ) SOLID_ANGLE_UNIT ( ) );
#65 = APPLICATION_CONTEXT ( 'automotive_design' ) ;
#66 = DIRECTION ( 'NONE',  ( -0.000000000000000000, -1.000000000000000000, -0.000000000000000000 ) ) ;
#67 =( GEOMETRIC_REPRESENTATION_CONTEXT ( 3 ) GLOBAL_UNCERTAINTY_ASSIGNED_CONTEXT ( ( #149 ) ) GLOBAL_UNIT_ASSIGNED_CONTEXT ( ( #296, #330, #187 ) ) REPRESENTATION_CONTEXT ( 'NONE', 'WORKASPACE' ) );
#68 = CARTESIAN_POINT ( 'NONE',  ( 0.000000000000000000, 0.000000000000000000, 0.000000000000000000 ) ) ;
#69 = CARTESIAN_POINT ( 'NONE',  ( 0.000000000000000000, 0.5000000000000000000, 0.000000000000000000 ) ) ;
#70 = CARTESIAN_POINT ( 'NONE',  ( 0.000000000000000000, 0.000000000000000000, 0.000000000000000000 ) ) ;
#71 = SURFACE_SIDE_STYLE ('',( #269 ) ) ;
#72 = PRESENTATION_STYLE_ASSIGNMENT (( #101 ) ) ;
#73 = DIRECTION ( 'NONE',  ( -1.000000000000000000, 0.000000000000000000, 0.000000000000000000 ) ) ;
#74 = CIRCLE ( 'NONE', #92, 5.999999999999994671 ) ;
#75 =( NAMED_UNIT ( * ) PLANE_ANGLE_UNIT ( ) SI_UNIT ( $, .RADIAN. ) );
#76 = DIRECTION ( 'NONE',  ( 0.000000000000000000, 0.000000000000000000, 1.000000000000000000 ) ) ;
#77 = FACE_OUTER_BOUND ( 'NONE', #283, .T. ) ;
#78 = ORIENTED_EDGE ( 'NONE', *, *, #58, .T. ) ;
#79 = MECHANICAL_DESIGN_GEOMETRIC_PRESENTATION_REPRESENTATION (  '', ( #168 ), #176 ) ;
#80 = PRESENTATION_LAYER_ASSIGNMENT (  '', '', ( #104 ) ) ;
#81 = FILL_AREA_STYLE_COLOUR ( '', #233 ) ;
#82 = VERTEX_POINT ( 'NONE', #265 ) ;
#83 =( NAMED_UNIT ( * ) PLANE_ANGLE_UNIT ( ) SI_UNIT ( $, .RADIAN. ) );
#84 = CARTESIAN_POINT ( 'NONE',  ( 0.000000000000000000, 0.5000000000000000000, 0.000000000000000000 ) ) ;
#85 = ADVANCED_FACE ( 'NONE', ( #189 ), #182, .T. ) ;
#86 = ORIENTED_EDGE ( 'NONE', *, *, #160, .T. ) ;
#87 = PRESENTATION_LAYER_ASSIGNMENT (  '', '', ( #366 ) ) ;
#88 =( NAMED_UNIT ( * ) SI_UNIT ( $, .STERADIAN. ) SOLID_ANGLE_UNIT ( ) );
#89 = CARTESIAN_POINT ( 'NONE',  ( 0.000000000000000000, 0.000000000000000000, -5.500000000000000000 ) ) ;
#90 = ORIENTED_EDGE ( 'NONE', *, *, #22, .T. ) ;
#91 = SURFACE_STYLE_FILL_AREA ( #273 ) ;
#92 = AXIS2_PLACEMENT_3D ( 'NONE', #284, #108, #53 ) ;
#93 = AXIS2_PLACEMENT_3D ( 'NONE', #206, #358, #35 ) ;
#94 = ORIENTED_EDGE ( 'NONE', *, *, #331, .F. ) ;
#95 = DIRECTION ( 'NONE',  ( -1.208874916035850209E-16, 1.000000000000000000, -0.000000000000000000 ) ) ;
#96 = FACE_OUTER_BOUND ( 'NONE', #341, .T. ) ;
#97 = DIRECTION ( 'NONE',  ( 0.000000000000000000, 0.000000000000000000, -1.000000000000000000 ) ) ;
#98 = CIRCLE ( 'NONE', #110, 6.000000000000000000 ) ;
#99 = TOROIDAL_SURFACE ( 'NONE', #93, 5.500000000000000000, 0.5000000000000002220 ) ;
#100 = DIRECTION ( 'NONE',  ( 0.000000000000000000, 0.000000000000000000, 1.000000000000000000 ) ) ;
#101 = SURFACE_STYLE_USAGE ( .BOTH. , #364 ) ;
#102 = UNCERTAINTY_MEASURE_WITH_UNIT (LENGTH_MEASURE( 1.000000000000000082E-05 ), #281, 'distance_accuracy_value', 'NONE');
#103 = ORIENTED_EDGE ( 'NONE', *, *, #331, .T. ) ;
#104 = STYLED_ITEM ( 'NONE', ( #216 ), #289 ) ;
#105 = CARTESIAN_POINT ( 'NONE',  ( 6.735557395310442023E-16, 0.5000000000000000000, 5.500000000000000000 ) ) ;
#106 = FILL_AREA_STYLE_COLOUR ( '', #146 ) ;
#107 = CARTESIAN_POINT ( 'NONE',  ( 0.000000000000000000, 0.000000000000000000, 0.000000000000000000 ) ) ;
#108 = DIRECTION ( 'NONE',  ( -1.208874916035850209E-16, 1.000000000000000000, -0.000000000000000000 ) ) ;
#109 = ORIENTED_EDGE ( 'NONE', *, *, #214, .T. ) ;
#110 = AXIS2_PLACEMENT_3D ( 'NONE', #154, #266, #274 ) ;
#111 = MECHANICAL_DESIGN_GEOMETRIC_PRESENTATION_REPRESENTATION (  '', ( #104 ), #48 ) ;
#112 = DIRECTION ( 'NONE',  ( 0.000000000000000000, 0.000000000000000000, -1.000000000000000000 ) ) ;
#113 =( NAMED_UNIT ( * ) SI_UNIT ( $, .STERADIAN. ) SOLID_ANGLE_UNIT ( ) );
#114 = DIRECTION ( 'NONE',  ( -0.000000000000000000, -1.000000000000000000, -0.000000000000000000 ) ) ;
#115 = EDGE_CURVE ( 'NONE', #225, #152, #324, .T. ) ;
#116 = AXIS2_PLACEMENT_3D ( 'NONE', #70, #180, #264 ) ;
#117 = DIRECTION ( 'NONE',  ( -0.000000000000000000, -1.000000000000000000, -0.000000000000000000 ) ) ;
#118 =( LENGTH_UNIT ( ) NAMED_UNIT ( * ) SI_UNIT ( .MILLI., .METRE. ) );
#119 = CIRCLE ( 'NONE', #348, 6.000000000000000000 ) ;
#120 = AXIS2_PLACEMENT_3D ( 'NONE', #107, #258, #112 ) ;
#121 = CARTESIAN_POINT ( 'NONE',  ( 7.347880794884119736E-16, 0.5000000000000000000, 6.000000000000000000 ) ) ;
#122 = APPLICATION_PROTOCOL_DEFINITION ( 'draft international standard', 'automotive_design', 1998, #164 ) ;
#123 =( NAMED_UNIT ( * ) SI_UNIT ( $, .STERADIAN. ) SOLID_ANGLE_UNIT ( ) );
#124 = AXIS2_PLACEMENT_3D ( 'NONE', #20, #302, #46 ) ;
#125 = FACE_OUTER_BOUND ( 'NONE', #213, .T. ) ;
#126 =( LENGTH_UNIT ( ) NAMED_UNIT ( * ) SI_UNIT ( .MILLI., .METRE. ) );
#127 = UNCERTAINTY_MEASURE_WITH_UNIT (LENGTH_MEASURE( 1.000000000000000082E-05 ), #361, 'distance_accuracy_value', 'NONE');
#128 =( LENGTH_UNIT ( ) NAMED_UNIT ( * ) SI_UNIT ( .MILLI., .METRE. ) );
#129 = CARTESIAN_POINT ( 'NONE',  ( 5.999999999999996447, 75.00000000000000000, 7.347880794884117764E-16 ) ) ;
#130 = ORIENTED_EDGE ( 'NONE', *, *, #5, .F. ) ;
#131 = ADVANCED_FACE ( 'NONE', ( #77 ), #271, .T. ) ;
#132 = SURFACE_SIDE_STYLE ('',( #370 ) ) ;
#133 = DIRECTION ( 'NONE',  ( -1.000000000000000000, 0.000000000000000000, 0.000000000000000000 ) ) ;
#134 = MECHANICAL_DESIGN_GEOMETRIC_PRESENTATION_REPRESENTATION (  '', ( #366 ), #47 ) ;
#135 = DIRECTION ( 'NONE',  ( -0.000000000000000000, -1.000000000000000000, -0.000000000000000000 ) ) ;
#136 = PRESENTATION_LAYER_ASSIGNMENT (  '', '', ( #249 ) ) ;
#137 =( NAMED_UNIT ( * ) PLANE_ANGLE_UNIT ( ) SI_UNIT ( $, .RADIAN. ) );
#138 = SURFACE_STYLE_USAGE ( .BOTH. , #193 ) ;
#139 = VERTEX_POINT ( 'NONE', #243 ) ;
#140 = LINE ( 'NONE', #204, #240 ) ;
#141 = AXIS2_PLACEMENT_3D ( 'NONE', #170, #253, #172 ) ;
#142 = CARTESIAN_POINT ( 'NONE',  ( 5.421010862427522170E-15, 18.00000000000000000, 0.000000000000000000 ) ) ;
#143 = CARTESIAN_POINT ( 'NONE',  ( 6.000000000000000000, 75.00000000000000000, 0.000000000000000000 ) ) ;
#144 = CARTESIAN_POINT ( 'NONE',  ( 7.347880794884119736E-16, 0.000000000000000000, 6.000000000000000000 ) ) ;
#145 = PRODUCT_CONTEXT ( 'NONE', #164, 'mechanical' ) ;
#146 = COLOUR_RGB ( '',1.000000000000000000, 0.000000000000000000, 0.000000000000000000 ) ;
#147 = MECHANICAL_DESIGN_GEOMETRIC_PRESENTATION_REPRESENTATION (  '', ( #8 ), #287 ) ;
#148 = CARTESIAN_POINT ( 'NONE',  ( 7.347880794884119736E-16, 18.00000000000000000, 6.000000000000000000 ) ) ;
#149 = UNCERTAINTY_MEASURE_WITH_UNIT (LENGTH_MEASURE( 1.000000000000000082E-05 ), #296, 'distance_accuracy_value', 'NONE');
#150 = ADVANCED_FACE ( 'NONE', ( #313 ), #194, .T. ) ;
#151 = FILL_AREA_STYLE_COLOUR ( '', #155 ) ;
#152 = VERTEX_POINT ( 'NONE', #89 ) ;
#153 = SURFACE_SIDE_STYLE ('',( #186 ) ) ;
#154 = CARTESIAN_POINT ( 'NONE',  ( 0.000000000000000000, 18.00000000000000000, 0.000000000000000000 ) ) ;
#155 = COLOUR_RGB ( '',1.000000000000000000, 0.000000000000000000, 0.000000000000000000 ) ;
#156 = COLOUR_RGB ( '',1.000000000000000000, 0.000000000000000000, 0.000000000000000000 ) ;
#157 =( NAMED_UNIT ( * ) SI_UNIT ( $, .STERADIAN. ) SOLID_ANGLE_UNIT ( ) );
#158 = EDGE_LOOP ( 'NONE', ( #86, #78, #167, #241 ) ) ;
#159 = PRODUCT_RELATED_PRODUCT_CATEGORY ( 'part', '', ( #321 ) ) ;
#160 = EDGE_CURVE ( 'NONE', #139, #311, #30, .T. ) ;
#161 = EDGE_CURVE ( 'NONE', #52, #225, #198, .T. ) ;
#162 = PRESENTATION_STYLE_ASSIGNMENT (( #138 ) ) ;
#163 = CARTESIAN_POINT ( 'NONE',  ( 0.000000000000000000, 0.000000000000000000, -6.000000000000000000 ) ) ;
#164 = APPLICATION_CONTEXT ( 'automotive_design' ) ;
#165 = CARTESIAN_POINT ( 'NONE',  ( -1.469576158976823750E-15, 75.00000000000000000, 0.000000000000000000 ) ) ;
#166 = CARTESIAN_POINT ( 'NONE',  ( 0.000000000000000000, 0.000000000000000000, 0.000000000000000000 ) ) ;
#167 = ORIENTED_EDGE ( 'NONE', *, *, #299, .F. ) ;
#168 = STYLED_ITEM ( 'NONE', ( #329 ), #282 ) ;
#169 = SURFACE_SIDE_STYLE ('',( #275 ) ) ;
#170 = CARTESIAN_POINT ( 'NONE',  ( 0.000000000000000000, 18.00000000000000000, 0.000000000000000000 ) ) ;
#171 = EDGE_LOOP ( 'NONE', ( #220, #251 ) ) ;
#172 = DIRECTION ( 'NONE',  ( 0.000000000000000000, 0.000000000000000000, -1.000000000000000000 ) ) ;
#173 = AXIS2_PLACEMENT_3D ( 'NONE', #335, #133, #76 ) ;
#174 = CARTESIAN_POINT ( 'NONE',  ( -1.469576158976823750E-15, 75.00000000000000000, 0.000000000000000000 ) ) ;
#175 = FILL_AREA_STYLE ('',( #50 ) ) ;
#176 =( GEOMETRIC_REPRESENTATION_CONTEXT ( 3 ) GLOBAL_UNCERTAINTY_ASSIGNED_CONTEXT ( ( #267 ) ) GLOBAL_UNIT_ASSIGNED_CONTEXT ( ( #128, #261, #123 ) ) REPRESENTATION_CONTEXT ( 'NONE', 'WORKASPACE' ) );
#177 = ADVANCED_FACE ( 'NONE', ( #56 ), #195, .T. ) ;
#178 = DIRECTION ( 'NONE',  ( 1.000000000000000000, 0.000000000000000000, 0.000000000000000000 ) ) ;
#179 = ORIENTED_EDGE ( 'NONE', *, *, #115, .T. ) ;
#180 = DIRECTION ( 'NONE',  ( -0.000000000000000000, -1.000000000000000000, -0.000000000000000000 ) ) ;
#181 = AXIS2_PLACEMENT_3D ( 'NONE', #347, #217, #340 ) ;
#182 = PLANE ( 'NONE',  #124 ) ;
#183 = AXIS2_PLACEMENT_3D ( 'NONE', #69, #323, #259 ) ;
#184 = UNCERTAINTY_MEASURE_WITH_UNIT (LENGTH_MEASURE( 1.000000000000000082E-05 ), #320, 'distance_accuracy_value', 'NONE');
#185 = EDGE_CURVE ( 'NONE', #52, #352, #55, .T. ) ;
#186 = SURFACE_STYLE_FILL_AREA ( #298 ) ;
#187 =( NAMED_UNIT ( * ) SI_UNIT ( $, .STERADIAN. ) SOLID_ANGLE_UNIT ( ) );
#188 = EDGE_LOOP ( 'NONE', ( #15, #103, #280, #346 ) ) ;
#189 = FACE_OUTER_BOUND ( 'NONE', #171, .T. ) ;
#190 = PRESENTATION_LAYER_ASSIGNMENT (  '', '', ( #168 ) ) ;
#191 = VECTOR ( 'NONE', #135, 1000.000000000000000 ) ;
#192 = ORIENTED_EDGE ( 'NONE', *, *, #242, .T. ) ;
#193 = SURFACE_SIDE_STYLE ('',( #257 ) ) ;
#194 = CYLINDRICAL_SURFACE ( 'NONE', #277, 5.999999999999998224 ) ;
#195 = PLANE ( 'NONE',  #211 ) ;
#196 = ORIENTED_EDGE ( 'NONE', *, *, #17, .T. ) ;
#197 = DIRECTION ( 'NONE',  ( -1.208874916035850209E-16, 1.000000000000000000, -0.000000000000000000 ) ) ;
#198 = LINE ( 'NONE', #163, #191 ) ;
#199 = AXIS2_PLACEMENT_3D ( 'NONE', #84, #51, #28 ) ;
#200 = ORIENTED_EDGE ( 'NONE', *, *, #319, .T. ) ;
#201 = CARTESIAN_POINT ( 'NONE',  ( 0.000000000000000000, 0.000000000000000000, 0.000000000000000000 ) ) ;
#202 = ORIENTED_EDGE ( 'NONE', *, *, #319, .F. ) ;
#203 =( GEOMETRIC_REPRESENTATION_CONTEXT ( 3 ) GLOBAL_UNCERTAINTY_ASSIGNED_CONTEXT ( ( #16 ) ) GLOBAL_UNIT_ASSIGNED_CONTEXT ( ( #126, #75, #113 ) ) REPRESENTATION_CONTEXT ( 'NONE', 'WORKASPACE' ) );
#204 = CARTESIAN_POINT ( 'NONE',  ( -6.000000000000000000, 75.00000000000000000, 0.000000000000000000 ) ) ;
#205 = CIRCLE ( 'NONE', #37, 6.000000000000001776 ) ;
#206 = CARTESIAN_POINT ( 'NONE',  ( 0.000000000000000000, 0.5000000000000000000, 0.000000000000000000 ) ) ;
#207 = DIRECTION ( 'NONE',  ( -1.224646799147353454E-16, 0.000000000000000000, -1.000000000000000000 ) ) ;
#208 = SURFACE_STYLE_USAGE ( .BOTH. , #210 ) ;
#209 = PLANE ( 'NONE',  #349 ) ;
#210 = SURFACE_SIDE_STYLE ('',( #13 ) ) ;
#211 = AXIS2_PLACEMENT_3D ( 'NONE', #201, #279, #252 ) ;
#212 = VECTOR ( 'NONE', #66, 1000.000000000000000 ) ;
#213 = EDGE_LOOP ( 'NONE', ( #94, #90, #57, #270 ) ) ;
#214 = EDGE_CURVE ( 'NONE', #311, #139, #74, .T. ) ;
#215 =( LENGTH_UNIT ( ) NAMED_UNIT ( * ) SI_UNIT ( .MILLI., .METRE. ) );
#216 = PRESENTATION_STYLE_ASSIGNMENT (( #367 ) ) ;
#217 = DIRECTION ( 'NONE',  ( -1.208874916035850209E-16, 1.000000000000000000, -0.000000000000000000 ) ) ;
#218 = AXIS2_PLACEMENT_3D ( 'NONE', #105, #338, #207 ) ;
#219 = CIRCLE ( 'NONE', #183, 6.000000000000000000 ) ;
#220 = ORIENTED_EDGE ( 'NONE', *, *, #185, .F. ) ;
#221 =( NAMED_UNIT ( * ) PLANE_ANGLE_UNIT ( ) SI_UNIT ( $, .RADIAN. ) );
#222 =( NAMED_UNIT ( * ) SI_UNIT ( $, .STERADIAN. ) SOLID_ANGLE_UNIT ( ) );
#223 = DIRECTION ( 'NONE',  ( 0.000000000000000000, 0.000000000000000000, -1.000000000000000000 ) ) ;
#224 = CYLINDRICAL_SURFACE ( 'NONE', #181, 5.999999999999998224 ) ;
#225 = VERTEX_POINT ( 'NONE', #29 ) ;
#226 = COLOUR_RGB ( '',1.000000000000000000, 0.000000000000000000, 0.000000000000000000 ) ;
#227 = ADVANCED_FACE ( 'NONE', ( #1 ), #224, .T. ) ;
#228 = FACE_OUTER_BOUND ( 'NONE', #314, .T. ) ;
#229 = MECHANICAL_DESIGN_GEOMETRIC_PRESENTATION_REPRESENTATION (  '', ( #301 ), #67 ) ;
#230 = DIRECTION ( 'NONE',  ( -0.000000000000000000, -1.000000000000000000, -0.000000000000000000 ) ) ;
#231 = DIRECTION ( 'NONE',  ( -1.208874916035850209E-16, 1.000000000000000000, 0.000000000000000000 ) ) ;
#232 = DIRECTION ( 'NONE',  ( -1.000000000000000000, -1.208874916035850209E-16, 0.000000000000000000 ) ) ;
#233 = COLOUR_RGB ( '',1.000000000000000000, 0.000000000000000000, 0.000000000000000000 ) ;
#234 = PRESENTATION_LAYER_ASSIGNMENT (  '', '', ( #8 ) ) ;
#235 = PRESENTATION_LAYER_ASSIGNMENT (  '', '', ( #368 ) ) ;
#236 = ORIENTED_EDGE ( 'NONE', *, *, #115, .F. ) ;
#237 = CYLINDRICAL_SURFACE ( 'NONE', #120, 6.000000000000000000 ) ;
#238 = UNCERTAINTY_MEASURE_WITH_UNIT (LENGTH_MEASURE( 1.000000000000000082E-05 ), #215, 'distance_accuracy_value', 'NONE');
#239 = SURFACE_STYLE_USAGE ( .BOTH. , #153 ) ;
#240 = VECTOR ( 'NONE', #38, 1000.000000000000000 ) ;
#241 = ORIENTED_EDGE ( 'NONE', *, *, #336, .F. ) ;
#242 = EDGE_CURVE ( 'NONE', #152, #293, #36, .T. ) ;
#243 = CARTESIAN_POINT ( 'NONE',  ( -5.999999999999989342, 18.00000000000000355, 0.000000000000000000 ) ) ;
#244 = DIRECTION ( 'NONE',  ( 0.000000000000000000, 0.000000000000000000, -1.000000000000000000 ) ) ;
#245 = LINE ( 'NONE', #129, #333 ) ;
#246 = ORIENTED_EDGE ( 'NONE', *, *, #359, .T. ) ;
#247 = FILL_AREA_STYLE_COLOUR ( '', #291 ) ;
#248 = DIRECTION ( 'NONE',  ( -1.208874916035850209E-16, 1.000000000000000000, -0.000000000000000000 ) ) ;
#249 = STYLED_ITEM ( 'NONE', ( #309 ), #177 ) ;
#250 = FILL_AREA_STYLE ('',( #247 ) ) ;
#251 = ORIENTED_EDGE ( 'NONE', *, *, #22, .F. ) ;
#252 = DIRECTION ( 'NONE',  ( 0.000000000000000000, 0.000000000000000000, -1.000000000000000000 ) ) ;
#253 = DIRECTION ( 'NONE',  ( -0.000000000000000000, -1.000000000000000000, -0.000000000000000000 ) ) ;
#254 = AXIS2_PLACEMENT_3D ( 'NONE', #342, #24, #351 ) ;
#255 = EDGE_CURVE ( 'NONE', #225, #350, #119, .T. ) ;
#256 = SURFACE_STYLE_USAGE ( .BOTH. , #169 ) ;
#257 = SURFACE_STYLE_FILL_AREA ( #175 ) ;
#258 = DIRECTION ( 'NONE',  ( -0.000000000000000000, -1.000000000000000000, -0.000000000000000000 ) ) ;
#259 = DIRECTION ( 'NONE',  ( 0.000000000000000000, 0.000000000000000000, -1.000000000000000000 ) ) ;
#260 = STYLED_ITEM ( 'NONE', ( #288 ), #325 ) ;
#261 =( NAMED_UNIT ( * ) PLANE_ANGLE_UNIT ( ) SI_UNIT ( $, .RADIAN. ) );
#262 = APPLICATION_PROTOCOL_DEFINITION ( 'draft international standard', 'automotive_design', 1998, #65 ) ;
#263 = AXIS2_PLACEMENT_3D ( 'NONE', #174, #95, #73 ) ;
#264 = DIRECTION ( 'NONE',  ( 0.000000000000000000, 0.000000000000000000, -1.000000000000000000 ) ) ;
#265 = CARTESIAN_POINT ( 'NONE',  ( -6.000000000000003553, 75.00000000000000000, 0.000000000000000000 ) ) ;
#266 = DIRECTION ( 'NONE',  ( -0.000000000000000000, -1.000000000000000000, -0.000000000000000000 ) ) ;
#267 = UNCERTAINTY_MEASURE_WITH_UNIT (LENGTH_MEASURE( 1.000000000000000082E-05 ), #128, 'distance_accuracy_value', 'NONE');
#268 = FILL_AREA_STYLE_COLOUR ( '', #226 ) ;
#269 = SURFACE_STYLE_FILL_AREA ( #14 ) ;
#270 = ORIENTED_EDGE ( 'NONE', *, *, #359, .F. ) ;
#271 = TOROIDAL_SURFACE ( 'NONE', #199, 5.500000000000000000, 0.5000000000000002220 ) ;
#272 = PRESENTATION_STYLE_ASSIGNMENT (( #239 ) ) ;
#273 = FILL_AREA_STYLE ('',( #353 ) ) ;
#274 = DIRECTION ( 'NONE',  ( 0.000000000000000000, 0.000000000000000000, -1.000000000000000000 ) ) ;
#275 = SURFACE_STYLE_FILL_AREA ( #308 ) ;
#276 =( NAMED_UNIT ( * ) SI_UNIT ( $, .STERADIAN. ) SOLID_ANGLE_UNIT ( ) );
#277 = AXIS2_PLACEMENT_3D ( 'NONE', #31, #248, #369 ) ;
#278 = ORIENTED_EDGE ( 'NONE', *, *, #336, .T. ) ;
#279 = DIRECTION ( 'NONE',  ( 0.000000000000000000, -1.000000000000000000, -0.000000000000000000 ) ) ;
#280 = ORIENTED_EDGE ( 'NONE', *, *, #255, .F. ) ;
#281 =( LENGTH_UNIT ( ) NAMED_UNIT ( * ) SI_UNIT ( .MILLI., .METRE. ) );
#282 = ADVANCED_FACE ( 'NONE', ( #357 ), #322, .T. ) ;
#283 = EDGE_LOOP ( 'NONE', ( #54, #246, #179, #202 ) ) ;
#284 = CARTESIAN_POINT ( 'NONE',  ( 5.421010862427522170E-15, 18.00000000000000355, 0.000000000000000000 ) ) ;
#285 =( GEOMETRIC_REPRESENTATION_CONTEXT ( 3 ) GLOBAL_UNCERTAINTY_ASSIGNED_CONTEXT ( ( #102 ) ) GLOBAL_UNIT_ASSIGNED_CONTEXT ( ( #281, #306, #222 ) ) REPRESENTATION_CONTEXT ( 'NONE', 'WORKASPACE' ) );
#286 = ADVANCED_FACE ( 'NONE', ( #125 ), #237, .T. ) ;
#287 =( GEOMETRIC_REPRESENTATION_CONTEXT ( 3 ) GLOBAL_UNCERTAINTY_ASSIGNED_CONTEXT ( ( #184 ) ) GLOBAL_UNIT_ASSIGNED_CONTEXT ( ( #320, #83, #157 ) ) REPRESENTATION_CONTEXT ( 'NONE', 'WORKASPACE' ) );
#288 = PRESENTATION_STYLE_ASSIGNMENT (( #34 ) ) ;
#289 = MANIFOLD_SOLID_BREP ( 'Revolve - Cutting Edge', #40 ) ;
#290 =( NAMED_UNIT ( * ) PLANE_ANGLE_UNIT ( ) SI_UNIT ( $, .RADIAN. ) );
#291 = COLOUR_RGB ( '',0.7921568627450980005, 0.8196078431372548767, 0.9333333333333333481 ) ;
#292 = MANIFOLD_SOLID_BREP ( 'Revolve - Tool Body (Straight Shanked)', #339 ) ;
#293 = VERTEX_POINT ( 'NONE', #344 ) ;
#294 = AXIS2_PLACEMENT_3D ( 'NONE', #68, #100, #178 ) ;
#295 = FILL_AREA_STYLE_COLOUR ( '', #362 ) ;
#296 =( LENGTH_UNIT ( ) NAMED_UNIT ( * ) SI_UNIT ( .MILLI., .METRE. ) );
#297 = FILL_AREA_STYLE ('',( #295 ) ) ;
#298 = FILL_AREA_STYLE ('',( #106 ) ) ;
#299 = EDGE_CURVE ( 'NONE', #82, #312, #205, .T. ) ;
#300 = ORIENTED_EDGE ( 'NONE', *, *, #242, .F. ) ;
#301 = STYLED_ITEM ( 'NONE', ( #18 ), #85 ) ;
#302 = DIRECTION ( 'NONE',  ( 0.000000000000000000, 1.000000000000000000, 0.000000000000000000 ) ) ;
#303 =( GEOMETRIC_REPRESENTATION_CONTEXT ( 3 ) GLOBAL_UNCERTAINTY_ASSIGNED_CONTEXT ( ( #127 ) ) GLOBAL_UNIT_ASSIGNED_CONTEXT ( ( #361, #328, #10 ) ) REPRESENTATION_CONTEXT ( 'NONE', 'WORKASPACE' ) );
#304 = ORIENTED_EDGE ( 'NONE', *, *, #214, .F. ) ;
#305 = ADVANCED_BREP_SHAPE_REPRESENTATION ( '59468', ( #289, #292, #294 ), #303 ) ;
#306 =( NAMED_UNIT ( * ) PLANE_ANGLE_UNIT ( ) SI_UNIT ( $, .RADIAN. ) );
#307 = PRODUCT_DEFINITION ( 'UNKNOWN', '', #61, #49 ) ;
#308 = FILL_AREA_STYLE ('',( #81 ) ) ;
#309 = PRESENTATION_STYLE_ASSIGNMENT (( #256 ) ) ;
#310 =( GEOMETRIC_REPRESENTATION_CONTEXT ( 3 ) GLOBAL_UNCERTAINTY_ASSIGNED_CONTEXT ( ( #44 ) ) GLOBAL_UNIT_ASSIGNED_CONTEXT ( ( #326, #290, #64 ) ) REPRESENTATION_CONTEXT ( 'NONE', 'WORKASPACE' ) );
#311 = VERTEX_POINT ( 'NONE', #59 ) ;
#312 = VERTEX_POINT ( 'NONE', #356 ) ;
#313 = FACE_OUTER_BOUND ( 'NONE', #21, .T. ) ;
#314 = EDGE_LOOP ( 'NONE', ( #365, #196, #300, #236 ) ) ;
#315 = DIRECTION ( 'NONE',  ( -1.000000000000000000, 0.000000000000000000, 0.000000000000000000 ) ) ;
#316 = DIRECTION ( 'NONE',  ( 1.000000000000000000, 1.208874916035850209E-16, 0.000000000000000000 ) ) ;
#317 = PRESENTATION_LAYER_ASSIGNMENT (  '', '', ( #260 ) ) ;
#318 = SURFACE_SIDE_STYLE ('',( #91 ) ) ;
#319 = EDGE_CURVE ( 'NONE', #293, #152, #12, .T. ) ;
#320 =( LENGTH_UNIT ( ) NAMED_UNIT ( * ) SI_UNIT ( .MILLI., .METRE. ) );
#321 = PRODUCT ( '59468', '59468', '', ( #145 ) ) ;
#322 = CYLINDRICAL_SURFACE ( 'NONE', #116, 6.000000000000000000 ) ;
#323 = DIRECTION ( 'NONE',  ( -0.000000000000000000, -1.000000000000000000, -0.000000000000000000 ) ) ;
#324 = CIRCLE ( 'NONE', #173, 0.5000000000000004441 ) ;
#325 = ADVANCED_FACE ( 'NONE', ( #228 ), #99, .T. ) ;
#326 =( LENGTH_UNIT ( ) NAMED_UNIT ( * ) SI_UNIT ( .MILLI., .METRE. ) );
#327 = CARTESIAN_POINT ( 'NONE',  ( 0.000000000000000000, 18.00000000000000000, -6.000000000000000000 ) ) ;
#328 =( NAMED_UNIT ( * ) PLANE_ANGLE_UNIT ( ) SI_UNIT ( $, .RADIAN. ) );
#329 = PRESENTATION_STYLE_ASSIGNMENT (( #208 ) ) ;
#330 =( NAMED_UNIT ( * ) PLANE_ANGLE_UNIT ( ) SI_UNIT ( $, .RADIAN. ) );
#331 = EDGE_CURVE ( 'NONE', #352, #350, #62, .T. ) ;
#332 = UNCERTAINTY_MEASURE_WITH_UNIT (LENGTH_MEASURE( 1.000000000000000082E-05 ), #118, 'distance_accuracy_value', 'NONE');
#333 = VECTOR ( 'NONE', #23, 1000.000000000000000 ) ;
#334 = COLOUR_RGB ( '',0.7921568627450980005, 0.8196078431372548767, 0.9333333333333333481 ) ;
#335 = CARTESIAN_POINT ( 'NONE',  ( 0.000000000000000000, 0.5000000000000000000, -5.500000000000000000 ) ) ;
#336 = EDGE_CURVE ( 'NONE', #139, #82, #140, .T. ) ;
#337 = ORIENTED_EDGE ( 'NONE', *, *, #5, .T. ) ;
#338 = DIRECTION ( 'NONE',  ( 1.000000000000000000, 0.000000000000000000, -1.224646799147353207E-16 ) ) ;
#339 = CLOSED_SHELL ( 'NONE', ( #227, #360, #150, #2 ) ) ;
#340 = DIRECTION ( 'NONE',  ( -1.000000000000000000, 0.000000000000000000, 0.000000000000000000 ) ) ;
#341 = EDGE_LOOP ( 'NONE', ( #343, #337 ) ) ;
#342 = CARTESIAN_POINT ( 'NONE',  ( 5.421010862427522170E-15, 18.00000000000000355, 0.000000000000000000 ) ) ;
#343 = ORIENTED_EDGE ( 'NONE', *, *, #299, .T. ) ;
#344 = CARTESIAN_POINT ( 'NONE',  ( 7.041719095097280880E-16, 0.000000000000000000, 5.500000000000000000 ) ) ;
#345 = CARTESIAN_POINT ( 'NONE',  ( 0.000000000000000000, 0.5000000000000000000, 0.000000000000000000 ) ) ;
#346 = ORIENTED_EDGE ( 'NONE', *, *, #161, .F. ) ;
#347 = CARTESIAN_POINT ( 'NONE',  ( -1.469576158976823750E-15, 75.00000000000000000, 0.000000000000000000 ) ) ;
#348 = AXIS2_PLACEMENT_3D ( 'NONE', #345, #230, #97 ) ;
#349 = AXIS2_PLACEMENT_3D ( 'NONE', #142, #231, #232 ) ;
#350 = VERTEX_POINT ( 'NONE', #121 ) ;
#351 = DIRECTION ( 'NONE',  ( -1.000000000000000000, 0.000000000000000000, 0.000000000000000000 ) ) ;
#352 = VERTEX_POINT ( 'NONE', #148 ) ;
#353 = FILL_AREA_STYLE_COLOUR ( '', #156 ) ;
#354 = CIRCLE ( 'NONE', #218, 0.5000000000000004441 ) ;
#355 = AXIS2_PLACEMENT_3D ( 'NONE', #33, #117, #244 ) ;
#356 = CARTESIAN_POINT ( 'NONE',  ( 6.000000000000000000, 75.00000000000000000, 7.347880794884119736E-16 ) ) ;
#357 = FACE_OUTER_BOUND ( 'NONE', #188, .T. ) ;
#358 = DIRECTION ( 'NONE',  ( -0.000000000000000000, -1.000000000000000000, -0.000000000000000000 ) ) ;
#359 = EDGE_CURVE ( 'NONE', #350, #225, #219, .T. ) ;
#360 = ADVANCED_FACE ( 'NONE', ( #9 ), #209, .F. ) ;
#361 =( LENGTH_UNIT ( ) NAMED_UNIT ( * ) SI_UNIT ( .MILLI., .METRE. ) );
#362 = COLOUR_RGB ( '',1.000000000000000000, 0.000000000000000000, 0.000000000000000000 ) ;
#363 = DIRECTION ( 'NONE',  ( 1.208874916035850209E-16, -1.000000000000000000, 0.000000000000000000 ) ) ;
#364 = SURFACE_SIDE_STYLE ('',( #19 ) ) ;
#365 = ORIENTED_EDGE ( 'NONE', *, *, #255, .T. ) ;
#366 = STYLED_ITEM ( 'NONE', ( #272 ), #131 ) ;
#367 = SURFACE_STYLE_USAGE ( .BOTH. , #132 ) ;
#368 = STYLED_ITEM ( 'NONE', ( #72 ), #286 ) ;
#369 = DIRECTION ( 'NONE',  ( -1.000000000000000000, 0.000000000000000000, 0.000000000000000000 ) ) ;
#370 = SURFACE_STYLE_FILL_AREA ( #250 ) ;
ENDSEC;
END-ISO-10303-21;
