ISO-10303-21;
HEADER;
FILE_DESCRIPTION (( 'STEP AP214' ),
    '1' );
FILE_NAME ('Micro_SEM-140-04X.STEP',
    '2021-09-02T01:44:18',
    ( '' ),
    ( '' ),
    'SwSTEP 2.0',
    'SolidWorks 2020',
    '' );
FILE_SCHEMA (( 'AUTOMOTIVE_DESIGN' ));
ENDSEC;

DATA;
#1 = APPLICATION_CONTEXT ( 'automotive_design' ) ;
#2 = EDGE_LOOP ( 'NONE', ( #100, #209, #292, #77 ) ) ;
#3 = VERTEX_POINT ( 'NONE', #172 ) ;
#4 = DIRECTION ( 'NONE',  ( 1.000000000000000000, 0.0000000000000000000, 0.0000000000000000000 ) ) ;
#5 = ORIENTED_EDGE ( 'NONE', *, *, #39, .F. ) ;
#6 = PRODUCT_RELATED_PRODUCT_CATEGORY ( 'part', '', ( #142 ) ) ;
#7 = DIRECTION ( 'NONE',  ( 1.000000000000000000, 0.0000000000000000000, -0.0000000000000000000 ) ) ;
#8 = APPLICATION_CONTEXT ( 'automotive_design' ) ;
#9 = ORIENTED_EDGE ( 'NONE', *, *, #68, .F. ) ;
#10 = CIRCLE ( 'NONE', #294, 0.09375000000000001388 ) ;
#11 = CARTESIAN_POINT ( 'NONE',  ( 0.0000000000000000000, 0.0000000000000000000, 1.500000000000000222 ) ) ;
#12 = ADVANCED_FACE ( 'NONE', ( #35 ), #83, .T. ) ;
#13 = DIRECTION ( 'NONE',  ( -1.000000000000000000, 0.0000000000000000000, 0.0000000000000000000 ) ) ;
#14 = ORIENTED_EDGE ( 'NONE', *, *, #275, .T. ) ;
#15 = VECTOR ( 'NONE', #112, 39.37007874015748143 ) ;
#16 = CARTESIAN_POINT ( 'NONE',  ( 3.061616997868383634E-17, 0.0000000000000000000, 0.2500000000000000000 ) ) ;
#17 = AXIS2_PLACEMENT_3D ( 'NONE', #49, #124, #212 ) ;
#18 = EDGE_CURVE ( 'NONE', #259, #145, #261, .T. ) ;
#19 = DIRECTION ( 'NONE',  ( -1.224646799147353454E-16, -0.0000000000000000000, -1.000000000000000000 ) ) ;
#20 = DIRECTION ( 'NONE',  ( 1.224646799147353454E-16, 0.0000000000000000000, 1.000000000000000000 ) ) ;
#21 = LINE ( 'NONE', #158, #15 ) ;
#22 = VECTOR ( 'NONE', #43, 39.37007874015748143 ) ;
#23 = PLANE ( 'NONE',  #103 ) ;
#24 = ORIENTED_EDGE ( 'NONE', *, *, #134, .T. ) ;
#25 = ORIENTED_EDGE ( 'NONE', *, *, #165, .T. ) ;
#26 =( CONVERSION_BASED_UNIT ( 'INCH', #231 ) LENGTH_UNIT ( ) NAMED_UNIT ( #290 ) );
#27 = DIRECTION ( 'NONE',  ( 1.000000000000000000, 0.0000000000000000000, 0.0000000000000000000 ) ) ;
#28 = MANIFOLD_SOLID_BREP ( 'Cut-Revolve1', #53 ) ;
#29 = EDGE_LOOP ( 'NONE', ( #230, #211, #284, #75 ) ) ;
#30 = CIRCLE ( 'NONE', #97, 0.07875000000000061118 ) ;
#31 = CIRCLE ( 'NONE', #72, 0.09375000000000001388 ) ;
#32 = AXIS2_PLACEMENT_3D ( 'NONE', #95, #282, #283 ) ;
#33 = ADVANCED_FACE ( 'NONE', ( #199 ), #127, .T. ) ;
#34 = ORIENTED_EDGE ( 'NONE', *, *, #18, .T. ) ;
#35 = FACE_OUTER_BOUND ( 'NONE', #162, .T. ) ;
#36 = DIRECTION ( 'NONE',  ( 0.1736481776669314414, 0.0000000000000000000, 0.9848077530122077983 ) ) ;
#37 = SURFACE_STYLE_USAGE ( .BOTH. , #105 ) ;
#38 = FACE_OUTER_BOUND ( 'NONE', #146, .T. ) ;
#39 = EDGE_CURVE ( 'NONE', #213, #206, #130, .T. ) ;
#40 = CONICAL_SURFACE ( 'NONE', #137, 0.07875000000000061118, 0.7853981633974562726 ) ;
#41 = DIRECTION ( 'NONE',  ( -1.000000000000000000, 0.0000000000000000000, 0.0000000000000000000 ) ) ;
#42 = STYLED_ITEM ( 'NONE', ( #166 ), #52 ) ;
#43 = DIRECTION ( 'NONE',  ( -1.224646799147353454E-16, -0.0000000000000000000, -1.000000000000000000 ) ) ;
#44 = DIMENSIONAL_EXPONENTS ( 1.000000000000000000, 0.0000000000000000000, 0.0000000000000000000, 0.0000000000000000000, 0.0000000000000000000, 0.0000000000000000000, 0.0000000000000000000 ) ;
#45 = LINE ( 'NONE', #295, #80 ) ;
#46 = DIRECTION ( 'NONE',  ( 0.0000000000000000000, 0.0000000000000000000, -1.000000000000000000 ) ) ;
#47 = ADVANCED_FACE ( 'NONE', ( #293 ), #174, .T. ) ;
#48 = AXIS2_PLACEMENT_3D ( 'NONE', #260, #208, #163 ) ;
#49 = CARTESIAN_POINT ( 'NONE',  ( 0.0000000000000000000, 0.0000000000000000000, 0.0000000000000000000 ) ) ;
#50 = ORIENTED_EDGE ( 'NONE', *, *, #65, .T. ) ;
#51 = SURFACE_STYLE_USAGE ( .BOTH. , #287 ) ;
#52 = ADVANCED_BREP_SHAPE_REPRESENTATION ( 'Micro_SEM-140-04X', ( #28, #32 ), #234 ) ;
#53 = CLOSED_SHELL ( 'NONE', ( #12, #47, #111, #33, #176, #113, #157, #159, #297, #250 ) ) ;
#54 = ORIENTED_EDGE ( 'NONE', *, *, #106, .F. ) ;
#55 = EDGE_CURVE ( 'NONE', #145, #259, #204, .T. ) ;
#56 = FACE_OUTER_BOUND ( 'NONE', #263, .T. ) ;
#57 = ORIENTED_EDGE ( 'NONE', *, *, #180, .F. ) ;
#58 = ORIENTED_EDGE ( 'NONE', *, *, #134, .F. ) ;
#59 =( CONVERSION_BASED_UNIT ( 'INCH', #264 ) LENGTH_UNIT ( ) NAMED_UNIT ( #251 ) );
#60 = SURFACE_STYLE_FILL_AREA ( #107 ) ;
#61 = DIRECTION ( 'NONE',  ( 1.224646799147353454E-16, 0.0000000000000000000, 1.000000000000000000 ) ) ;
#62 = MECHANICAL_DESIGN_GEOMETRIC_PRESENTATION_REPRESENTATION (  '', ( #108 ), #254 ) ;
#63 =( NAMED_UNIT ( * ) PLANE_ANGLE_UNIT ( ) SI_UNIT ( $, .RADIAN. ) );
#64 = ORIENTED_EDGE ( 'NONE', *, *, #18, .F. ) ;
#65 = EDGE_CURVE ( 'NONE', #259, #190, #66, .T. ) ;
#66 = LINE ( 'NONE', #84, #133 ) ;
#67 = VECTOR ( 'NONE', #36, 39.37007874015748143 ) ;
#68 = EDGE_CURVE ( 'NONE', #145, #206, #239, .T. ) ;
#69 = CIRCLE ( 'NONE', #91, 0.07022970000000001989 ) ;
#70 = CARTESIAN_POINT ( 'NONE',  ( 0.0000000000000000000, 0.0000000000000000000, 1.500000000000000222 ) ) ;
#71 = FACE_OUTER_BOUND ( 'NONE', #168, .T. ) ;
#72 = AXIS2_PLACEMENT_3D ( 'NONE', #240, #245, #27 ) ;
#73 = DIRECTION ( 'NONE',  ( 0.0000000000000000000, 0.0000000000000000000, 1.000000000000000000 ) ) ;
#74 = PRODUCT_DEFINITION ( 'UNKNOWN', '', #81, #207 ) ;
#75 = ORIENTED_EDGE ( 'NONE', *, *, #125, .T. ) ;
#76 = UNCERTAINTY_MEASURE_WITH_UNIT (LENGTH_MEASURE( 1.000000000000000082E-05 ), #26, 'distance_accuracy_value', 'NONE');
#77 = ORIENTED_EDGE ( 'NONE', *, *, #242, .F. ) ;
#78 = SURFACE_STYLE_FILL_AREA ( #255 ) ;
#79 = VERTEX_POINT ( 'NONE', #153 ) ;
#80 = VECTOR ( 'NONE', #19, 39.37007874015748143 ) ;
#81 = PRODUCT_DEFINITION_FORMATION_WITH_SPECIFIED_SOURCE ( 'ANY', '', #142, .NOT_KNOWN. ) ;
#82 = DIRECTION ( 'NONE',  ( 0.0000000000000000000, 0.0000000000000000000, -1.000000000000000000 ) ) ;
#83 = CYLINDRICAL_SURFACE ( 'NONE', #194, 0.07022970000000001989 ) ;
#84 = CARTESIAN_POINT ( 'NONE',  ( -0.07022969999999997825, 8.600657731007888113E-18, 0.2500000000000000000 ) ) ;
#85 = EDGE_CURVE ( 'NONE', #256, #79, #143, .T. ) ;
#86 = CARTESIAN_POINT ( 'NONE',  ( 3.061616997868383634E-17, 0.0000000000000000000, 0.2500000000000000000 ) ) ;
#87 = AXIS2_PLACEMENT_3D ( 'NONE', #185, #20, #89 ) ;
#88 = LINE ( 'NONE', #184, #22 ) ;
#89 = DIRECTION ( 'NONE',  ( 1.000000000000000000, 0.0000000000000000000, 0.0000000000000000000 ) ) ;
#90 = CYLINDRICAL_SURFACE ( 'NONE', #147, 0.09375000000000001388 ) ;
#91 = AXIS2_PLACEMENT_3D ( 'NONE', #227, #141, #160 ) ;
#92 = LINE ( 'NONE', #272, #189 ) ;
#93 = ORIENTED_EDGE ( 'NONE', *, *, #217, .T. ) ;
#94 = CARTESIAN_POINT ( 'NONE',  ( -0.07875000000000061118, 0.0000000000000000000, 1.500000000000000222 ) ) ;
#95 = CARTESIAN_POINT ( 'NONE',  ( 0.0000000000000000000, 0.0000000000000000000, 0.0000000000000000000 ) ) ;
#96 = EDGE_CURVE ( 'NONE', #79, #256, #30, .T. ) ;
#97 = AXIS2_PLACEMENT_3D ( 'NONE', #289, #177, #169 ) ;
#98 = ORIENTED_EDGE ( 'NONE', *, *, #217, .F. ) ;
#99 = FILL_AREA_STYLE_COLOUR ( '', #183 ) ;
#100 = ORIENTED_EDGE ( 'NONE', *, *, #131, .F. ) ;
#101 = CARTESIAN_POINT ( 'NONE',  ( 0.0000000000000000000, 0.0000000000000000000, 1.485000000000000986 ) ) ;
#102 = EDGE_LOOP ( 'NONE', ( #193, #93 ) ) ;
#103 = AXIS2_PLACEMENT_3D ( 'NONE', #114, #73, #161 ) ;
#104 = DIRECTION ( 'NONE',  ( -0.0000000000000000000, -0.0000000000000000000, -1.000000000000000000 ) ) ;
#105 = SURFACE_SIDE_STYLE ('',( #60 ) ) ;
#106 = EDGE_CURVE ( 'NONE', #256, #3, #181, .T. ) ;
#107 = FILL_AREA_STYLE ('',( #220 ) ) ;
#108 = STYLED_ITEM ( 'NONE', ( #216 ), #28 ) ;
#109 = EDGE_LOOP ( 'NONE', ( #126, #144 ) ) ;
#110 = PRODUCT_DEFINITION_SHAPE ( 'NONE', 'NONE',  #74 ) ;
#111 = ADVANCED_FACE ( 'NONE', ( #38 ), #40, .T. ) ;
#112 = DIRECTION ( 'NONE',  ( -0.0000000000000000000, -0.0000000000000000000, -1.000000000000000000 ) ) ;
#113 = ADVANCED_FACE ( 'NONE', ( #115 ), #202, .T. ) ;
#114 = CARTESIAN_POINT ( 'NONE',  ( 0.0000000000000000000, 0.0000000000000000000, 0.0000000000000000000 ) ) ;
#115 = FACE_OUTER_BOUND ( 'NONE', #109, .T. ) ;
#116 = DIRECTION ( 'NONE',  ( 1.000000000000000000, 0.0000000000000000000, 0.0000000000000000000 ) ) ;
#117 = ORIENTED_EDGE ( 'NONE', *, *, #55, .T. ) ;
#118 = CARTESIAN_POINT ( 'NONE',  ( -0.07875000000000061118, 0.0000000000000000000, 1.500000000000000222 ) ) ;
#119 = ORIENTED_EDGE ( 'NONE', *, *, #275, .F. ) ;
#120 = UNCERTAINTY_MEASURE_WITH_UNIT (LENGTH_MEASURE( 1.000000000000000082E-05 ), #196, 'distance_accuracy_value', 'NONE');
#121 = MECHANICAL_DESIGN_GEOMETRIC_PRESENTATION_REPRESENTATION (  '', ( #42 ), #222 ) ;
#122 =( NAMED_UNIT ( * ) SI_UNIT ( $, .STERADIAN. ) SOLID_ANGLE_UNIT ( ) );
#123 = ORIENTED_EDGE ( 'NONE', *, *, #180, .T. ) ;
#124 = DIRECTION ( 'NONE',  ( -1.224646799147353454E-16, -0.0000000000000000000, -1.000000000000000000 ) ) ;
#125 = EDGE_CURVE ( 'NONE', #206, #190, #31, .T. ) ;
#126 = ORIENTED_EDGE ( 'NONE', *, *, #85, .T. ) ;
#127 = CYLINDRICAL_SURFACE ( 'NONE', #215, 0.09375000000000001388 ) ;
#128 = AXIS2_PLACEMENT_3D ( 'NONE', #16, #151, #41 ) ;
#129 = PRODUCT_CONTEXT ( 'NONE', #1, 'mechanical' ) ;
#130 = LINE ( 'NONE', #197, #276 ) ;
#131 = EDGE_CURVE ( 'NONE', #79, #213, #92, .T. ) ;
#132 = CARTESIAN_POINT ( 'NONE',  ( 0.0000000000000000000, 0.0000000000000000000, 1.500000000000000222 ) ) ;
#133 = VECTOR ( 'NONE', #155, 39.37007874015748143 ) ;
#134 = EDGE_CURVE ( 'NONE', #3, #190, #21, .T. ) ;
#135 = DIRECTION ( 'NONE',  ( -1.000000000000000000, 0.0000000000000000000, 0.0000000000000000000 ) ) ;
#136 = DIRECTION ( 'NONE',  ( -0.0000000000000000000, -0.0000000000000000000, -1.000000000000000000 ) ) ;
#137 = AXIS2_PLACEMENT_3D ( 'NONE', #258, #82, #135 ) ;
#138 = EDGE_CURVE ( 'NONE', #145, #253, #45, .T. ) ;
#139 = DIRECTION ( 'NONE',  ( 1.000000000000000000, 0.0000000000000000000, 0.0000000000000000000 ) ) ;
#140 = DIRECTION ( 'NONE',  ( -1.000000000000000000, 0.0000000000000000000, 0.0000000000000000000 ) ) ;
#141 = DIRECTION ( 'NONE',  ( -1.224646799147353454E-16, -0.0000000000000000000, -1.000000000000000000 ) ) ;
#142 = PRODUCT ( 'Micro_SEM-140-04X', 'Micro_SEM-140-04X', '', ( #129 ) ) ;
#143 = CIRCLE ( 'NONE', #210, 0.07875000000000061118 ) ;
#144 = ORIENTED_EDGE ( 'NONE', *, *, #96, .T. ) ;
#145 = VERTEX_POINT ( 'NONE', #226 ) ;
#146 = EDGE_LOOP ( 'NONE', ( #164, #219, #119, #54 ) ) ;
#147 = AXIS2_PLACEMENT_3D ( 'NONE', #70, #136, #277 ) ;
#148 = CYLINDRICAL_SURFACE ( 'NONE', #17, 0.07022970000000001989 ) ;
#149 = ORIENTED_EDGE ( 'NONE', *, *, #165, .F. ) ;
#150 =( NAMED_UNIT ( * ) PLANE_ANGLE_UNIT ( ) SI_UNIT ( $, .RADIAN. ) );
#151 = DIRECTION ( 'NONE',  ( -1.224646799147353454E-16, -0.0000000000000000000, -1.000000000000000000 ) ) ;
#152 = CIRCLE ( 'NONE', #281, 0.09375000000000001388 ) ;
#153 = CARTESIAN_POINT ( 'NONE',  ( 0.07875000000000061118, 1.056257864264595965E-17, 1.500000000000000222 ) ) ;
#154 = DIRECTION ( 'NONE',  ( -1.224646799147353454E-16, -0.0000000000000000000, -1.000000000000000000 ) ) ;
#155 = DIRECTION ( 'NONE',  ( -0.1736481776669312194, 2.126576849575783625E-17, 0.9848077530122077983 ) ) ;
#156 = CONICAL_SURFACE ( 'NONE', #87, 0.07022970000000000601, 0.1745329251994339470 ) ;
#157 = ADVANCED_FACE ( 'NONE', ( #203 ), #167, .T. ) ;
#158 = CARTESIAN_POINT ( 'NONE',  ( -0.09375000000000001388, 0.0000000000000000000, 1.500000000000000222 ) ) ;
#159 = ADVANCED_FACE ( 'NONE', ( #298 ), #156, .T. ) ;
#160 = DIRECTION ( 'NONE',  ( -1.000000000000000000, 0.0000000000000000000, 1.224646799147353454E-16 ) ) ;
#161 = DIRECTION ( 'NONE',  ( 1.000000000000000000, 0.0000000000000000000, -0.0000000000000000000 ) ) ;
#162 = EDGE_LOOP ( 'NONE', ( #34, #235, #285, #149 ) ) ;
#163 = DIRECTION ( 'NONE',  ( -1.000000000000000000, 0.0000000000000000000, 1.224646799147353454E-16 ) ) ;
#164 = ORIENTED_EDGE ( 'NONE', *, *, #96, .F. ) ;
#165 = EDGE_CURVE ( 'NONE', #259, #170, #88, .T. ) ;
#166 = PRESENTATION_STYLE_ASSIGNMENT (( #51 ) ) ;
#167 = CONICAL_SURFACE ( 'NONE', #288, 0.07875000000000061118, 0.7853981633974562726 ) ;
#168 = EDGE_LOOP ( 'NONE', ( #5, #280, #24, #267 ) ) ;
#169 = DIRECTION ( 'NONE',  ( 1.000000000000000000, 0.0000000000000000000, 0.0000000000000000000 ) ) ;
#170 = VERTEX_POINT ( 'NONE', #201 ) ;
#171 = SHAPE_DEFINITION_REPRESENTATION ( #110, #52 ) ;
#172 = CARTESIAN_POINT ( 'NONE',  ( -0.09375000000000001388, 0.0000000000000000000, 1.485000000000000986 ) ) ;
#173 =( LENGTH_UNIT ( ) NAMED_UNIT ( * ) SI_UNIT ( $, .METRE. ) );
#174 = CONICAL_SURFACE ( 'NONE', #271, 0.07022970000000000601, 0.1745329251994339470 ) ;
#175 = DIRECTION ( 'NONE',  ( -1.000000000000000000, 0.0000000000000000000, 1.224646799147353454E-16 ) ) ;
#176 = ADVANCED_FACE ( 'NONE', ( #71 ), #90, .T. ) ;
#177 = DIRECTION ( 'NONE',  ( 0.0000000000000000000, 0.0000000000000000000, 1.000000000000000000 ) ) ;
#178 = CIRCLE ( 'NONE', #48, 0.07022970000000001989 ) ;
#179 = CARTESIAN_POINT ( 'NONE',  ( 4.695176422197739051E-17, 0.0000000000000000000, 0.3833902497819536292 ) ) ;
#180 = EDGE_CURVE ( 'NONE', #190, #206, #152, .T. ) ;
#181 = LINE ( 'NONE', #94, #221 ) ;
#182 = CARTESIAN_POINT ( 'NONE',  ( 0.09375000000000001388, 1.148106374200643401E-17, 1.485000000000000986 ) ) ;
#183 = COLOUR_RGB ( '',0.7921568627450980005, 0.8196078431372548767, 0.9333333333333333481 ) ;
#184 = CARTESIAN_POINT ( 'NONE',  ( -0.07022970000000001989, 0.0000000000000000000, 8.600657731007891194E-18 ) ) ;
#185 = CARTESIAN_POINT ( 'NONE',  ( 3.061616997868383634E-17, 0.0000000000000000000, 0.2500000000000000000 ) ) ;
#186 = EDGE_LOOP ( 'NONE', ( #14, #265, #57, #58 ) ) ;
#187 = CARTESIAN_POINT ( 'NONE',  ( 0.07022970000000001989, 8.600657731007889654E-18, 0.0000000000000000000 ) ) ;
#188 = COLOUR_RGB ( '',0.7921568627450980005, 0.8196078431372548767, 0.9333333333333333481 ) ;
#189 = VECTOR ( 'NONE', #274, 39.37007874015748143 ) ;
#190 = VERTEX_POINT ( 'NONE', #296 ) ;
#191 = UNCERTAINTY_MEASURE_WITH_UNIT (LENGTH_MEASURE( 1.000000000000000082E-05 ), #59, 'distance_accuracy_value', 'NONE');
#192 =( NAMED_UNIT ( * ) PLANE_ANGLE_UNIT ( ) SI_UNIT ( $, .RADIAN. ) );
#193 = ORIENTED_EDGE ( 'NONE', *, *, #286, .T. ) ;
#194 = AXIS2_PLACEMENT_3D ( 'NONE', #198, #154, #175 ) ;
#195 = PRESENTATION_LAYER_ASSIGNMENT (  '', '', ( #108 ) ) ;
#196 =( CONVERSION_BASED_UNIT ( 'INCH', #244 ) LENGTH_UNIT ( ) NAMED_UNIT ( #44 ) );
#197 = CARTESIAN_POINT ( 'NONE',  ( 0.09375000000000001388, 1.148106374200643401E-17, 1.500000000000000222 ) ) ;
#198 = CARTESIAN_POINT ( 'NONE',  ( 0.0000000000000000000, 0.0000000000000000000, 0.0000000000000000000 ) ) ;
#199 = FACE_OUTER_BOUND ( 'NONE', #186, .T. ) ;
#200 = DIRECTION ( 'NONE',  ( -1.000000000000000000, 0.0000000000000000000, 0.0000000000000000000 ) ) ;
#201 = CARTESIAN_POINT ( 'NONE',  ( -0.07022970000000001989, 0.0000000000000000000, 1.720131546201578239E-17 ) ) ;
#202 = PLANE ( 'NONE',  #299 ) ;
#203 = FACE_OUTER_BOUND ( 'NONE', #2, .T. ) ;
#204 = CIRCLE ( 'NONE', #128, 0.07022970000000000601 ) ;
#205 = DIRECTION ( 'NONE',  ( 1.000000000000000000, 0.0000000000000000000, 0.0000000000000000000 ) ) ;
#206 = VERTEX_POINT ( 'NONE', #273 ) ;
#207 = PRODUCT_DEFINITION_CONTEXT ( 'detailed design', #8, 'design' ) ;
#208 = DIRECTION ( 'NONE',  ( -1.224646799147353454E-16, -0.0000000000000000000, -1.000000000000000000 ) ) ;
#209 = ORIENTED_EDGE ( 'NONE', *, *, #85, .F. ) ;
#210 = AXIS2_PLACEMENT_3D ( 'NONE', #132, #246, #116 ) ;
#211 = ORIENTED_EDGE ( 'NONE', *, *, #55, .F. ) ;
#212 = DIRECTION ( 'NONE',  ( -1.000000000000000000, 0.0000000000000000000, 1.224646799147353454E-16 ) ) ;
#213 = VERTEX_POINT ( 'NONE', #182 ) ;
#214 =( NAMED_UNIT ( * ) SI_UNIT ( $, .STERADIAN. ) SOLID_ANGLE_UNIT ( ) );
#215 = AXIS2_PLACEMENT_3D ( 'NONE', #11, #104, #200 ) ;
#216 = PRESENTATION_STYLE_ASSIGNMENT (( #37 ) ) ;
#217 = EDGE_CURVE ( 'NONE', #253, #170, #69, .T. ) ;
#218 = APPLICATION_PROTOCOL_DEFINITION ( 'draft international standard', 'automotive_design', 1998, #8 ) ;
#219 = ORIENTED_EDGE ( 'NONE', *, *, #131, .T. ) ;
#220 = FILL_AREA_STYLE_COLOUR ( '', #188 ) ;
#221 = VECTOR ( 'NONE', #268, 39.37007874015748143 ) ;
#222 =( GEOMETRIC_REPRESENTATION_CONTEXT ( 3 ) GLOBAL_UNCERTAINTY_ASSIGNED_CONTEXT ( ( #191 ) ) GLOBAL_UNIT_ASSIGNED_CONTEXT ( ( #59, #192, #214 ) ) REPRESENTATION_CONTEXT ( 'NONE', 'WORKASPACE' ) );
#223 = CARTESIAN_POINT ( 'NONE',  ( 0.07022970000000004764, 0.0000000000000000000, 0.2500000000000000000 ) ) ;
#224 = DIRECTION ( 'NONE',  ( 0.0000000000000000000, 0.0000000000000000000, 1.000000000000000000 ) ) ;
#225 = DIRECTION ( 'NONE',  ( -1.224646799147353454E-16, -0.0000000000000000000, -1.000000000000000000 ) ) ;
#226 = CARTESIAN_POINT ( 'NONE',  ( 0.07022970000000004764, 0.0000000000000000000, 0.2500000000000000000 ) ) ;
#227 = CARTESIAN_POINT ( 'NONE',  ( 1.053276796084075227E-33, 0.0000000000000000000, 8.600657731007891194E-18 ) ) ;
#228 = AXIS2_PLACEMENT_3D ( 'NONE', #243, #241, #13 ) ;
#229 = AXIS2_PLACEMENT_3D ( 'NONE', #278, #249, #139 ) ;
#230 = ORIENTED_EDGE ( 'NONE', *, *, #65, .F. ) ;
#231 = LENGTH_MEASURE_WITH_UNIT ( LENGTH_MEASURE( 0.02539999999999999897 ), #257 );
#232 = EDGE_LOOP ( 'NONE', ( #64, #50, #123, #9 ) ) ;
#233 = DIRECTION ( 'NONE',  ( 0.0000000000000000000, 0.0000000000000000000, -1.000000000000000000 ) ) ;
#234 =( GEOMETRIC_REPRESENTATION_CONTEXT ( 3 ) GLOBAL_UNCERTAINTY_ASSIGNED_CONTEXT ( ( #76 ) ) GLOBAL_UNIT_ASSIGNED_CONTEXT ( ( #26, #150, #122 ) ) REPRESENTATION_CONTEXT ( 'NONE', 'WORKASPACE' ) );
#235 = ORIENTED_EDGE ( 'NONE', *, *, #138, .T. ) ;
#236 =( LENGTH_UNIT ( ) NAMED_UNIT ( * ) SI_UNIT ( $, .METRE. ) );
#237 = ORIENTED_EDGE ( 'NONE', *, *, #138, .F. ) ;
#238 = CARTESIAN_POINT ( 'NONE',  ( -0.07022969999999997825, 1.004086073650716337E-17, 0.2500000000000000000 ) ) ;
#239 = LINE ( 'NONE', #223, #67 ) ;
#240 = CARTESIAN_POINT ( 'NONE',  ( 4.695176422197739051E-17, 0.0000000000000000000, 0.3833902497819536292 ) ) ;
#241 = DIRECTION ( 'NONE',  ( -1.224646799147353454E-16, -0.0000000000000000000, -1.000000000000000000 ) ) ;
#242 = EDGE_CURVE ( 'NONE', #213, #3, #262, .T. ) ;
#243 = CARTESIAN_POINT ( 'NONE',  ( 3.061616997868383634E-17, 0.0000000000000000000, 0.2500000000000000000 ) ) ;
#244 = LENGTH_MEASURE_WITH_UNIT ( LENGTH_MEASURE( 0.02539999999999999897 ), #173 );
#245 = DIRECTION ( 'NONE',  ( -1.224646799147353454E-16, -0.0000000000000000000, -1.000000000000000000 ) ) ;
#246 = DIRECTION ( 'NONE',  ( 0.0000000000000000000, 0.0000000000000000000, 1.000000000000000000 ) ) ;
#247 = CARTESIAN_POINT ( 'NONE',  ( 0.0000000000000000000, 0.0000000000000000000, 1.500000000000000222 ) ) ;
#248 = PRESENTATION_LAYER_ASSIGNMENT (  '', '', ( #42 ) ) ;
#249 = DIRECTION ( 'NONE',  ( 0.0000000000000000000, 0.0000000000000000000, -1.000000000000000000 ) ) ;
#250 = ADVANCED_FACE ( 'NONE', ( #252 ), #23, .F. ) ;
#251 = DIMENSIONAL_EXPONENTS ( 1.000000000000000000, 0.0000000000000000000, 0.0000000000000000000, 0.0000000000000000000, 0.0000000000000000000, 0.0000000000000000000, 0.0000000000000000000 ) ;
#252 = FACE_OUTER_BOUND ( 'NONE', #102, .T. ) ;
#253 = VERTEX_POINT ( 'NONE', #187 ) ;
#254 =( GEOMETRIC_REPRESENTATION_CONTEXT ( 3 ) GLOBAL_UNCERTAINTY_ASSIGNED_CONTEXT ( ( #120 ) ) GLOBAL_UNIT_ASSIGNED_CONTEXT ( ( #196, #63, #291 ) ) REPRESENTATION_CONTEXT ( 'NONE', 'WORKASPACE' ) );
#255 = FILL_AREA_STYLE ('',( #99 ) ) ;
#256 = VERTEX_POINT ( 'NONE', #118 ) ;
#257 =( LENGTH_UNIT ( ) NAMED_UNIT ( * ) SI_UNIT ( $, .METRE. ) );
#258 = CARTESIAN_POINT ( 'NONE',  ( 0.0000000000000000000, 0.0000000000000000000, 1.500000000000000222 ) ) ;
#259 = VERTEX_POINT ( 'NONE', #238 ) ;
#260 = CARTESIAN_POINT ( 'NONE',  ( 1.053276796084075227E-33, 0.0000000000000000000, 8.600657731007891194E-18 ) ) ;
#261 = CIRCLE ( 'NONE', #228, 0.07022970000000000601 ) ;
#262 = CIRCLE ( 'NONE', #229, 0.09375000000000001388 ) ;
#263 = EDGE_LOOP ( 'NONE', ( #237, #117, #25, #98 ) ) ;
#264 = LENGTH_MEASURE_WITH_UNIT ( LENGTH_MEASURE( 0.02539999999999999897 ), #236 );
#265 = ORIENTED_EDGE ( 'NONE', *, *, #39, .T. ) ;
#266 = DIRECTION ( 'NONE',  ( -0.0000000000000000000, -0.0000000000000000000, -1.000000000000000000 ) ) ;
#267 = ORIENTED_EDGE ( 'NONE', *, *, #125, .F. ) ;
#268 = DIRECTION ( 'NONE',  ( -0.7071067811865531239, 0.0000000000000000000, -0.7071067811865419106 ) ) ;
#269 = DIRECTION ( 'NONE',  ( 1.000000000000000000, 0.0000000000000000000, 0.0000000000000000000 ) ) ;
#270 = CARTESIAN_POINT ( 'NONE',  ( 0.0000000000000000000, 0.0000000000000000000, 1.500000000000000222 ) ) ;
#271 = AXIS2_PLACEMENT_3D ( 'NONE', #86, #61, #269 ) ;
#272 = CARTESIAN_POINT ( 'NONE',  ( 0.07875000000000061118, 9.644093543285480678E-18, 1.500000000000000222 ) ) ;
#273 = CARTESIAN_POINT ( 'NONE',  ( 0.09375000000000004163, 1.148106374200644017E-17, 0.3833902497819536292 ) ) ;
#274 = DIRECTION ( 'NONE',  ( 0.7071067811865531239, 8.659560562355003116E-17, -0.7071067811865419106 ) ) ;
#275 = EDGE_CURVE ( 'NONE', #3, #213, #10, .T. ) ;
#276 = VECTOR ( 'NONE', #266, 39.37007874015748143 ) ;
#277 = DIRECTION ( 'NONE',  ( -1.000000000000000000, 0.0000000000000000000, 0.0000000000000000000 ) ) ;
#278 = CARTESIAN_POINT ( 'NONE',  ( 0.0000000000000000000, 0.0000000000000000000, 1.485000000000000986 ) ) ;
#279 = APPLICATION_PROTOCOL_DEFINITION ( 'draft international standard', 'automotive_design', 1998, #1 ) ;
#280 = ORIENTED_EDGE ( 'NONE', *, *, #242, .T. ) ;
#281 = AXIS2_PLACEMENT_3D ( 'NONE', #179, #225, #205 ) ;
#282 = DIRECTION ( 'NONE',  ( 0.0000000000000000000, 0.0000000000000000000, 1.000000000000000000 ) ) ;
#283 = DIRECTION ( 'NONE',  ( 1.000000000000000000, 0.0000000000000000000, 0.0000000000000000000 ) ) ;
#284 = ORIENTED_EDGE ( 'NONE', *, *, #68, .T. ) ;
#285 = ORIENTED_EDGE ( 'NONE', *, *, #286, .F. ) ;
#286 = EDGE_CURVE ( 'NONE', #170, #253, #178, .T. ) ;
#287 = SURFACE_SIDE_STYLE ('',( #78 ) ) ;
#288 = AXIS2_PLACEMENT_3D ( 'NONE', #247, #46, #140 ) ;
#289 = CARTESIAN_POINT ( 'NONE',  ( 0.0000000000000000000, 0.0000000000000000000, 1.500000000000000222 ) ) ;
#290 = DIMENSIONAL_EXPONENTS ( 1.000000000000000000, 0.0000000000000000000, 0.0000000000000000000, 0.0000000000000000000, 0.0000000000000000000, 0.0000000000000000000, 0.0000000000000000000 ) ;
#291 =( NAMED_UNIT ( * ) SI_UNIT ( $, .STERADIAN. ) SOLID_ANGLE_UNIT ( ) );
#292 = ORIENTED_EDGE ( 'NONE', *, *, #106, .T. ) ;
#293 = FACE_OUTER_BOUND ( 'NONE', #232, .T. ) ;
#294 = AXIS2_PLACEMENT_3D ( 'NONE', #101, #233, #4 ) ;
#295 = CARTESIAN_POINT ( 'NONE',  ( 0.07022970000000001989, 8.600657731007889654E-18, -8.600657731007891194E-18 ) ) ;
#296 = CARTESIAN_POINT ( 'NONE',  ( -0.09374999999999995837, 0.0000000000000000000, 0.3833902497819536292 ) ) ;
#297 = ADVANCED_FACE ( 'NONE', ( #56 ), #148, .T. ) ;
#298 = FACE_OUTER_BOUND ( 'NONE', #29, .T. ) ;
#299 = AXIS2_PLACEMENT_3D ( 'NONE', #270, #224, #7 ) ;
ENDSEC;
END-ISO-10303-21;
