ISO-10303-21;
HEADER;
FILE_DESCRIPTION (( 'STEP AP214' ),
    '1' );
FILE_NAME ('05727.STEP',
    '2023-06-22T16:20:27',
    ( '' ),
    ( '' ),
    'SwSTEP 2.0',
    'SolidWorks 2023',
    '' );
FILE_SCHEMA (( 'AUTOMOTIVE_DESIGN' ));
ENDSEC;

DATA;
#1 = SURFACE_SIDE_STYLE ('',( #173 ) ) ;
#2 = DIRECTION ( 'NONE',  ( 0.000000000000000000, 0.000000000000000000, -1.000000000000000000 ) ) ;
#3 = STYLED_ITEM ( 'NONE', ( #86 ), #193 ) ;
#4 = DIRECTION ( 'NONE',  ( 0.000000000000000000, 0.000000000000000000, -1.000000000000000000 ) ) ;
#5 = SURFACE_STYLE_USAGE ( .BOTH. , #206 ) ;
#6 = PLANE ( 'NONE',  #176 ) ;
#7 = SURFACE_SIDE_STYLE ('',( #265 ) ) ;
#8 = AXIS2_PLACEMENT_3D ( 'NONE', #271, #309, #198 ) ;
#9 = VECTOR ( 'NONE', #84, 39.37007874015748143 ) ;
#10 = LINE ( 'NONE', #296, #161 ) ;
#11 = DIRECTION ( 'NONE',  ( 0.000000000000000000, 0.000000000000000000, -1.000000000000000000 ) ) ;
#12 =( GEOMETRIC_REPRESENTATION_CONTEXT ( 3 ) GLOBAL_UNCERTAINTY_ASSIGNED_CONTEXT ( ( #225 ) ) GLOBAL_UNIT_ASSIGNED_CONTEXT ( ( #207, #67, #277 ) ) REPRESENTATION_CONTEXT ( 'NONE', 'WORKASPACE' ) );
#13 = EDGE_LOOP ( 'NONE', ( #278, #188 ) ) ;
#14 = DIRECTION ( 'NONE',  ( -1.000000000000000000, -4.453261087808557677E-17, 0.000000000000000000 ) ) ;
#15 = PRESENTATION_LAYER_ASSIGNMENT (  '', '', ( #292 ) ) ;
#16 = ADVANCED_BREP_SHAPE_REPRESENTATION ( '05727', ( #232, #235, #182 ), #12 ) ;
#17 = DIRECTION ( 'NONE',  ( -1.000000000000000000, 0.000000000000000000, 0.000000000000000000 ) ) ;
#18 = ORIENTED_EDGE ( 'NONE', *, *, #228, .T. ) ;
#19 = ORIENTED_EDGE ( 'NONE', *, *, #66, .T. ) ;
#20 = DIMENSIONAL_EXPONENTS ( 1.000000000000000000, 0.000000000000000000, 0.000000000000000000, 0.000000000000000000, 0.000000000000000000, 0.000000000000000000, 0.000000000000000000 ) ;
#21 = CIRCLE ( 'NONE', #46, 0.3750000000000000555 ) ;
#22 = DIRECTION ( 'NONE',  ( -0.000000000000000000, -1.000000000000000000, -0.000000000000000000 ) ) ;
#23 = FACE_OUTER_BOUND ( 'NONE', #242, .T. ) ;
#24 = PLANE ( 'NONE',  #113 ) ;
#25 =( NAMED_UNIT ( * ) SI_UNIT ( $, .STERADIAN. ) SOLID_ANGLE_UNIT ( ) );
#26 = EDGE_CURVE ( 'NONE', #279, #60, #21, .T. ) ;
#27 = AXIS2_PLACEMENT_3D ( 'NONE', #214, #70, #165 ) ;
#28 = CARTESIAN_POINT ( 'NONE',  ( 0.000000000000000000, 2.250000000000000000, -0.3750000000000000555 ) ) ;
#29 = LENGTH_MEASURE_WITH_UNIT ( LENGTH_MEASURE( 0.02539999999999999897 ), #110 );
#30 =( NAMED_UNIT ( * ) SI_UNIT ( $, .STERADIAN. ) SOLID_ANGLE_UNIT ( ) );
#31 = PLANE ( 'NONE',  #157 ) ;
#32 = EDGE_CURVE ( 'NONE', #189, #194, #89, .T. ) ;
#33 = FACE_OUTER_BOUND ( 'NONE', #304, .T. ) ;
#34 = ORIENTED_EDGE ( 'NONE', *, *, #205, .F. ) ;
#35 = ORIENTED_EDGE ( 'NONE', *, *, #26, .T. ) ;
#36 = DIMENSIONAL_EXPONENTS ( 1.000000000000000000, 0.000000000000000000, 0.000000000000000000, 0.000000000000000000, 0.000000000000000000, 0.000000000000000000, 0.000000000000000000 ) ;
#37 = ORIENTED_EDGE ( 'NONE', *, *, #50, .F. ) ;
#38 = COLOUR_RGB ( '',0.7921568627450980005, 0.8196078431372548767, 0.9333333333333333481 ) ;
#39 = EDGE_LOOP ( 'NONE', ( #159, #191, #162, #145 ) ) ;
#40 =( NAMED_UNIT ( * ) PLANE_ANGLE_UNIT ( ) SI_UNIT ( $, .RADIAN. ) );
#41 = FILL_AREA_STYLE_COLOUR ( '', #268 ) ;
#42 = EDGE_CURVE ( 'NONE', #282, #220, #208, .T. ) ;
#43 = CARTESIAN_POINT ( 'NONE',  ( 0.000000000000000000, 0.000000000000000000, -0.3750000000000000555 ) ) ;
#44 = CIRCLE ( 'NONE', #192, 0.3750000000000001665 ) ;
#45 = COLOUR_RGB ( '',0.7921568627450980005, 0.8196078431372548767, 0.9333333333333333481 ) ;
#46 = AXIS2_PLACEMENT_3D ( 'NONE', #148, #22, #81 ) ;
#47 = DIRECTION ( 'NONE',  ( -4.453261087808557677E-17, 1.000000000000000000, -0.000000000000000000 ) ) ;
#48 = DIMENSIONAL_EXPONENTS ( 1.000000000000000000, 0.000000000000000000, 0.000000000000000000, 0.000000000000000000, 0.000000000000000000, 0.000000000000000000, 0.000000000000000000 ) ;
#49 = DIRECTION ( 'NONE',  ( -4.453261087808557677E-17, 1.000000000000000000, -0.000000000000000000 ) ) ;
#50 = EDGE_CURVE ( 'NONE', #60, #282, #229, .T. ) ;
#51 = AXIS2_PLACEMENT_3D ( 'NONE', #158, #255, #11 ) ;
#52 = FILL_AREA_STYLE_COLOUR ( '', #93 ) ;
#53 = MECHANICAL_DESIGN_GEOMETRIC_PRESENTATION_REPRESENTATION (  '', ( #292 ), #127 ) ;
#54 = DIRECTION ( 'NONE',  ( -0.000000000000000000, -1.000000000000000000, -0.000000000000000000 ) ) ;
#55 = ADVANCED_FACE ( 'NONE', ( #293 ), #24, .T. ) ;
#56 =( LENGTH_UNIT ( ) NAMED_UNIT ( * ) SI_UNIT ( $, .METRE. ) );
#57 =( GEOMETRIC_REPRESENTATION_CONTEXT ( 3 ) GLOBAL_UNCERTAINTY_ASSIGNED_CONTEXT ( ( #283 ) ) GLOBAL_UNIT_ASSIGNED_CONTEXT ( ( #151, #129, #174 ) ) REPRESENTATION_CONTEXT ( 'NONE', 'WORKASPACE' ) );
#58 = LENGTH_MEASURE_WITH_UNIT ( LENGTH_MEASURE( 0.02539999999999999897 ), #56 );
#59 = EDGE_CURVE ( 'NONE', #279, #220, #132, .T. ) ;
#60 = VERTEX_POINT ( 'NONE', #28 ) ;
#61 = PRESENTATION_STYLE_ASSIGNMENT (( #117 ) ) ;
#62 = FACE_OUTER_BOUND ( 'NONE', #146, .T. ) ;
#63 = ORIENTED_EDGE ( 'NONE', *, *, #125, .F. ) ;
#64 = PRESENTATION_LAYER_ASSIGNMENT (  '', '', ( #168 ) ) ;
#65 = SURFACE_STYLE_USAGE ( .BOTH. , #216 ) ;
#66 = EDGE_CURVE ( 'NONE', #194, #189, #44, .T. ) ;
#67 =( NAMED_UNIT ( * ) PLANE_ANGLE_UNIT ( ) SI_UNIT ( $, .RADIAN. ) );
#68 = VERTEX_POINT ( 'NONE', #107 ) ;
#69 = PRODUCT_CONTEXT ( 'NONE', #80, 'mechanical' ) ;
#70 = DIRECTION ( 'NONE',  ( -4.453261087808557677E-17, 1.000000000000000000, -0.000000000000000000 ) ) ;
#71 = FILL_AREA_STYLE ('',( #281 ) ) ;
#72 = ORIENTED_EDGE ( 'NONE', *, *, #59, .T. ) ;
#73 = MECHANICAL_DESIGN_GEOMETRIC_PRESENTATION_REPRESENTATION (  '', ( #140 ), #57 ) ;
#74 = DIRECTION ( 'NONE',  ( -4.453261087808557677E-17, 1.000000000000000000, 0.000000000000000000 ) ) ;
#75 = PRODUCT_DEFINITION_SHAPE ( 'NONE', 'NONE',  #106 ) ;
#76 = LENGTH_MEASURE_WITH_UNIT ( LENGTH_MEASURE( 0.02539999999999999897 ), #288 );
#77 = FILL_AREA_STYLE ('',( #289 ) ) ;
#78 = CARTESIAN_POINT ( 'NONE',  ( -1.224646799147353207E-16, 5.000000000000000000, 0.000000000000000000 ) ) ;
#79 = LENGTH_MEASURE_WITH_UNIT ( LENGTH_MEASURE( 0.02539999999999999897 ), #142 );
#80 = APPLICATION_CONTEXT ( 'automotive_design' ) ;
#81 = DIRECTION ( 'NONE',  ( 0.000000000000000000, 0.000000000000000000, -1.000000000000000000 ) ) ;
#82 = CYLINDRICAL_SURFACE ( 'NONE', #303, 0.3750000000000001110 ) ;
#83 = PRESENTATION_LAYER_ASSIGNMENT (  '', '', ( #249 ) ) ;
#84 = DIRECTION ( 'NONE',  ( -0.000000000000000000, -1.000000000000000000, -0.000000000000000000 ) ) ;
#85 = DIRECTION ( 'NONE',  ( -1.000000000000000000, 0.000000000000000000, 0.000000000000000000 ) ) ;
#86 = PRESENTATION_STYLE_ASSIGNMENT (( #5 ) ) ;
#87 = PRESENTATION_LAYER_ASSIGNMENT (  '', '', ( #3 ) ) ;
#88 = DIRECTION ( 'NONE',  ( 0.000000000000000000, -0.000000000000000000, 1.000000000000000000 ) ) ;
#89 = CIRCLE ( 'NONE', #96, 0.3750000000000001665 ) ;
#90 = SURFACE_STYLE_FILL_AREA ( #154 ) ;
#91 = APPLICATION_CONTEXT ( 'automotive_design' ) ;
#92 = CARTESIAN_POINT ( 'NONE',  ( 1.516480271171051896E-32, 2.250000000000000444, 0.000000000000000000 ) ) ;
#93 = COLOUR_RGB ( '',1.000000000000000000, 0.000000000000000000, 0.000000000000000000 ) ;
#94 = UNCERTAINTY_MEASURE_WITH_UNIT (LENGTH_MEASURE( 1.000000000000000082E-05 ), #200, 'distance_accuracy_value', 'NONE');
#95 = ORIENTED_EDGE ( 'NONE', *, *, #228, .F. ) ;
#96 = AXIS2_PLACEMENT_3D ( 'NONE', #78, #49, #128 ) ;
#97 = EDGE_CURVE ( 'NONE', #60, #279, #149, .T. ) ;
#98 = ORIENTED_EDGE ( 'NONE', *, *, #205, .T. ) ;
#99 = FACE_OUTER_BOUND ( 'NONE', #163, .T. ) ;
#100 = PRODUCT_DEFINITION_CONTEXT ( 'detailed design', #91, 'design' ) ;
#101 = MECHANICAL_DESIGN_GEOMETRIC_PRESENTATION_REPRESENTATION (  '', ( #249 ), #274 ) ;
#102 = DIRECTION ( 'NONE',  ( 0.000000000000000000, 0.000000000000000000, -1.000000000000000000 ) ) ;
#103 = PRODUCT ( '05727', '05727', '', ( #69 ) ) ;
#104 = DIRECTION ( 'NONE',  ( -0.000000000000000000, -1.000000000000000000, -0.000000000000000000 ) ) ;
#105 =( CONVERSION_BASED_UNIT ( 'INCH', #247 ) LENGTH_UNIT ( ) NAMED_UNIT ( #36 ) );
#106 = PRODUCT_DEFINITION ( 'UNKNOWN', '', #307, #100 ) ;
#107 = CARTESIAN_POINT ( 'NONE',  ( -0.3750000000000000555, 2.250000000000000444, 0.000000000000000000 ) ) ;
#108 = DIMENSIONAL_EXPONENTS ( 1.000000000000000000, 0.000000000000000000, 0.000000000000000000, 0.000000000000000000, 0.000000000000000000, 0.000000000000000000, 0.000000000000000000 ) ;
#109 = CIRCLE ( 'NONE', #51, 0.3750000000000000555 ) ;
#110 =( LENGTH_UNIT ( ) NAMED_UNIT ( * ) SI_UNIT ( $, .METRE. ) );
#111 = DIRECTION ( 'NONE',  ( 4.453261087808557677E-17, -1.000000000000000000, 0.000000000000000000 ) ) ;
#112 = CARTESIAN_POINT ( 'NONE',  ( -0.3750000000000002776, 5.000000000000000000, 0.000000000000000000 ) ) ;
#113 = AXIS2_PLACEMENT_3D ( 'NONE', #131, #231, #2 ) ;
#114 = PRESENTATION_STYLE_ASSIGNMENT (( #275 ) ) ;
#115 = AXIS2_PLACEMENT_3D ( 'NONE', #126, #172, #4 ) ;
#116 = DIRECTION ( 'NONE',  ( 0.000000000000000000, 0.000000000000000000, -1.000000000000000000 ) ) ;
#117 = SURFACE_STYLE_USAGE ( .BOTH. , #236 ) ;
#118 = ORIENTED_EDGE ( 'NONE', *, *, #32, .F. ) ;
#119 = DIRECTION ( 'NONE',  ( -4.453261087808557677E-17, 1.000000000000000000, -0.000000000000000000 ) ) ;
#120 = EDGE_CURVE ( 'NONE', #68, #189, #290, .T. ) ;
#121 = CARTESIAN_POINT ( 'NONE',  ( 4.592425496802575451E-17, 2.250000000000000000, 0.3750000000000000555 ) ) ;
#122 = COLOUR_RGB ( '',1.000000000000000000, 0.000000000000000000, 0.000000000000000000 ) ;
#123 = AXIS2_PLACEMENT_3D ( 'NONE', #267, #243, #102 ) ;
#124 = ORIENTED_EDGE ( 'NONE', *, *, #199, .T. ) ;
#125 = EDGE_CURVE ( 'NONE', #256, #68, #253, .T. ) ;
#126 = CARTESIAN_POINT ( 'NONE',  ( 0.000000000000000000, 0.000000000000000000, 0.000000000000000000 ) ) ;
#127 =( GEOMETRIC_REPRESENTATION_CONTEXT ( 3 ) GLOBAL_UNCERTAINTY_ASSIGNED_CONTEXT ( ( #204 ) ) GLOBAL_UNIT_ASSIGNED_CONTEXT ( ( #273, #187, #30 ) ) REPRESENTATION_CONTEXT ( 'NONE', 'WORKASPACE' ) );
#128 = DIRECTION ( 'NONE',  ( -1.000000000000000000, 0.000000000000000000, 0.000000000000000000 ) ) ;
#129 =( NAMED_UNIT ( * ) PLANE_ANGLE_UNIT ( ) SI_UNIT ( $, .RADIAN. ) );
#130 = FILL_AREA_STYLE_COLOUR ( '', #45 ) ;
#131 = CARTESIAN_POINT ( 'NONE',  ( 0.000000000000000000, 0.000000000000000000, 0.000000000000000000 ) ) ;
#132 = LINE ( 'NONE', #226, #9 ) ;
#133 = MECHANICAL_DESIGN_GEOMETRIC_PRESENTATION_REPRESENTATION (  '', ( #3 ), #237 ) ;
#134 = DIRECTION ( 'NONE',  ( 0.000000000000000000, 1.000000000000000000, 0.000000000000000000 ) ) ;
#135 =( NAMED_UNIT ( * ) PLANE_ANGLE_UNIT ( ) SI_UNIT ( $, .RADIAN. ) );
#136 = STYLED_ITEM ( 'NONE', ( #203 ), #55 ) ;
#137 = MECHANICAL_DESIGN_GEOMETRIC_PRESENTATION_REPRESENTATION (  '', ( #168 ), #186 ) ;
#138 = CARTESIAN_POINT ( 'NONE',  ( 0.000000000000000000, 2.250000000000000000, 0.000000000000000000 ) ) ;
#139 = CARTESIAN_POINT ( 'NONE',  ( 0.3750000000000000555, 5.000000000000000000, 0.000000000000000000 ) ) ;
#140 = STYLED_ITEM ( 'NONE', ( #61 ), #295 ) ;
#141 = ORIENTED_EDGE ( 'NONE', *, *, #59, .F. ) ;
#142 =( LENGTH_UNIT ( ) NAMED_UNIT ( * ) SI_UNIT ( $, .METRE. ) );
#143 = CARTESIAN_POINT ( 'NONE',  ( 3.718412684285598933E-34, 2.250000000000000000, 0.000000000000000000 ) ) ;
#144 = APPLICATION_PROTOCOL_DEFINITION ( 'draft international standard', 'automotive_design', 1998, #80 ) ;
#145 = ORIENTED_EDGE ( 'NONE', *, *, #66, .F. ) ;
#146 = EDGE_LOOP ( 'NONE', ( #95, #63 ) ) ;
#147 = PLANE ( 'NONE',  #254 ) ;
#148 = CARTESIAN_POINT ( 'NONE',  ( 0.000000000000000000, 2.250000000000000000, 0.000000000000000000 ) ) ;
#149 = CIRCLE ( 'NONE', #8, 0.3750000000000000555 ) ;
#150 = UNCERTAINTY_MEASURE_WITH_UNIT (LENGTH_MEASURE( 1.000000000000000082E-05 ), #105, 'distance_accuracy_value', 'NONE');
#151 =( CONVERSION_BASED_UNIT ( 'INCH', #79 ) LENGTH_UNIT ( ) NAMED_UNIT ( #291 ) );
#152 = CARTESIAN_POINT ( 'NONE',  ( 1.516480271171051896E-32, 2.250000000000000444, 0.000000000000000000 ) ) ;
#153 = LENGTH_MEASURE_WITH_UNIT ( LENGTH_MEASURE( 0.02539999999999999897 ), #234 );
#154 = FILL_AREA_STYLE ('',( #52 ) ) ;
#155 = ADVANCED_FACE ( 'NONE', ( #99 ), #197, .T. ) ;
#156 =( GEOMETRIC_REPRESENTATION_CONTEXT ( 3 ) GLOBAL_UNCERTAINTY_ASSIGNED_CONTEXT ( ( #150 ) ) GLOBAL_UNIT_ASSIGNED_CONTEXT ( ( #105, #201, #25 ) ) REPRESENTATION_CONTEXT ( 'NONE', 'WORKASPACE' ) );
#157 = AXIS2_PLACEMENT_3D ( 'NONE', #138, #134, #88 ) ;
#158 = CARTESIAN_POINT ( 'NONE',  ( 0.000000000000000000, 0.000000000000000000, 0.000000000000000000 ) ) ;
#159 = ORIENTED_EDGE ( 'NONE', *, *, #199, .F. ) ;
#160 = CLOSED_SHELL ( 'NONE', ( #299, #252, #286, #181 ) ) ;
#161 = VECTOR ( 'NONE', #276, 39.37007874015748143 ) ;
#162 = ORIENTED_EDGE ( 'NONE', *, *, #120, .T. ) ;
#163 = EDGE_LOOP ( 'NONE', ( #258, #72, #239, #37 ) ) ;
#164 = UNCERTAINTY_MEASURE_WITH_UNIT (LENGTH_MEASURE( 1.000000000000000082E-05 ), #251, 'distance_accuracy_value', 'NONE');
#165 = DIRECTION ( 'NONE',  ( -1.000000000000000000, 0.000000000000000000, 0.000000000000000000 ) ) ;
#166 =( LENGTH_UNIT ( ) NAMED_UNIT ( * ) SI_UNIT ( $, .METRE. ) );
#167 = ORIENTED_EDGE ( 'NONE', *, *, #32, .T. ) ;
#168 = STYLED_ITEM ( 'NONE', ( #270 ), #235 ) ;
#169 = CYLINDRICAL_SURFACE ( 'NONE', #27, 0.3750000000000001110 ) ;
#170 = DIMENSIONAL_EXPONENTS ( 1.000000000000000000, 0.000000000000000000, 0.000000000000000000, 0.000000000000000000, 0.000000000000000000, 0.000000000000000000, 0.000000000000000000 ) ;
#171 =( NAMED_UNIT ( * ) PLANE_ANGLE_UNIT ( ) SI_UNIT ( $, .RADIAN. ) );
#172 = DIRECTION ( 'NONE',  ( -0.000000000000000000, -1.000000000000000000, -0.000000000000000000 ) ) ;
#173 = SURFACE_STYLE_FILL_AREA ( #269 ) ;
#174 =( NAMED_UNIT ( * ) SI_UNIT ( $, .STERADIAN. ) SOLID_ANGLE_UNIT ( ) );
#175 = SURFACE_STYLE_USAGE ( .BOTH. , #1 ) ;
#176 = AXIS2_PLACEMENT_3D ( 'NONE', #139, #111, #211 ) ;
#177 = CARTESIAN_POINT ( 'NONE',  ( -1.224646799147353207E-16, 5.000000000000000000, 0.000000000000000000 ) ) ;
#178 = CLOSED_SHELL ( 'NONE', ( #155, #193, #295, #55 ) ) ;
#179 = DIRECTION ( 'NONE',  ( -4.453261087808557677E-17, 1.000000000000000000, -0.000000000000000000 ) ) ;
#180 = CARTESIAN_POINT ( 'NONE',  ( -0.3750000000000002220, 5.000000000000000000, 0.000000000000000000 ) ) ;
#181 = ADVANCED_FACE ( 'NONE', ( #33 ), #6, .F. ) ;
#182 = AXIS2_PLACEMENT_3D ( 'NONE', #217, #284, #261 ) ;
#183 = VECTOR ( 'NONE', #272, 39.37007874015748143 ) ;
#184 = CARTESIAN_POINT ( 'NONE',  ( 0.3750000000000000555, 5.000000000000000000, 4.592425496802576684E-17 ) ) ;
#185 = CARTESIAN_POINT ( 'NONE',  ( 0.000000000000000000, 0.000000000000000000, 0.000000000000000000 ) ) ;
#186 =( GEOMETRIC_REPRESENTATION_CONTEXT ( 3 ) GLOBAL_UNCERTAINTY_ASSIGNED_CONTEXT ( ( #218 ) ) GLOBAL_UNIT_ASSIGNED_CONTEXT ( ( #202, #171, #240 ) ) REPRESENTATION_CONTEXT ( 'NONE', 'WORKASPACE' ) );
#187 =( NAMED_UNIT ( * ) PLANE_ANGLE_UNIT ( ) SI_UNIT ( $, .RADIAN. ) );
#188 = ORIENTED_EDGE ( 'NONE', *, *, #26, .F. ) ;
#189 = VERTEX_POINT ( 'NONE', #112 ) ;
#190 = AXIS2_PLACEMENT_3D ( 'NONE', #152, #224, #306 ) ;
#191 = ORIENTED_EDGE ( 'NONE', *, *, #125, .T. ) ;
#192 = AXIS2_PLACEMENT_3D ( 'NONE', #248, #179, #85 ) ;
#193 = ADVANCED_FACE ( 'NONE', ( #250 ), #31, .T. ) ;
#194 = VERTEX_POINT ( 'NONE', #184 ) ;
#195 = FILL_AREA_STYLE ('',( #305 ) ) ;
#196 = SURFACE_STYLE_FILL_AREA ( #308 ) ;
#197 = CYLINDRICAL_SURFACE ( 'NONE', #263, 0.3750000000000000555 ) ;
#198 = DIRECTION ( 'NONE',  ( 0.000000000000000000, 0.000000000000000000, -1.000000000000000000 ) ) ;
#199 = EDGE_CURVE ( 'NONE', #256, #194, #10, .T. ) ;
#200 =( CONVERSION_BASED_UNIT ( 'INCH', #223 ) LENGTH_UNIT ( ) NAMED_UNIT ( #48 ) );
#201 =( NAMED_UNIT ( * ) PLANE_ANGLE_UNIT ( ) SI_UNIT ( $, .RADIAN. ) );
#202 =( CONVERSION_BASED_UNIT ( 'INCH', #76 ) LENGTH_UNIT ( ) NAMED_UNIT ( #170 ) );
#203 = PRESENTATION_STYLE_ASSIGNMENT (( #175 ) ) ;
#204 = UNCERTAINTY_MEASURE_WITH_UNIT (LENGTH_MEASURE( 1.000000000000000082E-05 ), #273, 'distance_accuracy_value', 'NONE');
#205 = EDGE_CURVE ( 'NONE', #220, #282, #109, .T. ) ;
#206 = SURFACE_SIDE_STYLE ('',( #90 ) ) ;
#207 =( CONVERSION_BASED_UNIT ( 'INCH', #29 ) LENGTH_UNIT ( ) NAMED_UNIT ( #108 ) );
#208 = CIRCLE ( 'NONE', #115, 0.3750000000000000555 ) ;
#209 = AXIS2_PLACEMENT_3D ( 'NONE', #92, #119, #17 ) ;
#210 = VECTOR ( 'NONE', #104, 39.37007874015748143 ) ;
#211 = DIRECTION ( 'NONE',  ( 1.000000000000000000, 4.453261087808557677E-17, 0.000000000000000000 ) ) ;
#212 =( NAMED_UNIT ( * ) SI_UNIT ( $, .STERADIAN. ) SOLID_ANGLE_UNIT ( ) );
#213 = COLOUR_RGB ( '',1.000000000000000000, 0.000000000000000000, 0.000000000000000000 ) ;
#214 = CARTESIAN_POINT ( 'NONE',  ( -1.224646799147353207E-16, 5.000000000000000000, 0.000000000000000000 ) ) ;
#215 = EDGE_LOOP ( 'NONE', ( #141, #35, #260, #34 ) ) ;
#216 = SURFACE_SIDE_STYLE ('',( #257 ) ) ;
#217 = CARTESIAN_POINT ( 'NONE',  ( 0.000000000000000000, 0.000000000000000000, 0.000000000000000000 ) ) ;
#218 = UNCERTAINTY_MEASURE_WITH_UNIT (LENGTH_MEASURE( 1.000000000000000082E-05 ), #202, 'distance_accuracy_value', 'NONE');
#219 = DIMENSIONAL_EXPONENTS ( 1.000000000000000000, 0.000000000000000000, 0.000000000000000000, 0.000000000000000000, 0.000000000000000000, 0.000000000000000000, 0.000000000000000000 ) ;
#220 = VERTEX_POINT ( 'NONE', #297 ) ;
#221 = APPLICATION_PROTOCOL_DEFINITION ( 'draft international standard', 'automotive_design', 1998, #91 ) ;
#222 = CARTESIAN_POINT ( 'NONE',  ( 0.000000000000000000, 0.000000000000000000, -0.3750000000000000555 ) ) ;
#223 = LENGTH_MEASURE_WITH_UNIT ( LENGTH_MEASURE( 0.02539999999999999897 ), #166 );
#224 = DIRECTION ( 'NONE',  ( -4.453261087808557677E-17, 1.000000000000000000, -0.000000000000000000 ) ) ;
#225 = UNCERTAINTY_MEASURE_WITH_UNIT (LENGTH_MEASURE( 1.000000000000000082E-05 ), #207, 'distance_accuracy_value', 'NONE');
#226 = CARTESIAN_POINT ( 'NONE',  ( 4.592425496802575451E-17, 0.000000000000000000, 0.3750000000000000555 ) ) ;
#227 = PRESENTATION_LAYER_ASSIGNMENT (  '', '', ( #140 ) ) ;
#228 = EDGE_CURVE ( 'NONE', #68, #256, #287, .T. ) ;
#229 = LINE ( 'NONE', #43, #210 ) ;
#230 = SURFACE_SIDE_STYLE ('',( #196 ) ) ;
#231 = DIRECTION ( 'NONE',  ( 0.000000000000000000, -1.000000000000000000, -0.000000000000000000 ) ) ;
#232 = MANIFOLD_SOLID_BREP ( 'Revolve - Cutting Edge', #178 ) ;
#233 = ORIENTED_EDGE ( 'NONE', *, *, #120, .F. ) ;
#234 =( LENGTH_UNIT ( ) NAMED_UNIT ( * ) SI_UNIT ( $, .METRE. ) );
#235 = MANIFOLD_SOLID_BREP ( 'Revolve - Tool Body (Straight Shanked)', #160 ) ;
#236 = SURFACE_SIDE_STYLE ('',( #264 ) ) ;
#237 =( GEOMETRIC_REPRESENTATION_CONTEXT ( 3 ) GLOBAL_UNCERTAINTY_ASSIGNED_CONTEXT ( ( #164 ) ) GLOBAL_UNIT_ASSIGNED_CONTEXT ( ( #251, #135, #212 ) ) REPRESENTATION_CONTEXT ( 'NONE', 'WORKASPACE' ) );
#238 = EDGE_LOOP ( 'NONE', ( #262, #98 ) ) ;
#239 = ORIENTED_EDGE ( 'NONE', *, *, #42, .F. ) ;
#240 =( NAMED_UNIT ( * ) SI_UNIT ( $, .STERADIAN. ) SOLID_ANGLE_UNIT ( ) );
#241 =( LENGTH_UNIT ( ) NAMED_UNIT ( * ) SI_UNIT ( $, .METRE. ) );
#242 = EDGE_LOOP ( 'NONE', ( #18, #124, #118, #233 ) ) ;
#243 = DIRECTION ( 'NONE',  ( -0.000000000000000000, -1.000000000000000000, -0.000000000000000000 ) ) ;
#244 =( NAMED_UNIT ( * ) SI_UNIT ( $, .STERADIAN. ) SOLID_ANGLE_UNIT ( ) );
#245 = PRODUCT_RELATED_PRODUCT_CATEGORY ( 'part', '', ( #103 ) ) ;
#246 = DIRECTION ( 'NONE',  ( -1.000000000000000000, 0.000000000000000000, 0.000000000000000000 ) ) ;
#247 = LENGTH_MEASURE_WITH_UNIT ( LENGTH_MEASURE( 0.02539999999999999897 ), #241 );
#248 = CARTESIAN_POINT ( 'NONE',  ( -1.224646799147353207E-16, 5.000000000000000000, 0.000000000000000000 ) ) ;
#249 = STYLED_ITEM ( 'NONE', ( #259 ), #232 ) ;
#250 = FACE_OUTER_BOUND ( 'NONE', #13, .T. ) ;
#251 =( CONVERSION_BASED_UNIT ( 'INCH', #153 ) LENGTH_UNIT ( ) NAMED_UNIT ( #20 ) );
#252 = ADVANCED_FACE ( 'NONE', ( #62 ), #147, .F. ) ;
#253 = CIRCLE ( 'NONE', #190, 0.3750000000000000555 ) ;
#254 = AXIS2_PLACEMENT_3D ( 'NONE', #143, #74, #14 ) ;
#255 = DIRECTION ( 'NONE',  ( -0.000000000000000000, -1.000000000000000000, -0.000000000000000000 ) ) ;
#256 = VERTEX_POINT ( 'NONE', #285 ) ;
#257 = SURFACE_STYLE_FILL_AREA ( #71 ) ;
#258 = ORIENTED_EDGE ( 'NONE', *, *, #97, .T. ) ;
#259 = PRESENTATION_STYLE_ASSIGNMENT (( #65 ) ) ;
#260 = ORIENTED_EDGE ( 'NONE', *, *, #50, .T. ) ;
#261 = DIRECTION ( 'NONE',  ( 1.000000000000000000, 0.000000000000000000, 0.000000000000000000 ) ) ;
#262 = ORIENTED_EDGE ( 'NONE', *, *, #42, .T. ) ;
#263 = AXIS2_PLACEMENT_3D ( 'NONE', #185, #54, #116 ) ;
#264 = SURFACE_STYLE_FILL_AREA ( #195 ) ;
#265 = SURFACE_STYLE_FILL_AREA ( #77 ) ;
#266 = SURFACE_STYLE_USAGE ( .BOTH. , #230 ) ;
#267 = CARTESIAN_POINT ( 'NONE',  ( 0.000000000000000000, 0.000000000000000000, 0.000000000000000000 ) ) ;
#268 = COLOUR_RGB ( '',1.000000000000000000, 0.000000000000000000, 0.000000000000000000 ) ;
#269 = FILL_AREA_STYLE ('',( #41 ) ) ;
#270 = PRESENTATION_STYLE_ASSIGNMENT (( #266 ) ) ;
#271 = CARTESIAN_POINT ( 'NONE',  ( 0.000000000000000000, 2.250000000000000000, 0.000000000000000000 ) ) ;
#272 = DIRECTION ( 'NONE',  ( -4.453261087808557677E-17, 1.000000000000000000, -0.000000000000000000 ) ) ;
#273 =( CONVERSION_BASED_UNIT ( 'INCH', #58 ) LENGTH_UNIT ( ) NAMED_UNIT ( #219 ) );
#274 =( GEOMETRIC_REPRESENTATION_CONTEXT ( 3 ) GLOBAL_UNCERTAINTY_ASSIGNED_CONTEXT ( ( #94 ) ) GLOBAL_UNIT_ASSIGNED_CONTEXT ( ( #200, #40, #244 ) ) REPRESENTATION_CONTEXT ( 'NONE', 'WORKASPACE' ) );
#275 = SURFACE_STYLE_USAGE ( .BOTH. , #7 ) ;
#276 = DIRECTION ( 'NONE',  ( -4.453261087808557677E-17, 1.000000000000000000, -0.000000000000000000 ) ) ;
#277 =( NAMED_UNIT ( * ) SI_UNIT ( $, .STERADIAN. ) SOLID_ANGLE_UNIT ( ) );
#278 = ORIENTED_EDGE ( 'NONE', *, *, #97, .F. ) ;
#279 = VERTEX_POINT ( 'NONE', #121 ) ;
#280 = CYLINDRICAL_SURFACE ( 'NONE', #123, 0.3750000000000000555 ) ;
#281 = FILL_AREA_STYLE_COLOUR ( '', #38 ) ;
#282 = VERTEX_POINT ( 'NONE', #222 ) ;
#283 = UNCERTAINTY_MEASURE_WITH_UNIT (LENGTH_MEASURE( 1.000000000000000082E-05 ), #151, 'distance_accuracy_value', 'NONE');
#284 = DIRECTION ( 'NONE',  ( 0.000000000000000000, 0.000000000000000000, 1.000000000000000000 ) ) ;
#285 = CARTESIAN_POINT ( 'NONE',  ( 0.3750000000000000555, 2.250000000000000444, 4.592425496802576684E-17 ) ) ;
#286 = ADVANCED_FACE ( 'NONE', ( #302 ), #169, .T. ) ;
#287 = CIRCLE ( 'NONE', #209, 0.3750000000000000555 ) ;
#288 =( LENGTH_UNIT ( ) NAMED_UNIT ( * ) SI_UNIT ( $, .METRE. ) );
#289 = FILL_AREA_STYLE_COLOUR ( '', #122 ) ;
#290 = LINE ( 'NONE', #180, #183 ) ;
#291 = DIMENSIONAL_EXPONENTS ( 1.000000000000000000, 0.000000000000000000, 0.000000000000000000, 0.000000000000000000, 0.000000000000000000, 0.000000000000000000, 0.000000000000000000 ) ;
#292 = STYLED_ITEM ( 'NONE', ( #114 ), #155 ) ;
#293 = FACE_OUTER_BOUND ( 'NONE', #238, .T. ) ;
#294 = PRESENTATION_LAYER_ASSIGNMENT (  '', '', ( #136 ) ) ;
#295 = ADVANCED_FACE ( 'NONE', ( #298 ), #280, .T. ) ;
#296 = CARTESIAN_POINT ( 'NONE',  ( 0.3749999999999999445, 5.000000000000000000, 4.592425496802576068E-17 ) ) ;
#297 = CARTESIAN_POINT ( 'NONE',  ( 4.592425496802575451E-17, 0.000000000000000000, 0.3750000000000000555 ) ) ;
#298 = FACE_OUTER_BOUND ( 'NONE', #215, .T. ) ;
#299 = ADVANCED_FACE ( 'NONE', ( #23 ), #82, .T. ) ;
#300 = SHAPE_DEFINITION_REPRESENTATION ( #75, #16 ) ;
#301 = MECHANICAL_DESIGN_GEOMETRIC_PRESENTATION_REPRESENTATION (  '', ( #136 ), #156 ) ;
#302 = FACE_OUTER_BOUND ( 'NONE', #39, .T. ) ;
#303 = AXIS2_PLACEMENT_3D ( 'NONE', #177, #47, #246 ) ;
#304 = EDGE_LOOP ( 'NONE', ( #167, #19 ) ) ;
#305 = FILL_AREA_STYLE_COLOUR ( '', #213 ) ;
#306 = DIRECTION ( 'NONE',  ( -1.000000000000000000, 0.000000000000000000, 0.000000000000000000 ) ) ;
#307 = PRODUCT_DEFINITION_FORMATION_WITH_SPECIFIED_SOURCE ( 'ANY', '', #103, .NOT_KNOWN. ) ;
#308 = FILL_AREA_STYLE ('',( #130 ) ) ;
#309 = DIRECTION ( 'NONE',  ( -0.000000000000000000, -1.000000000000000000, -0.000000000000000000 ) ) ;
ENDSEC;
END-ISO-10303-21;
