ISO-10303-21;
HEADER;
FILE_DESCRIPTION (( 'STEP AP214' ),
    '1' );
FILE_NAME ('Micro_SFAM-120050.STEP',
    '2021-09-02T04:28:31',
    ( '' ),
    ( '' ),
    'SwSTEP 2.0',
    'SolidWorks 2020',
    '' );
FILE_SCHEMA (( 'AUTOMOTIVE_DESIGN' ));
ENDSEC;

DATA;
#1 = FACE_OUTER_BOUND ( 'NONE', #260, .T. ) ;
#2 = ADVANCED_FACE ( 'NONE', ( #92 ), #234, .T. ) ;
#3 = DIRECTION ( 'NONE',  ( 1.000000000000000000, 0.0000000000000000000, 0.0000000000000000000 ) ) ;
#4 = ORIENTED_EDGE ( 'NONE', *, *, #124, .F. ) ;
#5 = CARTESIAN_POINT ( 'NONE',  ( -0.2359842795000000049, 0.0000000000000000000, 5.779947850775387426E-17 ) ) ;
#6 = ORIENTED_EDGE ( 'NONE', *, *, #195, .T. ) ;
#7 = VERTEX_POINT ( 'NONE', #281 ) ;
#8 = VECTOR ( 'NONE', #178, 39.37007874015748143 ) ;
#9 = AXIS2_PLACEMENT_3D ( 'NONE', #191, #193, #41 ) ;
#10 = ORIENTED_EDGE ( 'NONE', *, *, #244, .F. ) ;
#11 = DIRECTION ( 'NONE',  ( 0.1736481776669313859, 0.0000000000000000000, 0.9848077530122077983 ) ) ;
#12 = CIRCLE ( 'NONE', #114, 0.2362204999999999999 ) ;
#13 = COLOUR_RGB ( '',0.7921568627450980005, 0.8196078431372548767, 0.9333333333333333481 ) ;
#14 = DIRECTION ( 'NONE',  ( 0.0000000000000000000, 0.0000000000000000000, 1.000000000000000000 ) ) ;
#15 = CARTESIAN_POINT ( 'NONE',  ( 1.928577453237649374E-16, 0.0000000000000000000, 1.574802999999999953 ) ) ;
#16 = ORIENTED_EDGE ( 'NONE', *, *, #113, .F. ) ;
#17 = DIRECTION ( 'NONE',  ( -1.000000000000000000, 0.0000000000000000000, 0.0000000000000000000 ) ) ;
#18 = LINE ( 'NONE', #275, #160 ) ;
#19 = SURFACE_STYLE_USAGE ( .BOTH. , #228 ) ;
#20 = APPLICATION_PROTOCOL_DEFINITION ( 'draft international standard', 'automotive_design', 1998, #207 ) ;
#21 = ORIENTED_EDGE ( 'NONE', *, *, #100, .F. ) ;
#22 = ADVANCED_FACE ( 'NONE', ( #255 ), #230, .T. ) ;
#23 = CARTESIAN_POINT ( 'NONE',  ( 0.0000000000000000000, 0.0000000000000000000, 0.0000000000000000000 ) ) ;
#24 = PRODUCT_DEFINITION_SHAPE ( 'NONE', 'NONE',  #61 ) ;
#25 = CIRCLE ( 'NONE', #51, 0.2362204999999999999 ) ;
#26 = VERTEX_POINT ( 'NONE', #5 ) ;
#27 = ORIENTED_EDGE ( 'NONE', *, *, #249, .F. ) ;
#28 = EDGE_CURVE ( 'NONE', #212, #118, #106, .T. ) ;
#29 = ORIENTED_EDGE ( 'NONE', *, *, #94, .F. ) ;
#30 = PRESENTATION_LAYER_ASSIGNMENT (  '', '', ( #52 ) ) ;
#31 = UNCERTAINTY_MEASURE_WITH_UNIT (LENGTH_MEASURE( 1.000000000000000082E-05 ), #243, 'distance_accuracy_value', 'NONE');
#32 =( NAMED_UNIT ( * ) PLANE_ANGLE_UNIT ( ) SI_UNIT ( $, .RADIAN. ) );
#33 = CYLINDRICAL_SURFACE ( 'NONE', #172, 0.2362204999999999999 ) ;
#34 = COLOUR_RGB ( '',0.7921568627450980005, 0.8196078431372548767, 0.9333333333333333481 ) ;
#35 = DIRECTION ( 'NONE',  ( -1.224646799147353207E-16, -0.0000000000000000000, -1.000000000000000000 ) ) ;
#36 = APPLICATION_PROTOCOL_DEFINITION ( 'draft international standard', 'automotive_design', 1998, #59 ) ;
#37 = DIRECTION ( 'NONE',  ( 1.224646799147353207E-16, 0.0000000000000000000, 1.000000000000000000 ) ) ;
#38 = DIRECTION ( 'NONE',  ( -1.000000000000000000, 0.0000000000000000000, 1.224646799147353207E-16 ) ) ;
#39 = ADVANCED_FACE ( 'NONE', ( #221 ), #33, .T. ) ;
#40 = CARTESIAN_POINT ( 'NONE',  ( -0.2362204999999999999, 0.0000000000000000000, 3.543306999999999984 ) ) ;
#41 = DIRECTION ( 'NONE',  ( 1.000000000000000000, 0.0000000000000000000, 0.0000000000000000000 ) ) ;
#42 = PRODUCT_DEFINITION_FORMATION_WITH_SPECIFIED_SOURCE ( 'ANY', '', #209, .NOT_KNOWN. ) ;
#43 = ORIENTED_EDGE ( 'NONE', *, *, #85, .T. ) ;
#44 = VERTEX_POINT ( 'NONE', #140 ) ;
#45 = VERTEX_POINT ( 'NONE', #240 ) ;
#46 = CARTESIAN_POINT ( 'NONE',  ( 0.2212204999999989319, 2.709169772307757438E-17, 3.543306999999999984 ) ) ;
#47 = ORIENTED_EDGE ( 'NONE', *, *, #145, .F. ) ;
#48 = CARTESIAN_POINT ( 'NONE',  ( -0.2212204999999989319, 0.0000000000000000000, 3.543306999999999984 ) ) ;
#49 = EDGE_LOOP ( 'NONE', ( #298, #283, #4, #16 ) ) ;
#50 = DIRECTION ( 'NONE',  ( 1.224646799147353207E-16, 0.0000000000000000000, 1.000000000000000000 ) ) ;
#51 = AXIS2_PLACEMENT_3D ( 'NONE', #56, #206, #3 ) ;
#52 = STYLED_ITEM ( 'NONE', ( #165 ), #79 ) ;
#53 = CARTESIAN_POINT ( 'NONE',  ( 0.2359842795000000049, 2.889973925387693713E-17, 0.0000000000000000000 ) ) ;
#54 = FILL_AREA_STYLE_COLOUR ( '', #13 ) ;
#55 = AXIS2_PLACEMENT_3D ( 'NONE', #197, #226, #250 ) ;
#56 = CARTESIAN_POINT ( 'NONE',  ( 0.0000000000000000000, 0.0000000000000000000, 3.528306999999998972 ) ) ;
#57 = LINE ( 'NONE', #151, #258 ) ;
#58 = CONICAL_SURFACE ( 'NONE', #62, 0.2359842795000000049, 0.1745329251994338915 ) ;
#59 = APPLICATION_CONTEXT ( 'automotive_design' ) ;
#60 = DIRECTION ( 'NONE',  ( 1.000000000000000000, 0.0000000000000000000, 0.0000000000000000000 ) ) ;
#61 = PRODUCT_DEFINITION ( 'UNKNOWN', '', #42, #200 ) ;
#62 = AXIS2_PLACEMENT_3D ( 'NONE', #214, #50, #60 ) ;
#63 = VERTEX_POINT ( 'NONE', #265 ) ;
#64 = EDGE_LOOP ( 'NONE', ( #98, #132, #107, #232 ) ) ;
#65 = EDGE_LOOP ( 'NONE', ( #134, #179, #21, #256 ) ) ;
#66 = CARTESIAN_POINT ( 'NONE',  ( 1.930218079522155727E-16, 0.0000000000000000000, 1.576142673027071117 ) ) ;
#67 = ORIENTED_EDGE ( 'NONE', *, *, #113, .T. ) ;
#68 = STYLED_ITEM ( 'NONE', ( #282 ), #196 ) ;
#69 = VECTOR ( 'NONE', #11, 39.37007874015748143 ) ;
#70 = LINE ( 'NONE', #135, #147 ) ;
#71 = VERTEX_POINT ( 'NONE', #53 ) ;
#72 = DIRECTION ( 'NONE',  ( 1.000000000000000000, 0.0000000000000000000, 0.0000000000000000000 ) ) ;
#73 = DIRECTION ( 'NONE',  ( -1.000000000000000000, 0.0000000000000000000, 0.0000000000000000000 ) ) ;
#74 = UNCERTAINTY_MEASURE_WITH_UNIT (LENGTH_MEASURE( 1.000000000000000082E-05 ), #236, 'distance_accuracy_value', 'NONE');
#75 = PLANE ( 'NONE',  #133 ) ;
#76 = CARTESIAN_POINT ( 'NONE',  ( 0.2359842795000002269, 0.0000000000000000000, 1.574802999999999953 ) ) ;
#77 = CARTESIAN_POINT ( 'NONE',  ( 0.2212204999999989319, 2.801018282243815196E-17, 3.543306999999999984 ) ) ;
#78 = LINE ( 'NONE', #76, #69 ) ;
#79 = ADVANCED_BREP_SHAPE_REPRESENTATION ( 'Micro_SFAM-120050', ( #196, #9 ), #253 ) ;
#80 = DIRECTION ( 'NONE',  ( 0.0000000000000000000, 0.0000000000000000000, 1.000000000000000000 ) ) ;
#81 = DIRECTION ( 'NONE',  ( -1.224646799147353207E-16, -0.0000000000000000000, -1.000000000000000000 ) ) ;
#82 = PRESENTATION_LAYER_ASSIGNMENT (  '', '', ( #68 ) ) ;
#83 = AXIS2_PLACEMENT_3D ( 'NONE', #167, #37, #166 ) ;
#84 = PRODUCT_CONTEXT ( 'NONE', #59, 'mechanical' ) ;
#85 = EDGE_CURVE ( 'NONE', #198, #95, #251, .T. ) ;
#86 = CARTESIAN_POINT ( 'NONE',  ( 0.0000000000000000000, 0.0000000000000000000, 3.543306999999999984 ) ) ;
#87 = DIRECTION ( 'NONE',  ( 1.000000000000000000, 0.0000000000000000000, 0.0000000000000000000 ) ) ;
#88 = LINE ( 'NONE', #46, #285 ) ;
#89 = CLOSED_SHELL ( 'NONE', ( #187, #262, #175, #39, #2, #277, #163, #130, #22, #239 ) ) ;
#90 = LINE ( 'NONE', #183, #231 ) ;
#91 = AXIS2_PLACEMENT_3D ( 'NONE', #104, #296, #220 ) ;
#92 = FACE_OUTER_BOUND ( 'NONE', #137, .T. ) ;
#93 = ORIENTED_EDGE ( 'NONE', *, *, #85, .F. ) ;
#94 = EDGE_CURVE ( 'NONE', #44, #95, #12, .T. ) ;
#95 = VERTEX_POINT ( 'NONE', #170 ) ;
#96 = ORIENTED_EDGE ( 'NONE', *, *, #270, .F. ) ;
#97 = CONICAL_SURFACE ( 'NONE', #216, 0.2212204999999989319, 0.7853981633974573828 ) ;
#98 = ORIENTED_EDGE ( 'NONE', *, *, #205, .F. ) ;
#99 = CARTESIAN_POINT ( 'NONE',  ( -0.2362204999999999999, 0.0000000000000000000, 3.528306999999998972 ) ) ;
#100 = EDGE_CURVE ( 'NONE', #198, #63, #25, .T. ) ;
#101 = LENGTH_MEASURE_WITH_UNIT ( LENGTH_MEASURE( 0.02539999999999999897 ), #241 );
#102 = FACE_OUTER_BOUND ( 'NONE', #181, .T. ) ;
#103 = LENGTH_MEASURE_WITH_UNIT ( LENGTH_MEASURE( 0.02539999999999999897 ), #144 );
#104 = CARTESIAN_POINT ( 'NONE',  ( 1.930218079522155727E-16, 0.0000000000000000000, 1.576142673027071117 ) ) ;
#105 = AXIS2_PLACEMENT_3D ( 'NONE', #125, #14, #190 ) ;
#106 = CIRCLE ( 'NONE', #219, 0.2212204999999989319 ) ;
#107 = ORIENTED_EDGE ( 'NONE', *, *, #257, .T. ) ;
#108 = EDGE_CURVE ( 'NONE', #118, #212, #139, .T. ) ;
#109 = FACE_OUTER_BOUND ( 'NONE', #49, .T. ) ;
#110 = CARTESIAN_POINT ( 'NONE',  ( 0.0000000000000000000, 0.0000000000000000000, 3.528306999999998972 ) ) ;
#111 = SHAPE_DEFINITION_REPRESENTATION ( #24, #79 ) ;
#112 = EDGE_LOOP ( 'NONE', ( #224, #157 ) ) ;
#113 = EDGE_CURVE ( 'NONE', #45, #26, #90, .T. ) ;
#114 = AXIS2_PLACEMENT_3D ( 'NONE', #66, #293, #72 ) ;
#115 = DIRECTION ( 'NONE',  ( -1.224646799147353207E-16, -0.0000000000000000000, -1.000000000000000000 ) ) ;
#116 = ORIENTED_EDGE ( 'NONE', *, *, #246, .T. ) ;
#117 = ORIENTED_EDGE ( 'NONE', *, *, #28, .F. ) ;
#118 = VERTEX_POINT ( 'NONE', #77 ) ;
#119 = MECHANICAL_DESIGN_GEOMETRIC_PRESENTATION_REPRESENTATION (  '', ( #68 ), #238 ) ;
#120 = DIRECTION ( 'NONE',  ( -1.000000000000000000, 0.0000000000000000000, 1.224646799147353207E-16 ) ) ;
#121 = FILL_AREA_STYLE ('',( #54 ) ) ;
#122 = CARTESIAN_POINT ( 'NONE',  ( 3.539197317345351204E-33, 0.0000000000000000000, 2.889973925387693713E-17 ) ) ;
#123 = CIRCLE ( 'NONE', #194, 0.2362204999999999999 ) ;
#124 = EDGE_CURVE ( 'NONE', #26, #71, #227, .T. ) ;
#125 = CARTESIAN_POINT ( 'NONE',  ( 0.0000000000000000000, 0.0000000000000000000, 0.0000000000000000000 ) ) ;
#126 = AXIS2_PLACEMENT_3D ( 'NONE', #23, #115, #210 ) ;
#127 = DIRECTION ( 'NONE',  ( -0.0000000000000000000, -0.0000000000000000000, -1.000000000000000000 ) ) ;
#128 = DIRECTION ( 'NONE',  ( -0.7071067811865539010, 0.0000000000000000000, -0.7071067811865410224 ) ) ;
#129 = AXIS2_PLACEMENT_3D ( 'NONE', #142, #273, #143 ) ;
#130 = ADVANCED_FACE ( 'NONE', ( #158 ), #58, .T. ) ;
#131 = ORIENTED_EDGE ( 'NONE', *, *, #257, .F. ) ;
#132 = ORIENTED_EDGE ( 'NONE', *, *, #294, .F. ) ;
#133 = AXIS2_PLACEMENT_3D ( 'NONE', #168, #272, #192 ) ;
#134 = ORIENTED_EDGE ( 'NONE', *, *, #108, .F. ) ;
#135 = CARTESIAN_POINT ( 'NONE',  ( -0.2359842794999998106, 2.889973925387693713E-17, 1.574802999999999953 ) ) ;
#136 = EDGE_LOOP ( 'NONE', ( #10, #215, #67, #96 ) ) ;
#137 = EDGE_LOOP ( 'NONE', ( #254, #208, #43, #29 ) ) ;
#138 = DIMENSIONAL_EXPONENTS ( 1.000000000000000000, 0.0000000000000000000, 0.0000000000000000000, 0.0000000000000000000, 0.0000000000000000000, 0.0000000000000000000, 0.0000000000000000000 ) ;
#139 = CIRCLE ( 'NONE', #291, 0.2212204999999989319 ) ;
#140 = CARTESIAN_POINT ( 'NONE',  ( 0.2362205000000002220, 2.892866792179876344E-17, 1.576142673027071117 ) ) ;
#141 = CIRCLE ( 'NONE', #292, 0.2359842795000000049 ) ;
#142 = CARTESIAN_POINT ( 'NONE',  ( 1.928577453237649374E-16, 0.0000000000000000000, 1.574802999999999953 ) ) ;
#143 = DIRECTION ( 'NONE',  ( -1.000000000000000000, 0.0000000000000000000, 0.0000000000000000000 ) ) ;
#144 =( LENGTH_UNIT ( ) NAMED_UNIT ( * ) SI_UNIT ( $, .METRE. ) );
#145 = EDGE_CURVE ( 'NONE', #63, #198, #123, .T. ) ;
#146 =( NAMED_UNIT ( * ) SI_UNIT ( $, .STERADIAN. ) SOLID_ANGLE_UNIT ( ) );
#147 = VECTOR ( 'NONE', #289, 39.37007874015747433 ) ;
#148 = LINE ( 'NONE', #295, #279 ) ;
#149 = AXIS2_PLACEMENT_3D ( 'NONE', #267, #297, #274 ) ;
#150 = AXIS2_PLACEMENT_3D ( 'NONE', #15, #35, #218 ) ;
#151 = CARTESIAN_POINT ( 'NONE',  ( -0.2212204999999989319, 0.0000000000000000000, 3.543306999999999984 ) ) ;
#152 = DIRECTION ( 'NONE',  ( 1.000000000000000000, 0.0000000000000000000, 0.0000000000000000000 ) ) ;
#153 = EDGE_CURVE ( 'NONE', #212, #198, #57, .T. ) ;
#154 = SURFACE_STYLE_FILL_AREA ( #276 ) ;
#155 = CONICAL_SURFACE ( 'NONE', #55, 0.2212204999999989319, 0.7853981633974573828 ) ;
#156 = ORIENTED_EDGE ( 'NONE', *, *, #153, .T. ) ;
#157 = ORIENTED_EDGE ( 'NONE', *, *, #270, .T. ) ;
#158 = FACE_OUTER_BOUND ( 'NONE', #64, .T. ) ;
#159 = ORIENTED_EDGE ( 'NONE', *, *, #28, .T. ) ;
#160 = VECTOR ( 'NONE', #127, 39.37007874015748143 ) ;
#161 = ORIENTED_EDGE ( 'NONE', *, *, #100, .T. ) ;
#162 = ORIENTED_EDGE ( 'NONE', *, *, #108, .T. ) ;
#163 = ADVANCED_FACE ( 'NONE', ( #1 ), #155, .T. ) ;
#164 = DIRECTION ( 'NONE',  ( -0.0000000000000000000, -0.0000000000000000000, -1.000000000000000000 ) ) ;
#165 = PRESENTATION_STYLE_ASSIGNMENT (( #290 ) ) ;
#166 = DIRECTION ( 'NONE',  ( 1.000000000000000000, 0.0000000000000000000, 0.0000000000000000000 ) ) ;
#167 = CARTESIAN_POINT ( 'NONE',  ( 1.928577453237649374E-16, 0.0000000000000000000, 1.574802999999999953 ) ) ;
#168 = CARTESIAN_POINT ( 'NONE',  ( 0.0000000000000000000, 0.0000000000000000000, 3.543306999999999984 ) ) ;
#169 = DIRECTION ( 'NONE',  ( -1.224646799147353207E-16, -0.0000000000000000000, -1.000000000000000000 ) ) ;
#170 = CARTESIAN_POINT ( 'NONE',  ( -0.2362204999999998056, 0.0000000000000000000, 1.576142673027071117 ) ) ;
#171 = DIRECTION ( 'NONE',  ( -1.224646799147353207E-16, -0.0000000000000000000, -1.000000000000000000 ) ) ;
#172 = AXIS2_PLACEMENT_3D ( 'NONE', #184, #164, #73 ) ;
#173 = CONICAL_SURFACE ( 'NONE', #83, 0.2359842795000000049, 0.1745329251994338915 ) ;
#174 = FILL_AREA_STYLE_COLOUR ( '', #34 ) ;
#175 = ADVANCED_FACE ( 'NONE', ( #222 ), #97, .T. ) ;
#176 = ORIENTED_EDGE ( 'NONE', *, *, #205, .T. ) ;
#177 = CARTESIAN_POINT ( 'NONE',  ( 0.0000000000000000000, 0.0000000000000000000, 3.543306999999999984 ) ) ;
#178 = DIRECTION ( 'NONE',  ( -0.0000000000000000000, -0.0000000000000000000, -1.000000000000000000 ) ) ;
#179 = ORIENTED_EDGE ( 'NONE', *, *, #201, .T. ) ;
#180 =( NAMED_UNIT ( * ) SI_UNIT ( $, .STERADIAN. ) SOLID_ANGLE_UNIT ( ) );
#181 = EDGE_LOOP ( 'NONE', ( #159, #162 ) ) ;
#182 = CARTESIAN_POINT ( 'NONE',  ( 0.0000000000000000000, 0.0000000000000000000, 3.543306999999999984 ) ) ;
#183 = CARTESIAN_POINT ( 'NONE',  ( -0.2359842795000000049, 0.0000000000000000000, 2.889973925387693713E-17 ) ) ;
#184 = CARTESIAN_POINT ( 'NONE',  ( 0.0000000000000000000, 0.0000000000000000000, 3.543306999999999984 ) ) ;
#185 = DIMENSIONAL_EXPONENTS ( 1.000000000000000000, 0.0000000000000000000, 0.0000000000000000000, 0.0000000000000000000, 0.0000000000000000000, 0.0000000000000000000, 0.0000000000000000000 ) ;
#186 = SURFACE_STYLE_FILL_AREA ( #121 ) ;
#187 = ADVANCED_FACE ( 'NONE', ( #109 ), #203, .T. ) ;
#188 = SURFACE_SIDE_STYLE ('',( #186 ) ) ;
#189 = PRODUCT_RELATED_PRODUCT_CATEGORY ( 'part', '', ( #209 ) ) ;
#190 = DIRECTION ( 'NONE',  ( 1.000000000000000000, 0.0000000000000000000, -0.0000000000000000000 ) ) ;
#191 = CARTESIAN_POINT ( 'NONE',  ( 0.0000000000000000000, 0.0000000000000000000, 0.0000000000000000000 ) ) ;
#192 = DIRECTION ( 'NONE',  ( 1.000000000000000000, 0.0000000000000000000, -0.0000000000000000000 ) ) ;
#193 = DIRECTION ( 'NONE',  ( 0.0000000000000000000, 0.0000000000000000000, 1.000000000000000000 ) ) ;
#194 = AXIS2_PLACEMENT_3D ( 'NONE', #110, #199, #87 ) ;
#195 = EDGE_CURVE ( 'NONE', #63, #44, #18, .T. ) ;
#196 = MANIFOLD_SOLID_BREP ( 'Cut-Revolve1', #89 ) ;
#197 = CARTESIAN_POINT ( 'NONE',  ( 0.0000000000000000000, 0.0000000000000000000, 3.543306999999999984 ) ) ;
#198 = VERTEX_POINT ( 'NONE', #99 ) ;
#199 = DIRECTION ( 'NONE',  ( 0.0000000000000000000, 0.0000000000000000000, -1.000000000000000000 ) ) ;
#200 = PRODUCT_DEFINITION_CONTEXT ( 'detailed design', #207, 'design' ) ;
#201 = EDGE_CURVE ( 'NONE', #118, #63, #88, .T. ) ;
#202 = MECHANICAL_DESIGN_GEOMETRIC_PRESENTATION_REPRESENTATION (  '', ( #52 ), #259 ) ;
#203 = CYLINDRICAL_SURFACE ( 'NONE', #252, 0.2359842795000000049 ) ;
#204 =( NAMED_UNIT ( * ) SI_UNIT ( $, .STERADIAN. ) SOLID_ANGLE_UNIT ( ) );
#205 = EDGE_CURVE ( 'NONE', #45, #95, #70, .T. ) ;
#206 = DIRECTION ( 'NONE',  ( 0.0000000000000000000, 0.0000000000000000000, -1.000000000000000000 ) ) ;
#207 = APPLICATION_CONTEXT ( 'automotive_design' ) ;
#208 = ORIENTED_EDGE ( 'NONE', *, *, #145, .T. ) ;
#209 = PRODUCT ( 'Micro_SFAM-120050', 'Micro_SFAM-120050', '', ( #84 ) ) ;
#210 = DIRECTION ( 'NONE',  ( -1.000000000000000000, 0.0000000000000000000, 1.224646799147353207E-16 ) ) ;
#211 =( NAMED_UNIT ( * ) PLANE_ANGLE_UNIT ( ) SI_UNIT ( $, .RADIAN. ) );
#212 = VERTEX_POINT ( 'NONE', #48 ) ;
#213 = LENGTH_MEASURE_WITH_UNIT ( LENGTH_MEASURE( 0.02539999999999999897 ), #287 );
#214 = CARTESIAN_POINT ( 'NONE',  ( 1.928577453237649374E-16, 0.0000000000000000000, 1.574802999999999953 ) ) ;
#215 = ORIENTED_EDGE ( 'NONE', *, *, #294, .T. ) ;
#216 = AXIS2_PLACEMENT_3D ( 'NONE', #86, #225, #17 ) ;
#217 = ORIENTED_EDGE ( 'NONE', *, *, #246, .F. ) ;
#218 = DIRECTION ( 'NONE',  ( -1.000000000000000000, 0.0000000000000000000, 0.0000000000000000000 ) ) ;
#219 = AXIS2_PLACEMENT_3D ( 'NONE', #177, #80, #245 ) ;
#220 = DIRECTION ( 'NONE',  ( 1.000000000000000000, 0.0000000000000000000, 0.0000000000000000000 ) ) ;
#221 = FACE_OUTER_BOUND ( 'NONE', #229, .T. ) ;
#222 = FACE_OUTER_BOUND ( 'NONE', #65, .T. ) ;
#223 = CIRCLE ( 'NONE', #91, 0.2362204999999999999 ) ;
#224 = ORIENTED_EDGE ( 'NONE', *, *, #124, .T. ) ;
#225 = DIRECTION ( 'NONE',  ( 0.0000000000000000000, 0.0000000000000000000, -1.000000000000000000 ) ) ;
#226 = DIRECTION ( 'NONE',  ( 0.0000000000000000000, 0.0000000000000000000, -1.000000000000000000 ) ) ;
#227 = CIRCLE ( 'NONE', #149, 0.2359842795000000049 ) ;
#228 = SURFACE_SIDE_STYLE ('',( #154 ) ) ;
#229 = EDGE_LOOP ( 'NONE', ( #161, #6, #217, #93 ) ) ;
#230 = CYLINDRICAL_SURFACE ( 'NONE', #126, 0.2359842795000000049 ) ;
#231 = VECTOR ( 'NONE', #263, 39.37007874015748143 ) ;
#232 = ORIENTED_EDGE ( 'NONE', *, *, #94, .T. ) ;
#233 = FACE_OUTER_BOUND ( 'NONE', #112, .T. ) ;
#234 = CYLINDRICAL_SURFACE ( 'NONE', #248, 0.2362204999999999999 ) ;
#235 = DIRECTION ( 'NONE',  ( -0.0000000000000000000, -0.0000000000000000000, -1.000000000000000000 ) ) ;
#236 =( CONVERSION_BASED_UNIT ( 'INCH', #213 ) LENGTH_UNIT ( ) NAMED_UNIT ( #237 ) );
#237 = DIMENSIONAL_EXPONENTS ( 1.000000000000000000, 0.0000000000000000000, 0.0000000000000000000, 0.0000000000000000000, 0.0000000000000000000, 0.0000000000000000000, 0.0000000000000000000 ) ;
#238 =( GEOMETRIC_REPRESENTATION_CONTEXT ( 3 ) GLOBAL_UNCERTAINTY_ASSIGNED_CONTEXT ( ( #74 ) ) GLOBAL_UNIT_ASSIGNED_CONTEXT ( ( #236, #211, #180 ) ) REPRESENTATION_CONTEXT ( 'NONE', 'WORKASPACE' ) );
#239 = ADVANCED_FACE ( 'NONE', ( #233 ), #242, .F. ) ;
#240 = CARTESIAN_POINT ( 'NONE',  ( -0.2359842794999998106, 2.891420358783783796E-17, 1.574802999999999953 ) ) ;
#241 =( LENGTH_UNIT ( ) NAMED_UNIT ( * ) SI_UNIT ( $, .METRE. ) );
#242 = PLANE ( 'NONE',  #105 ) ;
#243 =( CONVERSION_BASED_UNIT ( 'INCH', #103 ) LENGTH_UNIT ( ) NAMED_UNIT ( #185 ) );
#244 = EDGE_CURVE ( 'NONE', #7, #71, #148, .T. ) ;
#245 = DIRECTION ( 'NONE',  ( 1.000000000000000000, 0.0000000000000000000, 0.0000000000000000000 ) ) ;
#246 = EDGE_CURVE ( 'NONE', #95, #44, #223, .T. ) ;
#247 =( NAMED_UNIT ( * ) PLANE_ANGLE_UNIT ( ) SI_UNIT ( $, .RADIAN. ) );
#248 = AXIS2_PLACEMENT_3D ( 'NONE', #261, #235, #280 ) ;
#249 = EDGE_CURVE ( 'NONE', #45, #7, #264, .T. ) ;
#250 = DIRECTION ( 'NONE',  ( -1.000000000000000000, 0.0000000000000000000, 0.0000000000000000000 ) ) ;
#251 = LINE ( 'NONE', #40, #8 ) ;
#252 = AXIS2_PLACEMENT_3D ( 'NONE', #299, #171, #38 ) ;
#253 =( GEOMETRIC_REPRESENTATION_CONTEXT ( 3 ) GLOBAL_UNCERTAINTY_ASSIGNED_CONTEXT ( ( #268 ) ) GLOBAL_UNIT_ASSIGNED_CONTEXT ( ( #269, #32, #146 ) ) REPRESENTATION_CONTEXT ( 'NONE', 'WORKASPACE' ) );
#254 = ORIENTED_EDGE ( 'NONE', *, *, #195, .F. ) ;
#255 = FACE_OUTER_BOUND ( 'NONE', #136, .T. ) ;
#256 = ORIENTED_EDGE ( 'NONE', *, *, #153, .F. ) ;
#257 = EDGE_CURVE ( 'NONE', #7, #44, #78, .T. ) ;
#258 = VECTOR ( 'NONE', #128, 39.37007874015748854 ) ;
#259 =( GEOMETRIC_REPRESENTATION_CONTEXT ( 3 ) GLOBAL_UNCERTAINTY_ASSIGNED_CONTEXT ( ( #31 ) ) GLOBAL_UNIT_ASSIGNED_CONTEXT ( ( #243, #247, #204 ) ) REPRESENTATION_CONTEXT ( 'NONE', 'WORKASPACE' ) );
#260 = EDGE_LOOP ( 'NONE', ( #278, #117, #156, #47 ) ) ;
#261 = CARTESIAN_POINT ( 'NONE',  ( 0.0000000000000000000, 0.0000000000000000000, 3.543306999999999984 ) ) ;
#262 = ADVANCED_FACE ( 'NONE', ( #266 ), #173, .T. ) ;
#263 = DIRECTION ( 'NONE',  ( -1.224646799147353207E-16, -0.0000000000000000000, -1.000000000000000000 ) ) ;
#264 = CIRCLE ( 'NONE', #150, 0.2359842795000000049 ) ;
#265 = CARTESIAN_POINT ( 'NONE',  ( 0.2362204999999999999, 2.892866792179873879E-17, 3.528306999999998972 ) ) ;
#266 = FACE_OUTER_BOUND ( 'NONE', #286, .T. ) ;
#267 = CARTESIAN_POINT ( 'NONE',  ( 3.539197317345351204E-33, 0.0000000000000000000, 2.889973925387693713E-17 ) ) ;
#268 = UNCERTAINTY_MEASURE_WITH_UNIT (LENGTH_MEASURE( 1.000000000000000082E-05 ), #269, 'distance_accuracy_value', 'NONE');
#269 =( CONVERSION_BASED_UNIT ( 'INCH', #101 ) LENGTH_UNIT ( ) NAMED_UNIT ( #138 ) );
#270 = EDGE_CURVE ( 'NONE', #71, #26, #141, .T. ) ;
#271 = CIRCLE ( 'NONE', #129, 0.2359842795000000049 ) ;
#272 = DIRECTION ( 'NONE',  ( 0.0000000000000000000, 0.0000000000000000000, 1.000000000000000000 ) ) ;
#273 = DIRECTION ( 'NONE',  ( -1.224646799147353207E-16, -0.0000000000000000000, -1.000000000000000000 ) ) ;
#274 = DIRECTION ( 'NONE',  ( -1.000000000000000000, 0.0000000000000000000, 1.224646799147353207E-16 ) ) ;
#275 = CARTESIAN_POINT ( 'NONE',  ( 0.2362204999999999999, 2.892866792179873879E-17, 3.543306999999999984 ) ) ;
#276 = FILL_AREA_STYLE ('',( #174 ) ) ;
#277 = ADVANCED_FACE ( 'NONE', ( #102 ), #75, .T. ) ;
#278 = ORIENTED_EDGE ( 'NONE', *, *, #201, .F. ) ;
#279 = VECTOR ( 'NONE', #81, 39.37007874015748143 ) ;
#280 = DIRECTION ( 'NONE',  ( -1.000000000000000000, 0.0000000000000000000, 0.0000000000000000000 ) ) ;
#281 = CARTESIAN_POINT ( 'NONE',  ( 0.2359842795000002269, 0.0000000000000000000, 1.574802999999999953 ) ) ;
#282 = PRESENTATION_STYLE_ASSIGNMENT (( #19 ) ) ;
#283 = ORIENTED_EDGE ( 'NONE', *, *, #244, .T. ) ;
#284 = DIRECTION ( 'NONE',  ( 0.7071067811865539010, 8.659560562355011744E-17, -0.7071067811865410224 ) ) ;
#285 = VECTOR ( 'NONE', #284, 39.37007874015748854 ) ;
#286 = EDGE_LOOP ( 'NONE', ( #27, #176, #116, #131 ) ) ;
#287 =( LENGTH_UNIT ( ) NAMED_UNIT ( * ) SI_UNIT ( $, .METRE. ) );
#288 = DIRECTION ( 'NONE',  ( 0.0000000000000000000, 0.0000000000000000000, 1.000000000000000000 ) ) ;
#289 = DIRECTION ( 'NONE',  ( -0.1736481776669311916, 2.126576849575783316E-17, 0.9848077530122080203 ) ) ;
#290 = SURFACE_STYLE_USAGE ( .BOTH. , #188 ) ;
#291 = AXIS2_PLACEMENT_3D ( 'NONE', #182, #288, #152 ) ;
#292 = AXIS2_PLACEMENT_3D ( 'NONE', #122, #169, #120 ) ;
#293 = DIRECTION ( 'NONE',  ( -1.224646799147353207E-16, -0.0000000000000000000, -1.000000000000000000 ) ) ;
#294 = EDGE_CURVE ( 'NONE', #7, #45, #271, .T. ) ;
#295 = CARTESIAN_POINT ( 'NONE',  ( 0.2359842795000000049, 2.889973925387693713E-17, -2.889973925387693713E-17 ) ) ;
#296 = DIRECTION ( 'NONE',  ( -1.224646799147353207E-16, -0.0000000000000000000, -1.000000000000000000 ) ) ;
#297 = DIRECTION ( 'NONE',  ( -1.224646799147353207E-16, -0.0000000000000000000, -1.000000000000000000 ) ) ;
#298 = ORIENTED_EDGE ( 'NONE', *, *, #249, .T. ) ;
#299 = CARTESIAN_POINT ( 'NONE',  ( 0.0000000000000000000, 0.0000000000000000000, 0.0000000000000000000 ) ) ;
ENDSEC;
END-ISO-10303-21;
