ISO-10303-21;
HEADER;
FILE_DESCRIPTION (( 'STEP AP214' ),
    '1' );
FILE_NAME ('Micro_DMM-030-4120.STEP',
    '2021-09-02T16:14:58',
    ( '' ),
    ( '' ),
    'SwSTEP 2.0',
    'SolidWorks 2020',
    '' );
FILE_SCHEMA (( 'AUTOMOTIVE_DESIGN' ));
ENDSEC;

DATA;
#1 = ADVANCED_FACE ( 'NONE', ( #190 ), #99, .T. ) ;
#2 = FACE_BOUND ( 'NONE', #115, .T. ) ;
#3 = DIRECTION ( 'NONE',  ( -1.000000000000000000, 0.0000000000000000000, 0.0000000000000000000 ) ) ;
#4 = FACE_OUTER_BOUND ( 'NONE', #108, .T. ) ;
#5 = AXIS2_PLACEMENT_3D ( 'NONE', #19, #66, #47 ) ;
#6 =( GEOMETRIC_REPRESENTATION_CONTEXT ( 3 ) GLOBAL_UNCERTAINTY_ASSIGNED_CONTEXT ( ( #278 ) ) GLOBAL_UNIT_ASSIGNED_CONTEXT ( ( #128, #227, #154 ) ) REPRESENTATION_CONTEXT ( 'NONE', 'WORKASPACE' ) );
#7 = UNCERTAINTY_MEASURE_WITH_UNIT (LENGTH_MEASURE( 1.000000000000000082E-05 ), #274, 'distance_accuracy_value', 'NONE');
#8 = DIRECTION ( 'NONE',  ( 0.0000000000000000000, 0.0000000000000000000, 1.000000000000000000 ) ) ;
#9 = FACE_OUTER_BOUND ( 'NONE', #111, .T. ) ;
#10 = AXIS2_PLACEMENT_3D ( 'NONE', #301, #48, #147 ) ;
#11 = CARTESIAN_POINT ( 'NONE',  ( -0.05905499999999998251, 0.0000000000000000000, 0.3149610000000000465 ) ) ;
#12 = EDGE_LOOP ( 'NONE', ( #71, #163, #116, #161 ) ) ;
#13 = AXIS2_PLACEMENT_3D ( 'NONE', #191, #170, #121 ) ;
#14 = ORIENTED_EDGE ( 'NONE', *, *, #233, .F. ) ;
#15 = EDGE_CURVE ( 'NONE', #143, #133, #114, .T. ) ;
#16 = DIRECTION ( 'NONE',  ( -1.000000000000000000, 0.0000000000000000000, 0.0000000000000000000 ) ) ;
#17 = APPLICATION_PROTOCOL_DEFINITION ( 'draft international standard', 'automotive_design', 1998, #206 ) ;
#18 = PRODUCT_DEFINITION ( 'UNKNOWN', '', #231, #79 ) ;
#19 = CARTESIAN_POINT ( 'NONE',  ( 0.05900500000000007128, 0.0000000000000000000, 0.3149610000000000465 ) ) ;
#20 = DIRECTION ( 'NONE',  ( -0.0000000000000000000, -0.0000000000000000000, -1.000000000000000000 ) ) ;
#21 = PLANE ( 'NONE',  #5 ) ;
#22 = DIRECTION ( 'NONE',  ( 0.0000000000000000000, 0.0000000000000000000, -1.000000000000000000 ) ) ;
#23 = VECTOR ( 'NONE', #270, 39.37007874015748143 ) ;
#24 = ORIENTED_EDGE ( 'NONE', *, *, #130, .F. ) ;
#25 = AXIS2_PLACEMENT_3D ( 'NONE', #127, #95, #118 ) ;
#26 = CARTESIAN_POINT ( 'NONE',  ( 0.007499999999999999722, 0.0000000000000000000, 1.707404996040164512E-17 ) ) ;
#27 = DIRECTION ( 'NONE',  ( 0.0000000000000000000, 0.0000000000000000000, 1.000000000000000000 ) ) ;
#28 = CARTESIAN_POINT ( 'NONE',  ( -0.05900500000000007128, 0.0000000000000000000, 0.3149610000000000465 ) ) ;
#29 = DIRECTION ( 'NONE',  ( 1.000000000000000000, 0.0000000000000000000, 0.0000000000000000000 ) ) ;
#30 = LINE ( 'NONE', #248, #311 ) ;
#31 = CIRCLE ( 'NONE', #298, 0.05900500000000007128 ) ;
#32 = EDGE_CURVE ( 'NONE', #319, #102, #244, .T. ) ;
#33 = LINE ( 'NONE', #86, #299 ) ;
#34 = CARTESIAN_POINT ( 'NONE',  ( 0.05900500000000007822, 7.226028438368966682E-18, 0.3149610000000000465 ) ) ;
#35 = ORIENTED_EDGE ( 'NONE', *, *, #275, .F. ) ;
#36 = EDGE_CURVE ( 'NONE', #209, #327, #272, .T. ) ;
#37 = DIRECTION ( 'NONE',  ( -0.0000000000000000000, -0.0000000000000000000, -1.000000000000000000 ) ) ;
#38 = EDGE_LOOP ( 'NONE', ( #43, #60 ) ) ;
#39 = CIRCLE ( 'NONE', #226, 0.05905499999999998251 ) ;
#40 = EDGE_CURVE ( 'NONE', #102, #319, #138, .T. ) ;
#41 = MECHANICAL_DESIGN_GEOMETRIC_PRESENTATION_REPRESENTATION (  '', ( #178 ), #260 ) ;
#42 = ORIENTED_EDGE ( 'NONE', *, *, #324, .T. ) ;
#43 = ORIENTED_EDGE ( 'NONE', *, *, #175, .T. ) ;
#44 = ORIENTED_EDGE ( 'NONE', *, *, #262, .T. ) ;
#45 = CARTESIAN_POINT ( 'NONE',  ( 0.0000000000000000000, 0.0000000000000000000, 0.0000000000000000000 ) ) ;
#46 =( NAMED_UNIT ( * ) SI_UNIT ( $, .STERADIAN. ) SOLID_ANGLE_UNIT ( ) );
#47 = DIRECTION ( 'NONE',  ( -1.000000000000000000, 0.0000000000000000000, 0.0000000000000000000 ) ) ;
#48 = DIRECTION ( 'NONE',  ( -0.0000000000000000000, -0.0000000000000000000, -1.000000000000000000 ) ) ;
#49 = ORIENTED_EDGE ( 'NONE', *, *, #186, .F. ) ;
#50 = EDGE_LOOP ( 'NONE', ( #184, #213, #42, #113 ) ) ;
#51 = LENGTH_MEASURE_WITH_UNIT ( LENGTH_MEASURE( 0.02539999999999999897 ), #192 );
#52 = EDGE_CURVE ( 'NONE', #319, #62, #193, .T. ) ;
#53 = LINE ( 'NONE', #239, #204 ) ;
#54 = AXIS2_PLACEMENT_3D ( 'NONE', #56, #82, #183 ) ;
#55 = SURFACE_SIDE_STYLE ('',( #176 ) ) ;
#56 = CARTESIAN_POINT ( 'NONE',  ( 0.0000000000000000000, 0.0000000000000000000, 1.496062999999999921 ) ) ;
#57 = LENGTH_MEASURE_WITH_UNIT ( LENGTH_MEASURE( 0.02539999999999999897 ), #257 );
#58 = AXIS2_PLACEMENT_3D ( 'NONE', #144, #271, #308 ) ;
#59 = EDGE_LOOP ( 'NONE', ( #250, #305, #210, #265 ) ) ;
#60 = ORIENTED_EDGE ( 'NONE', *, *, #212, .T. ) ;
#61 = STYLED_ITEM ( 'NONE', ( #173 ), #241 ) ;
#62 = VERTEX_POINT ( 'NONE', #300 ) ;
#63 = DIRECTION ( 'NONE',  ( 0.0000000000000000000, 0.0000000000000000000, 1.000000000000000000 ) ) ;
#64 = ORIENTED_EDGE ( 'NONE', *, *, #36, .F. ) ;
#65 = CONICAL_SURFACE ( 'NONE', #306, 0.04405500000000001082, 0.7853981633974570498 ) ;
#66 = DIRECTION ( 'NONE',  ( -0.0000000000000000000, 0.0000000000000000000, -1.000000000000000000 ) ) ;
#67 = ORIENTED_EDGE ( 'NONE', *, *, #52, .T. ) ;
#68 = LINE ( 'NONE', #117, #23 ) ;
#69 = ADVANCED_FACE ( 'NONE', ( #266 ), #238, .F. ) ;
#70 = FACE_OUTER_BOUND ( 'NONE', #329, .T. ) ;
#71 = ORIENTED_EDGE ( 'NONE', *, *, #80, .F. ) ;
#72 = DIRECTION ( 'NONE',  ( -0.8660254037844402619, 1.060575238724908640E-16, 0.4999999999999973910 ) ) ;
#73 = AXIS2_PLACEMENT_3D ( 'NONE', #148, #302, #16 ) ;
#74 = DIRECTION ( 'NONE',  ( -1.000000000000000000, 0.0000000000000000000, 0.0000000000000000000 ) ) ;
#75 = PRESENTATION_LAYER_ASSIGNMENT (  '', '', ( #178 ) ) ;
#76 = DIRECTION ( 'NONE',  ( 1.000000000000000000, 0.0000000000000000000, 0.0000000000000000000 ) ) ;
#77 = ADVANCED_FACE ( 'NONE', ( #2, #123 ), #21, .T. ) ;
#78 = FILL_AREA_STYLE_COLOUR ( '', #245 ) ;
#79 = PRODUCT_DEFINITION_CONTEXT ( 'detailed design', #206, 'design' ) ;
#80 = EDGE_CURVE ( 'NONE', #62, #182, #68, .T. ) ;
#81 = FILL_AREA_STYLE_COLOUR ( '', #87 ) ;
#82 = DIRECTION ( 'NONE',  ( 0.0000000000000000000, 0.0000000000000000000, -1.000000000000000000 ) ) ;
#83 = EDGE_CURVE ( 'NONE', #166, #135, #120, .T. ) ;
#84 = ADVANCED_BREP_SHAPE_REPRESENTATION ( 'Micro_DMM-030-4120', ( #241, #219 ), #6 ) ;
#85 = CARTESIAN_POINT ( 'NONE',  ( 0.04405500000000001082, 6.313666573004179469E-18, 1.496062999999999921 ) ) ;
#86 = CARTESIAN_POINT ( 'NONE',  ( -0.04405500000000001082, 0.0000000000000000000, 1.496062999999999921 ) ) ;
#87 = COLOUR_RGB ( '',0.7921568627450980005, 0.8196078431372548767, 0.9333333333333333481 ) ;
#88 = PRODUCT_RELATED_PRODUCT_CATEGORY ( 'part', '', ( #283 ) ) ;
#89 = ORIENTED_EDGE ( 'NONE', *, *, #130, .T. ) ;
#90 = ORIENTED_EDGE ( 'NONE', *, *, #324, .F. ) ;
#91 = CIRCLE ( 'NONE', #208, 0.05905499999999998251 ) ;
#92 = ORIENTED_EDGE ( 'NONE', *, *, #15, .T. ) ;
#93 = CARTESIAN_POINT ( 'NONE',  ( 0.04405500000000001082, 5.395181473643666598E-18, 1.496062999999999921 ) ) ;
#94 = DIRECTION ( 'NONE',  ( -0.0000000000000000000, -0.0000000000000000000, -1.000000000000000000 ) ) ;
#95 = DIRECTION ( 'NONE',  ( -0.0000000000000000000, -0.0000000000000000000, -1.000000000000000000 ) ) ;
#96 = CLOSED_SHELL ( 'NONE', ( #281, #264, #242, #136, #1, #303, #309, #77, #151, #318, #69 ) ) ;
#97 = CIRCLE ( 'NONE', #58, 0.05905499999999998251 ) ;
#98 = EDGE_CURVE ( 'NONE', #263, #133, #325, .T. ) ;
#99 = CYLINDRICAL_SURFACE ( 'NONE', #104, 0.05905499999999998251 ) ;
#100 = FILL_AREA_STYLE ('',( #78 ) ) ;
#101 = ORIENTED_EDGE ( 'NONE', *, *, #186, .T. ) ;
#102 = VERTEX_POINT ( 'NONE', #223 ) ;
#103 = DIRECTION ( 'NONE',  ( -1.000000000000000000, 0.0000000000000000000, 0.0000000000000000000 ) ) ;
#104 = AXIS2_PLACEMENT_3D ( 'NONE', #196, #94, #297 ) ;
#105 = CYLINDRICAL_SURFACE ( 'NONE', #164, 0.05905499999999998251 ) ;
#106 = VECTOR ( 'NONE', #202, 39.37007874015748143 ) ;
#107 = DIRECTION ( 'NONE',  ( -0.0000000000000000000, -0.0000000000000000000, -1.000000000000000000 ) ) ;
#108 = EDGE_LOOP ( 'NONE', ( #89, #295, #235, #64 ) ) ;
#109 = MECHANICAL_DESIGN_GEOMETRIC_PRESENTATION_REPRESENTATION (  '', ( #61 ), #188 ) ;
#110 = FILL_AREA_STYLE ('',( #81 ) ) ;
#111 = EDGE_LOOP ( 'NONE', ( #101, #185, #90, #124 ) ) ;
#112 = DIRECTION ( 'NONE',  ( -0.7071067811865536790, 0.0000000000000000000, -0.7071067811865412445 ) ) ;
#113 = ORIENTED_EDGE ( 'NONE', *, *, #194, .F. ) ;
#114 = CIRCLE ( 'NONE', #73, 0.05900500000000000883 ) ;
#115 = EDGE_LOOP ( 'NONE', ( #49, #14 ) ) ;
#116 = ORIENTED_EDGE ( 'NONE', *, *, #36, .T. ) ;
#117 = CARTESIAN_POINT ( 'NONE',  ( 0.05905499999999998251, 7.232151672364692341E-18, 1.496062999999999921 ) ) ;
#118 = DIRECTION ( 'NONE',  ( -1.000000000000000000, 0.0000000000000000000, 0.0000000000000000000 ) ) ;
#119 = DIRECTION ( 'NONE',  ( -0.0000000000000000000, -0.0000000000000000000, -1.000000000000000000 ) ) ;
#120 = CIRCLE ( 'NONE', #316, 0.007499999999999999722 ) ;
#121 = DIRECTION ( 'NONE',  ( 1.000000000000000000, 0.0000000000000000000, 0.0000000000000000000 ) ) ;
#122 = CARTESIAN_POINT ( 'NONE',  ( 0.05905499999999998251, 7.232151672364692341E-18, 0.3149610000000000465 ) ) ;
#123 = FACE_OUTER_BOUND ( 'NONE', #38, .T. ) ;
#124 = ORIENTED_EDGE ( 'NONE', *, *, #98, .F. ) ;
#125 = CARTESIAN_POINT ( 'NONE',  ( 0.0000000000000000000, 0.0000000000000000000, 1.707404996040164512E-17 ) ) ;
#126 = CARTESIAN_POINT ( 'NONE',  ( -0.05900500000000002271, 7.226028438368960519E-18, 0.02973642561461150094 ) ) ;
#127 = CARTESIAN_POINT ( 'NONE',  ( 0.0000000000000000000, 0.0000000000000000000, 0.3149610000000000465 ) ) ;
#128 =( CONVERSION_BASED_UNIT ( 'INCH', #57 ) LENGTH_UNIT ( ) NAMED_UNIT ( #285 ) );
#129 = FACE_OUTER_BOUND ( 'NONE', #50, .T. ) ;
#130 = EDGE_CURVE ( 'NONE', #209, #62, #39, .T. ) ;
#131 = AXIS2_PLACEMENT_3D ( 'NONE', #125, #167, #76 ) ;
#132 = CARTESIAN_POINT ( 'NONE',  ( 0.0000000000000000000, 0.0000000000000000000, 0.02973642561461150094 ) ) ;
#133 = VERTEX_POINT ( 'NONE', #126 ) ;
#134 = CIRCLE ( 'NONE', #287, 0.05900500000000000883 ) ;
#135 = VERTEX_POINT ( 'NONE', #225 ) ;
#136 = ADVANCED_FACE ( 'NONE', ( #4 ), #105, .T. ) ;
#137 =( LENGTH_UNIT ( ) NAMED_UNIT ( * ) SI_UNIT ( $, .METRE. ) );
#138 = CIRCLE ( 'NONE', #203, 0.04405500000000001082 ) ;
#139 = AXIS2_PLACEMENT_3D ( 'NONE', #180, #107, #289 ) ;
#140 = EDGE_CURVE ( 'NONE', #62, #209, #267, .T. ) ;
#141 = CARTESIAN_POINT ( 'NONE',  ( 0.0000000000000000000, 0.0000000000000000000, 1.707404996040164512E-17 ) ) ;
#142 = CARTESIAN_POINT ( 'NONE',  ( 0.0000000000000000000, 0.0000000000000000000, 1.496062999999999921 ) ) ;
#143 = VERTEX_POINT ( 'NONE', #246 ) ;
#144 = CARTESIAN_POINT ( 'NONE',  ( 0.0000000000000000000, 0.0000000000000000000, 0.3149610000000000465 ) ) ;
#145 = CIRCLE ( 'NONE', #10, 0.007499999999999999722 ) ;
#146 = DIRECTION ( 'NONE',  ( 0.7071067811865536790, 8.659560562355008046E-17, -0.7071067811865412445 ) ) ;
#147 = DIRECTION ( 'NONE',  ( -1.000000000000000000, 0.0000000000000000000, 0.0000000000000000000 ) ) ;
#148 = CARTESIAN_POINT ( 'NONE',  ( 0.0000000000000000000, 0.0000000000000000000, 0.02973642561461150094 ) ) ;
#149 = CYLINDRICAL_SURFACE ( 'NONE', #252, 0.05900500000000003659 ) ;
#150 = AXIS2_PLACEMENT_3D ( 'NONE', #255, #315, #286 ) ;
#151 = ADVANCED_FACE ( 'NONE', ( #70 ), #273, .T. ) ;
#152 = PRESENTATION_STYLE_ASSIGNMENT (( #254 ) ) ;
#153 = DIRECTION ( 'NONE',  ( -1.000000000000000000, 0.0000000000000000000, 0.0000000000000000000 ) ) ;
#154 =( NAMED_UNIT ( * ) SI_UNIT ( $, .STERADIAN. ) SOLID_ANGLE_UNIT ( ) );
#155 = CYLINDRICAL_SURFACE ( 'NONE', #139, 0.05900500000000003659 ) ;
#156 = ORIENTED_EDGE ( 'NONE', *, *, #275, .T. ) ;
#157 = LENGTH_MEASURE_WITH_UNIT ( LENGTH_MEASURE( 0.02539999999999999897 ), #137 );
#158 = ORIENTED_EDGE ( 'NONE', *, *, #140, .F. ) ;
#159 = EDGE_LOOP ( 'NONE', ( #258, #44 ) ) ;
#160 = PRESENTATION_LAYER_ASSIGNMENT (  '', '', ( #61 ) ) ;
#161 = ORIENTED_EDGE ( 'NONE', *, *, #212, .F. ) ;
#162 = DIRECTION ( 'NONE',  ( 1.000000000000000000, 0.0000000000000000000, 0.0000000000000000000 ) ) ;
#163 = ORIENTED_EDGE ( 'NONE', *, *, #140, .T. ) ;
#164 = AXIS2_PLACEMENT_3D ( 'NONE', #249, #174, #277 ) ;
#165 = AXIS2_PLACEMENT_3D ( 'NONE', #310, #8, #261 ) ;
#166 = VERTEX_POINT ( 'NONE', #26 ) ;
#167 = DIRECTION ( 'NONE',  ( 0.0000000000000000000, 0.0000000000000000000, 1.000000000000000000 ) ) ;
#168 = CARTESIAN_POINT ( 'NONE',  ( 0.0000000000000000000, 0.0000000000000000000, 1.496062999999999921 ) ) ;
#169 = DIRECTION ( 'NONE',  ( -0.0000000000000000000, -0.0000000000000000000, -1.000000000000000000 ) ) ;
#170 = DIRECTION ( 'NONE',  ( 0.0000000000000000000, 0.0000000000000000000, 1.000000000000000000 ) ) ;
#171 = CONICAL_SURFACE ( 'NONE', #165, 0.007499999999999999722, 1.047197551196600740 ) ;
#172 = CARTESIAN_POINT ( 'NONE',  ( 0.0000000000000000000, 0.0000000000000000000, 1.481063000000000240 ) ) ;
#173 = PRESENTATION_STYLE_ASSIGNMENT (( #307 ) ) ;
#174 = DIRECTION ( 'NONE',  ( -0.0000000000000000000, -0.0000000000000000000, -1.000000000000000000 ) ) ;
#175 = EDGE_CURVE ( 'NONE', #327, #182, #91, .T. ) ;
#176 = SURFACE_STYLE_FILL_AREA ( #110 ) ;
#177 = VECTOR ( 'NONE', #146, 39.37007874015748854 ) ;
#178 = STYLED_ITEM ( 'NONE', ( #152 ), #84 ) ;
#179 = CARTESIAN_POINT ( 'NONE',  ( 0.05900500000000003659, 7.226028438368962060E-18, 0.0000000000000000000 ) ) ;
#180 = CARTESIAN_POINT ( 'NONE',  ( 0.0000000000000000000, 0.0000000000000000000, 0.0000000000000000000 ) ) ;
#181 = FACE_OUTER_BOUND ( 'NONE', #313, .T. ) ;
#182 = VERTEX_POINT ( 'NONE', #122 ) ;
#183 = DIRECTION ( 'NONE',  ( -1.000000000000000000, 0.0000000000000000000, 0.0000000000000000000 ) ) ;
#184 = ORIENTED_EDGE ( 'NONE', *, *, #262, .F. ) ;
#185 = ORIENTED_EDGE ( 'NONE', *, *, #296, .T. ) ;
#186 = EDGE_CURVE ( 'NONE', #263, #291, #31, .T. ) ;
#187 = ORIENTED_EDGE ( 'NONE', *, *, #201, .F. ) ;
#188 =( GEOMETRIC_REPRESENTATION_CONTEXT ( 3 ) GLOBAL_UNCERTAINTY_ASSIGNED_CONTEXT ( ( #7 ) ) GLOBAL_UNIT_ASSIGNED_CONTEXT ( ( #274, #326, #46 ) ) REPRESENTATION_CONTEXT ( 'NONE', 'WORKASPACE' ) );
#189 =( NAMED_UNIT ( * ) SI_UNIT ( $, .STERADIAN. ) SOLID_ANGLE_UNIT ( ) );
#190 = FACE_OUTER_BOUND ( 'NONE', #12, .T. ) ;
#191 = CARTESIAN_POINT ( 'NONE',  ( 0.0000000000000000000, 0.0000000000000000000, 1.496062999999999921 ) ) ;
#192 =( LENGTH_UNIT ( ) NAMED_UNIT ( * ) SI_UNIT ( $, .METRE. ) );
#193 = LINE ( 'NONE', #93, #177 ) ;
#194 = EDGE_CURVE ( 'NONE', #166, #143, #30, .T. ) ;
#195 = SURFACE_STYLE_FILL_AREA ( #100 ) ;
#196 = CARTESIAN_POINT ( 'NONE',  ( 0.0000000000000000000, 0.0000000000000000000, 1.496062999999999921 ) ) ;
#197 = DIRECTION ( 'NONE',  ( 0.0000000000000000000, 0.0000000000000000000, -1.000000000000000000 ) ) ;
#198 = DIRECTION ( 'NONE',  ( 0.8660254037844402619, 0.0000000000000000000, 0.4999999999999973910 ) ) ;
#199 = FACE_OUTER_BOUND ( 'NONE', #320, .T. ) ;
#200 = UNCERTAINTY_MEASURE_WITH_UNIT (LENGTH_MEASURE( 1.000000000000000082E-05 ), #294, 'distance_accuracy_value', 'NONE');
#201 = EDGE_CURVE ( 'NONE', #135, #133, #53, .T. ) ;
#202 = DIRECTION ( 'NONE',  ( -0.0000000000000000000, -0.0000000000000000000, -1.000000000000000000 ) ) ;
#203 = AXIS2_PLACEMENT_3D ( 'NONE', #168, #27, #323 ) ;
#204 = VECTOR ( 'NONE', #72, 39.37007874015748143 ) ;
#205 = FACE_OUTER_BOUND ( 'NONE', #234, .T. ) ;
#206 = APPLICATION_CONTEXT ( 'automotive_design' ) ;
#207 = DIRECTION ( 'NONE',  ( -1.000000000000000000, 0.0000000000000000000, 0.0000000000000000000 ) ) ;
#208 = AXIS2_PLACEMENT_3D ( 'NONE', #276, #20, #103 ) ;
#209 = VERTEX_POINT ( 'NONE', #269 ) ;
#210 = ORIENTED_EDGE ( 'NONE', *, *, #98, .T. ) ;
#211 = CIRCLE ( 'NONE', #25, 0.05900500000000007128 ) ;
#212 = EDGE_CURVE ( 'NONE', #182, #327, #97, .T. ) ;
#213 = ORIENTED_EDGE ( 'NONE', *, *, #201, .T. ) ;
#214 = CARTESIAN_POINT ( 'NONE',  ( -0.05905499999999998251, 0.0000000000000000000, 1.496062999999999921 ) ) ;
#215 = SHAPE_DEFINITION_REPRESENTATION ( #228, #84 ) ;
#216 = DIRECTION ( 'NONE',  ( -0.0000000000000000000, -0.0000000000000000000, -1.000000000000000000 ) ) ;
#217 = DIRECTION ( 'NONE',  ( 0.0000000000000000000, 0.0000000000000000000, -1.000000000000000000 ) ) ;
#218 = AXIS2_PLACEMENT_3D ( 'NONE', #220, #197, #224 ) ;
#219 = AXIS2_PLACEMENT_3D ( 'NONE', #322, #63, #162 ) ;
#220 = CARTESIAN_POINT ( 'NONE',  ( 0.0000000000000000000, 0.0000000000000000000, 1.481063000000000240 ) ) ;
#221 = ORIENTED_EDGE ( 'NONE', *, *, #40, .F. ) ;
#222 = SURFACE_SIDE_STYLE ('',( #195 ) ) ;
#223 = CARTESIAN_POINT ( 'NONE',  ( -0.04405500000000001082, 0.0000000000000000000, 1.496062999999999921 ) ) ;
#224 = DIRECTION ( 'NONE',  ( 1.000000000000000000, 0.0000000000000000000, 0.0000000000000000000 ) ) ;
#225 = CARTESIAN_POINT ( 'NONE',  ( -0.007499999999999999722, 4.072256768864737466E-18, 1.707404996040164512E-17 ) ) ;
#226 = AXIS2_PLACEMENT_3D ( 'NONE', #172, #217, #29 ) ;
#227 =( NAMED_UNIT ( * ) PLANE_ANGLE_UNIT ( ) SI_UNIT ( $, .RADIAN. ) );
#228 = PRODUCT_DEFINITION_SHAPE ( 'NONE', 'NONE',  #18 ) ;
#229 = LINE ( 'NONE', #179, #106 ) ;
#230 = AXIS2_PLACEMENT_3D ( 'NONE', #45, #247, #268 ) ;
#231 = PRODUCT_DEFINITION_FORMATION_WITH_SPECIFIED_SOURCE ( 'ANY', '', #283, .NOT_KNOWN. ) ;
#232 = FACE_OUTER_BOUND ( 'NONE', #59, .T. ) ;
#233 = EDGE_CURVE ( 'NONE', #291, #263, #211, .T. ) ;
#234 = EDGE_LOOP ( 'NONE', ( #293, #221, #156, #158 ) ) ;
#235 = ORIENTED_EDGE ( 'NONE', *, *, #175, .F. ) ;
#236 = PRODUCT_CONTEXT ( 'NONE', #253, 'mechanical' ) ;
#237 = ORIENTED_EDGE ( 'NONE', *, *, #32, .F. ) ;
#238 = PLANE ( 'NONE',  #230 ) ;
#239 = CARTESIAN_POINT ( 'NONE',  ( -0.007499999999999999722, 9.184850993605147975E-19, 1.707404996040164512E-17 ) ) ;
#240 = DIRECTION ( 'NONE',  ( -0.0000000000000000000, -0.0000000000000000000, -1.000000000000000000 ) ) ;
#241 = MANIFOLD_SOLID_BREP ( 'Cut-Revolve4', #96 ) ;
#242 = ADVANCED_FACE ( 'NONE', ( #199 ), #65, .T. ) ;
#243 = CARTESIAN_POINT ( 'NONE',  ( -0.05900500000000003659, 0.0000000000000000000, 0.0000000000000000000 ) ) ;
#244 = CIRCLE ( 'NONE', #13, 0.04405500000000001082 ) ;
#245 = COLOUR_RGB ( '',0.7921568627450980005, 0.8196078431372548767, 0.9333333333333333481 ) ;
#246 = CARTESIAN_POINT ( 'NONE',  ( 0.05900500000000002271, 0.0000000000000000000, 0.02973642561461150094 ) ) ;
#247 = DIRECTION ( 'NONE',  ( 0.0000000000000000000, 0.0000000000000000000, 1.000000000000000000 ) ) ;
#248 = CARTESIAN_POINT ( 'NONE',  ( 0.007499999999999999722, 0.0000000000000000000, 1.707404996040164512E-17 ) ) ;
#249 = CARTESIAN_POINT ( 'NONE',  ( 0.0000000000000000000, 0.0000000000000000000, 1.496062999999999921 ) ) ;
#250 = ORIENTED_EDGE ( 'NONE', *, *, #296, .F. ) ;
#251 = CARTESIAN_POINT ( 'NONE',  ( 0.0000000000000000000, 0.0000000000000000000, 0.0000000000000000000 ) ) ;
#252 = AXIS2_PLACEMENT_3D ( 'NONE', #251, #37, #207 ) ;
#253 = APPLICATION_CONTEXT ( 'automotive_design' ) ;
#254 = SURFACE_STYLE_USAGE ( .BOTH. , #55 ) ;
#255 = CARTESIAN_POINT ( 'NONE',  ( 0.0000000000000000000, 0.0000000000000000000, 1.496062999999999921 ) ) ;
#256 = DIMENSIONAL_EXPONENTS ( 1.000000000000000000, 0.0000000000000000000, 0.0000000000000000000, 0.0000000000000000000, 0.0000000000000000000, 0.0000000000000000000, 0.0000000000000000000 ) ;
#257 =( LENGTH_UNIT ( ) NAMED_UNIT ( * ) SI_UNIT ( $, .METRE. ) );
#258 = ORIENTED_EDGE ( 'NONE', *, *, #83, .T. ) ;
#259 = VECTOR ( 'NONE', #119, 39.37007874015748143 ) ;
#260 =( GEOMETRIC_REPRESENTATION_CONTEXT ( 3 ) GLOBAL_UNCERTAINTY_ASSIGNED_CONTEXT ( ( #200 ) ) GLOBAL_UNIT_ASSIGNED_CONTEXT ( ( #294, #321, #189 ) ) REPRESENTATION_CONTEXT ( 'NONE', 'WORKASPACE' ) );
#261 = DIRECTION ( 'NONE',  ( 1.000000000000000000, 0.0000000000000000000, 0.0000000000000000000 ) ) ;
#262 = EDGE_CURVE ( 'NONE', #135, #166, #145, .T. ) ;
#263 = VERTEX_POINT ( 'NONE', #28 ) ;
#264 = ADVANCED_FACE ( 'NONE', ( #129 ), #171, .T. ) ;
#265 = ORIENTED_EDGE ( 'NONE', *, *, #15, .F. ) ;
#266 = FACE_OUTER_BOUND ( 'NONE', #159, .T. ) ;
#267 = CIRCLE ( 'NONE', #218, 0.05905499999999998251 ) ;
#268 = DIRECTION ( 'NONE',  ( 1.000000000000000000, 0.0000000000000000000, -0.0000000000000000000 ) ) ;
#269 = CARTESIAN_POINT ( 'NONE',  ( -0.05905499999999998251, 0.0000000000000000000, 1.481063000000000240 ) ) ;
#270 = DIRECTION ( 'NONE',  ( -0.0000000000000000000, -0.0000000000000000000, -1.000000000000000000 ) ) ;
#271 = DIRECTION ( 'NONE',  ( -0.0000000000000000000, -0.0000000000000000000, -1.000000000000000000 ) ) ;
#272 = LINE ( 'NONE', #214, #279 ) ;
#273 = CONICAL_SURFACE ( 'NONE', #131, 0.007499999999999999722, 1.047197551196600740 ) ;
#274 =( CONVERSION_BASED_UNIT ( 'INCH', #51 ) LENGTH_UNIT ( ) NAMED_UNIT ( #314 ) );
#275 = EDGE_CURVE ( 'NONE', #102, #209, #33, .T. ) ;
#276 = CARTESIAN_POINT ( 'NONE',  ( 0.0000000000000000000, 0.0000000000000000000, 0.3149610000000000465 ) ) ;
#277 = DIRECTION ( 'NONE',  ( -1.000000000000000000, 0.0000000000000000000, 0.0000000000000000000 ) ) ;
#278 = UNCERTAINTY_MEASURE_WITH_UNIT (LENGTH_MEASURE( 1.000000000000000082E-05 ), #128, 'distance_accuracy_value', 'NONE');
#279 = VECTOR ( 'NONE', #240, 39.37007874015748143 ) ;
#280 = CONICAL_SURFACE ( 'NONE', #54, 0.04405500000000001082, 0.7853981633974570498 ) ;
#281 = ADVANCED_FACE ( 'NONE', ( #9 ), #155, .T. ) ;
#282 = DIRECTION ( 'NONE',  ( -0.0000000000000000000, -0.0000000000000000000, -1.000000000000000000 ) ) ;
#283 = PRODUCT ( 'Micro_DMM-030-4120', 'Micro_DMM-030-4120', '', ( #236 ) ) ;
#284 = APPLICATION_PROTOCOL_DEFINITION ( 'draft international standard', 'automotive_design', 1998, #253 ) ;
#285 = DIMENSIONAL_EXPONENTS ( 1.000000000000000000, 0.0000000000000000000, 0.0000000000000000000, 0.0000000000000000000, 0.0000000000000000000, 0.0000000000000000000, 0.0000000000000000000 ) ;
#286 = DIRECTION ( 'NONE',  ( 1.000000000000000000, 0.0000000000000000000, -0.0000000000000000000 ) ) ;
#287 = AXIS2_PLACEMENT_3D ( 'NONE', #132, #282, #153 ) ;
#288 = ORIENTED_EDGE ( 'NONE', *, *, #32, .T. ) ;
#289 = DIRECTION ( 'NONE',  ( -1.000000000000000000, 0.0000000000000000000, 0.0000000000000000000 ) ) ;
#290 = ORIENTED_EDGE ( 'NONE', *, *, #40, .T. ) ;
#291 = VERTEX_POINT ( 'NONE', #34 ) ;
#292 = ORIENTED_EDGE ( 'NONE', *, *, #194, .T. ) ;
#293 = ORIENTED_EDGE ( 'NONE', *, *, #52, .F. ) ;
#294 =( CONVERSION_BASED_UNIT ( 'INCH', #157 ) LENGTH_UNIT ( ) NAMED_UNIT ( #256 ) );
#295 = ORIENTED_EDGE ( 'NONE', *, *, #80, .T. ) ;
#296 = EDGE_CURVE ( 'NONE', #291, #143, #229, .T. ) ;
#297 = DIRECTION ( 'NONE',  ( -1.000000000000000000, 0.0000000000000000000, 0.0000000000000000000 ) ) ;
#298 = AXIS2_PLACEMENT_3D ( 'NONE', #304, #169, #3 ) ;
#299 = VECTOR ( 'NONE', #112, 39.37007874015748854 ) ;
#300 = CARTESIAN_POINT ( 'NONE',  ( 0.05905499999999998251, 7.232151672364692341E-18, 1.481063000000000240 ) ) ;
#301 = CARTESIAN_POINT ( 'NONE',  ( 0.0000000000000000000, 0.0000000000000000000, 1.707404996040164512E-17 ) ) ;
#302 = DIRECTION ( 'NONE',  ( -0.0000000000000000000, -0.0000000000000000000, -1.000000000000000000 ) ) ;
#303 = ADVANCED_FACE ( 'NONE', ( #181 ), #312, .T. ) ;
#304 = CARTESIAN_POINT ( 'NONE',  ( 0.0000000000000000000, 0.0000000000000000000, 0.3149610000000000465 ) ) ;
#305 = ORIENTED_EDGE ( 'NONE', *, *, #233, .T. ) ;
#306 = AXIS2_PLACEMENT_3D ( 'NONE', #142, #22, #328 ) ;
#307 = SURFACE_STYLE_USAGE ( .BOTH. , #222 ) ;
#308 = DIRECTION ( 'NONE',  ( -1.000000000000000000, 0.0000000000000000000, 0.0000000000000000000 ) ) ;
#309 = ADVANCED_FACE ( 'NONE', ( #205 ), #280, .T. ) ;
#310 = CARTESIAN_POINT ( 'NONE',  ( 0.0000000000000000000, 0.0000000000000000000, 1.707404996040164512E-17 ) ) ;
#311 = VECTOR ( 'NONE', #198, 39.37007874015748143 ) ;
#312 = PLANE ( 'NONE',  #150 ) ;
#313 = EDGE_LOOP ( 'NONE', ( #290, #288 ) ) ;
#314 = DIMENSIONAL_EXPONENTS ( 1.000000000000000000, 0.0000000000000000000, 0.0000000000000000000, 0.0000000000000000000, 0.0000000000000000000, 0.0000000000000000000, 0.0000000000000000000 ) ;
#315 = DIRECTION ( 'NONE',  ( 0.0000000000000000000, 0.0000000000000000000, 1.000000000000000000 ) ) ;
#316 = AXIS2_PLACEMENT_3D ( 'NONE', #141, #216, #74 ) ;
#317 = ORIENTED_EDGE ( 'NONE', *, *, #83, .F. ) ;
#318 = ADVANCED_FACE ( 'NONE', ( #232 ), #149, .T. ) ;
#319 = VERTEX_POINT ( 'NONE', #85 ) ;
#320 = EDGE_LOOP ( 'NONE', ( #237, #67, #24, #35 ) ) ;
#321 =( NAMED_UNIT ( * ) PLANE_ANGLE_UNIT ( ) SI_UNIT ( $, .RADIAN. ) );
#322 = CARTESIAN_POINT ( 'NONE',  ( 0.0000000000000000000, 0.0000000000000000000, 0.0000000000000000000 ) ) ;
#323 = DIRECTION ( 'NONE',  ( 1.000000000000000000, 0.0000000000000000000, 0.0000000000000000000 ) ) ;
#324 = EDGE_CURVE ( 'NONE', #133, #143, #134, .T. ) ;
#325 = LINE ( 'NONE', #243, #259 ) ;
#326 =( NAMED_UNIT ( * ) PLANE_ANGLE_UNIT ( ) SI_UNIT ( $, .RADIAN. ) );
#327 = VERTEX_POINT ( 'NONE', #11 ) ;
#328 = DIRECTION ( 'NONE',  ( -1.000000000000000000, 0.0000000000000000000, 0.0000000000000000000 ) ) ;
#329 = EDGE_LOOP ( 'NONE', ( #187, #317, #292, #92 ) ) ;
ENDSEC;
END-ISO-10303-21;
