ISO-10303-21;
HEADER;
FILE_DESCRIPTION (( 'STEP AP214' ),
    '1' );
FILE_NAME ('83371.STEP',
    '2023-06-30T23:09:41',
    ( '' ),
    ( '' ),
    'SwSTEP 2.0',
    'SolidWorks 2023',
    '' );
FILE_SCHEMA (( 'AUTOMOTIVE_DESIGN' ));
ENDSEC;

DATA;
#1 = SURFACE_STYLE_FILL_AREA ( #140 ) ;
#2 = ORIENTED_EDGE ( 'NONE', *, *, #191, .T. ) ;
#3 = MECHANICAL_DESIGN_GEOMETRIC_PRESENTATION_REPRESENTATION (  '', ( #144 ), #368 ) ;
#4 = COLOUR_RGB ( '',0.7921568627450980005, 0.8196078431372548767, 0.9333333333333333481 ) ;
#5 = VERTEX_POINT ( 'NONE', #229 ) ;
#6 = ORIENTED_EDGE ( 'NONE', *, *, #238, .T. ) ;
#7 = VERTEX_POINT ( 'NONE', #237 ) ;
#8 = DIRECTION ( 'NONE',  ( 1.000000000000000000, 1.551219278919980663E-16, 0.000000000000000000 ) ) ;
#9 = FILL_AREA_STYLE_COLOUR ( '', #241 ) ;
#10 = DIRECTION ( 'NONE',  ( 0.000000000000000000, 1.000000000000000000, 0.000000000000000000 ) ) ;
#11 = EDGE_CURVE ( 'NONE', #147, #281, #190, .T. ) ;
#12 =( CONVERSION_BASED_UNIT ( 'INCH', #324 ) LENGTH_UNIT ( ) NAMED_UNIT ( #251 ) );
#13 = COLOUR_RGB ( '',1.000000000000000000, 0.000000000000000000, 0.000000000000000000 ) ;
#14 = FILL_AREA_STYLE ('',( #9 ) ) ;
#15 = UNCERTAINTY_MEASURE_WITH_UNIT (LENGTH_MEASURE( 1.000000000000000082E-05 ), #335, 'distance_accuracy_value', 'NONE');
#16 = LENGTH_MEASURE_WITH_UNIT ( LENGTH_MEASURE( 0.02539999999999999897 ), #39 );
#17 = ORIENTED_EDGE ( 'NONE', *, *, #337, .T. ) ;
#18 = EDGE_CURVE ( 'NONE', #281, #30, #323, .T. ) ;
#19 = FACE_OUTER_BOUND ( 'NONE', #295, .T. ) ;
#20 = ORIENTED_EDGE ( 'NONE', *, *, #220, .T. ) ;
#21 = DIRECTION ( 'NONE',  ( -1.551219278919980663E-16, 1.000000000000000000, -0.000000000000000000 ) ) ;
#22 = EDGE_LOOP ( 'NONE', ( #102, #138, #77, #29, #362 ) ) ;
#23 = DIMENSIONAL_EXPONENTS ( 1.000000000000000000, 0.000000000000000000, 0.000000000000000000, 0.000000000000000000, 0.000000000000000000, 0.000000000000000000, 0.000000000000000000 ) ;
#24 = LINE ( 'NONE', #184, #292 ) ;
#25 = SURFACE_STYLE_USAGE ( .BOTH. , #47 ) ;
#26 =( GEOMETRIC_REPRESENTATION_CONTEXT ( 3 ) GLOBAL_UNCERTAINTY_ASSIGNED_CONTEXT ( ( #15 ) ) GLOBAL_UNIT_ASSIGNED_CONTEXT ( ( #335, #48, #299 ) ) REPRESENTATION_CONTEXT ( 'NONE', 'WORKASPACE' ) );
#27 =( GEOMETRIC_REPRESENTATION_CONTEXT ( 3 ) GLOBAL_UNCERTAINTY_ASSIGNED_CONTEXT ( ( #305 ) ) GLOBAL_UNIT_ASSIGNED_CONTEXT ( ( #12, #318, #297 ) ) REPRESENTATION_CONTEXT ( 'NONE', 'WORKASPACE' ) );
#28 = CARTESIAN_POINT ( 'NONE',  ( -6.123233995736759873E-17, 3.500000000000000000, 0.000000000000000000 ) ) ;
#29 = ORIENTED_EDGE ( 'NONE', *, *, #18, .F. ) ;
#30 = VERTEX_POINT ( 'NONE', #56 ) ;
#31 = ORIENTED_EDGE ( 'NONE', *, *, #298, .T. ) ;
#32 = CIRCLE ( 'NONE', #71, 0.3124999999999996114 ) ;
#33 = LENGTH_MEASURE_WITH_UNIT ( LENGTH_MEASURE( 0.02539999999999999897 ), #173 );
#34 = EDGE_LOOP ( 'NONE', ( #340, #265, #49, #164 ) ) ;
#35 = EDGE_CURVE ( 'NONE', #197, #116, #287, .T. ) ;
#36 = SURFACE_SIDE_STYLE ('',( #180 ) ) ;
#37 =( GEOMETRIC_REPRESENTATION_CONTEXT ( 3 ) GLOBAL_UNCERTAINTY_ASSIGNED_CONTEXT ( ( #161 ) ) GLOBAL_UNIT_ASSIGNED_CONTEXT ( ( #141, #236, #315 ) ) REPRESENTATION_CONTEXT ( 'NONE', 'WORKASPACE' ) );
#38 = COLOUR_RGB ( '',1.000000000000000000, 0.000000000000000000, 0.000000000000000000 ) ;
#39 =( LENGTH_UNIT ( ) NAMED_UNIT ( * ) SI_UNIT ( $, .METRE. ) );
#40 = ADVANCED_FACE ( 'NONE', ( #200 ), #289, .F. ) ;
#41 = FILL_AREA_STYLE ('',( #333 ) ) ;
#42 = FILL_AREA_STYLE ('',( #260 ) ) ;
#43 = DIRECTION ( 'NONE',  ( -1.000000000000000000, 0.000000000000000000, 0.000000000000000000 ) ) ;
#44 =( CONVERSION_BASED_UNIT ( 'INCH', #16 ) LENGTH_UNIT ( ) NAMED_UNIT ( #156 ) );
#45 = ORIENTED_EDGE ( 'NONE', *, *, #178, .F. ) ;
#46 = CARTESIAN_POINT ( 'NONE',  ( 0.000000000000000000, 0.000000000000000000, 0.000000000000000000 ) ) ;
#47 = SURFACE_SIDE_STYLE ('',( #74 ) ) ;
#48 =( NAMED_UNIT ( * ) PLANE_ANGLE_UNIT ( ) SI_UNIT ( $, .RADIAN. ) );
#49 = ORIENTED_EDGE ( 'NONE', *, *, #152, .T. ) ;
#50 = DIRECTION ( 'NONE',  ( -0.000000000000000000, -1.000000000000000000, -0.000000000000000000 ) ) ;
#51 = DIRECTION ( 'NONE',  ( 0.000000000000000000, 0.000000000000000000, -1.000000000000000000 ) ) ;
#52 = AXIS2_PLACEMENT_3D ( 'NONE', #28, #137, #174 ) ;
#53 = PRODUCT ( '83371', '83371', '', ( #322 ) ) ;
#54 = DIRECTION ( 'NONE',  ( -0.000000000000000000, -1.000000000000000000, -0.000000000000000000 ) ) ;
#55 = CARTESIAN_POINT ( 'NONE',  ( -1.913510623667739463E-17, 0.000000000000000000, 0.000000000000000000 ) ) ;
#56 = CARTESIAN_POINT ( 'NONE',  ( 0.3125000000000000000, 0.3125000000000000555, 0.000000000000000000 ) ) ;
#57 = LENGTH_MEASURE_WITH_UNIT ( LENGTH_MEASURE( 0.02539999999999999897 ), #239 );
#58 = COLOUR_RGB ( '',0.7921568627450980005, 0.8196078431372548767, 0.9333333333333333481 ) ;
#59 = CARTESIAN_POINT ( 'NONE',  ( 0.000000000000000000, 0.000000000000000000, 0.000000000000000000 ) ) ;
#60 = CARTESIAN_POINT ( 'NONE',  ( 2.296212748401286986E-16, 1.625000000000000000, 0.000000000000000000 ) ) ;
#61 = DIRECTION ( 'NONE',  ( 0.000000000000000000, 0.000000000000000000, -1.000000000000000000 ) ) ;
#62 = DIRECTION ( 'NONE',  ( 0.000000000000000000, 0.000000000000000000, 1.000000000000000000 ) ) ;
#63 = DIRECTION ( 'NONE',  ( -1.551219278919980663E-16, 1.000000000000000000, -0.000000000000000000 ) ) ;
#64 = APPLICATION_PROTOCOL_DEFINITION ( 'draft international standard', 'automotive_design', 1998, #192 ) ;
#65 = CLOSED_SHELL ( 'NONE', ( #95, #307, #68, #233, #78 ) ) ;
#66 =( NAMED_UNIT ( * ) SI_UNIT ( $, .STERADIAN. ) SOLID_ANGLE_UNIT ( ) );
#67 = CIRCLE ( 'NONE', #247, 0.3124999999999999445 ) ;
#68 = ADVANCED_FACE ( 'NONE', ( #296 ), #149, .T. ) ;
#69 = SURFACE_SIDE_STYLE ('',( #70 ) ) ;
#70 = SURFACE_STYLE_FILL_AREA ( #210 ) ;
#71 = AXIS2_PLACEMENT_3D ( 'NONE', #193, #342, #311 ) ;
#72 = DIRECTION ( 'NONE',  ( -1.000000000000000000, 0.000000000000000000, 0.000000000000000000 ) ) ;
#73 = MECHANICAL_DESIGN_GEOMETRIC_PRESENTATION_REPRESENTATION (  '', ( #286 ), #327 ) ;
#74 = SURFACE_STYLE_FILL_AREA ( #42 ) ;
#75 = EDGE_LOOP ( 'NONE', ( #45, #313 ) ) ;
#76 = SURFACE_STYLE_USAGE ( .BOTH. , #225 ) ;
#77 = ORIENTED_EDGE ( 'NONE', *, *, #321, .F. ) ;
#78 = ADVANCED_FACE ( 'NONE', ( #148 ), #135, .T. ) ;
#79 = AXIS2_PLACEMENT_3D ( 'NONE', #250, #215, #162 ) ;
#80 = PRESENTATION_STYLE_ASSIGNMENT (( #231 ) ) ;
#81 = ORIENTED_EDGE ( 'NONE', *, *, #243, .T. ) ;
#82 = MANIFOLD_SOLID_BREP ( 'Revolve - Tool Body (Straight Shanked)', #356 ) ;
#83 = FACE_OUTER_BOUND ( 'NONE', #187, .T. ) ;
#84 = DIRECTION ( 'NONE',  ( -1.000000000000000000, 0.000000000000000000, 0.000000000000000000 ) ) ;
#85 = VECTOR ( 'NONE', #278, 39.37007874015748143 ) ;
#86 = MECHANICAL_DESIGN_GEOMETRIC_PRESENTATION_REPRESENTATION (  '', ( #271 ), #257 ) ;
#87 = AXIS2_PLACEMENT_3D ( 'NONE', #293, #202, #61 ) ;
#88 = ORIENTED_EDGE ( 'NONE', *, *, #126, .F. ) ;
#89 =( LENGTH_UNIT ( ) NAMED_UNIT ( * ) SI_UNIT ( $, .METRE. ) );
#90 = DIRECTION ( 'NONE',  ( 1.551219278919980663E-16, -1.000000000000000000, 0.000000000000000000 ) ) ;
#91 = FILL_AREA_STYLE ('',( #320 ) ) ;
#92 = LENGTH_MEASURE_WITH_UNIT ( LENGTH_MEASURE( 0.02539999999999999897 ), #326 );
#93 = CIRCLE ( 'NONE', #349, 0.3124999999999998335 ) ;
#94 = SURFACE_SIDE_STYLE ('',( #123 ) ) ;
#95 = ADVANCED_FACE ( 'NONE', ( #274 ), #300, .T. ) ;
#96 = SURFACE_STYLE_USAGE ( .BOTH. , #154 ) ;
#97 = MECHANICAL_DESIGN_GEOMETRIC_PRESENTATION_REPRESENTATION (  '', ( #223 ), #27 ) ;
#98 = PRODUCT_DEFINITION_SHAPE ( 'NONE', 'NONE',  #273 ) ;
#99 = UNCERTAINTY_MEASURE_WITH_UNIT (LENGTH_MEASURE( 1.000000000000000082E-05 ), #350, 'distance_accuracy_value', 'NONE');
#100 = DIRECTION ( 'NONE',  ( 0.000000000000000000, 0.000000000000000000, 1.000000000000000000 ) ) ;
#101 = CARTESIAN_POINT ( 'NONE',  ( -0.3125000000000000000, 0.3125000000000000555, 3.827021247335477694E-17 ) ) ;
#102 = ORIENTED_EDGE ( 'NONE', *, *, #178, .T. ) ;
#103 = STYLED_ITEM ( 'NONE', ( #188 ), #307 ) ;
#104 =( LENGTH_UNIT ( ) NAMED_UNIT ( * ) SI_UNIT ( $, .METRE. ) );
#105 = SURFACE_STYLE_USAGE ( .BOTH. , #69 ) ;
#106 = PRESENTATION_LAYER_ASSIGNMENT (  '', '', ( #271 ) ) ;
#107 = AXIS2_PLACEMENT_3D ( 'NONE', #213, #254, #224 ) ;
#108 = FILL_AREA_STYLE_COLOUR ( '', #13 ) ;
#109 = ORIENTED_EDGE ( 'NONE', *, *, #18, .T. ) ;
#110 = ADVANCED_FACE ( 'NONE', ( #268 ), #158, .T. ) ;
#111 = CARTESIAN_POINT ( 'NONE',  ( 2.296212748401287479E-16, 1.625000000000000000, 0.000000000000000000 ) ) ;
#112 = DIRECTION ( 'NONE',  ( -0.000000000000000000, -1.000000000000000000, -0.000000000000000000 ) ) ;
#113 = CARTESIAN_POINT ( 'NONE',  ( 0.000000000000000000, 1.625000000000000000, -0.3124999999999998335 ) ) ;
#114 =( GEOMETRIC_REPRESENTATION_CONTEXT ( 3 ) GLOBAL_UNCERTAINTY_ASSIGNED_CONTEXT ( ( #125 ) ) GLOBAL_UNIT_ASSIGNED_CONTEXT ( ( #248, #359, #66 ) ) REPRESENTATION_CONTEXT ( 'NONE', 'WORKASPACE' ) );
#115 = CARTESIAN_POINT ( 'NONE',  ( 0.000000000000000000, 0.000000000000000000, -0.3124999999999998890 ) ) ;
#116 = VERTEX_POINT ( 'NONE', #186 ) ;
#117 = FILL_AREA_STYLE_COLOUR ( '', #58 ) ;
#118 = DIRECTION ( 'NONE',  ( -1.551219278919980663E-16, 1.000000000000000000, -0.000000000000000000 ) ) ;
#119 = EDGE_LOOP ( 'NONE', ( #120, #336 ) ) ;
#120 = ORIENTED_EDGE ( 'NONE', *, *, #344, .F. ) ;
#121 = PRESENTATION_STYLE_ASSIGNMENT (( #179 ) ) ;
#122 = DIRECTION ( 'NONE',  ( -0.000000000000000000, -1.000000000000000000, -0.000000000000000000 ) ) ;
#123 = SURFACE_STYLE_FILL_AREA ( #14 ) ;
#124 = CIRCLE ( 'NONE', #270, 0.3125000000000000000 ) ;
#125 = UNCERTAINTY_MEASURE_WITH_UNIT (LENGTH_MEASURE( 1.000000000000000082E-05 ), #248, 'distance_accuracy_value', 'NONE');
#126 = EDGE_CURVE ( 'NONE', #276, #281, #221, .T. ) ;
#127 =( NAMED_UNIT ( * ) SI_UNIT ( $, .STERADIAN. ) SOLID_ANGLE_UNIT ( ) );
#128 = CARTESIAN_POINT ( 'NONE',  ( -3.827021247335478926E-17, 0.3125000000000000000, 0.000000000000000000 ) ) ;
#129 = CARTESIAN_POINT ( 'NONE',  ( -6.123233995736758640E-17, 3.500000000000000000, 0.000000000000000000 ) ) ;
#130 = UNCERTAINTY_MEASURE_WITH_UNIT (LENGTH_MEASURE( 1.000000000000000082E-05 ), #338, 'distance_accuracy_value', 'NONE');
#131 = SURFACE_STYLE_FILL_AREA ( #41 ) ;
#132 = PRESENTATION_STYLE_ASSIGNMENT (( #105 ) ) ;
#133 = CARTESIAN_POINT ( 'NONE',  ( 3.827021247335476461E-17, 1.625000000000000000, 0.3124999999999998335 ) ) ;
#134 = UNCERTAINTY_MEASURE_WITH_UNIT (LENGTH_MEASURE( 1.000000000000000082E-05 ), #44, 'distance_accuracy_value', 'NONE');
#135 = SPHERICAL_SURFACE ( 'NONE', #79, 0.3125000000000000000 ) ;
#136 = STYLED_ITEM ( 'NONE', ( #132 ), #95 ) ;
#137 = DIRECTION ( 'NONE',  ( -1.551219278919980663E-16, 1.000000000000000000, -0.000000000000000000 ) ) ;
#138 = ORIENTED_EDGE ( 'NONE', *, *, #262, .T. ) ;
#139 = CARTESIAN_POINT ( 'NONE',  ( 0.000000000000000000, 1.625000000000000000, 0.000000000000000000 ) ) ;
#140 = FILL_AREA_STYLE ('',( #117 ) ) ;
#141 =( CONVERSION_BASED_UNIT ( 'INCH', #57 ) LENGTH_UNIT ( ) NAMED_UNIT ( #279 ) );
#142 = PRESENTATION_LAYER_ASSIGNMENT (  '', '', ( #290 ) ) ;
#143 = DIRECTION ( 'NONE',  ( -0.000000000000000000, -1.000000000000000000, -0.000000000000000000 ) ) ;
#144 = STYLED_ITEM ( 'NONE', ( #283 ), #82 ) ;
#145 = VERTEX_POINT ( 'NONE', #55 ) ;
#146 = AXIS2_PLACEMENT_3D ( 'NONE', #46, #50, #360 ) ;
#147 = VERTEX_POINT ( 'NONE', #113 ) ;
#148 = FACE_OUTER_BOUND ( 'NONE', #204, .T. ) ;
#149 = PLANE ( 'NONE',  #212 ) ;
#150 = CARTESIAN_POINT ( 'NONE',  ( 0.3124999999999998890, 3.500000000000000000, 0.000000000000000000 ) ) ;
#151 =( CONVERSION_BASED_UNIT ( 'INCH', #177 ) LENGTH_UNIT ( ) NAMED_UNIT ( #334 ) );
#152 = EDGE_CURVE ( 'NONE', #116, #7, #232, .T. ) ;
#153 = PRESENTATION_STYLE_ASSIGNMENT (( #325 ) ) ;
#154 = SURFACE_SIDE_STYLE ('',( #131 ) ) ;
#155 = EDGE_LOOP ( 'NONE', ( #20, #81 ) ) ;
#156 = DIMENSIONAL_EXPONENTS ( 1.000000000000000000, 0.000000000000000000, 0.000000000000000000, 0.000000000000000000, 0.000000000000000000, 0.000000000000000000, 0.000000000000000000 ) ;
#157 = LINE ( 'NONE', #288, #85 ) ;
#158 = CYLINDRICAL_SURFACE ( 'NONE', #240, 0.3124999999999997224 ) ;
#159 = ORIENTED_EDGE ( 'NONE', *, *, #191, .F. ) ;
#160 = FILL_AREA_STYLE ('',( #108 ) ) ;
#161 = UNCERTAINTY_MEASURE_WITH_UNIT (LENGTH_MEASURE( 1.000000000000000082E-05 ), #141, 'distance_accuracy_value', 'NONE');
#162 = DIRECTION ( 'NONE',  ( 1.000000000000000000, 0.000000000000000000, 0.000000000000000000 ) ) ;
#163 =( NAMED_UNIT ( * ) PLANE_ANGLE_UNIT ( ) SI_UNIT ( $, .RADIAN. ) );
#164 = ORIENTED_EDGE ( 'NONE', *, *, #243, .F. ) ;
#165 = CARTESIAN_POINT ( 'NONE',  ( -3.827021247335478926E-17, 0.3125000000000000000, 0.000000000000000000 ) ) ;
#166 = CARTESIAN_POINT ( 'NONE',  ( 0.000000000000000000, 0.3125000000000000555, 0.000000000000000000 ) ) ;
#167 = DIRECTION ( 'NONE',  ( -1.551219278919980663E-16, 1.000000000000000000, -0.000000000000000000 ) ) ;
#168 = AXIS2_PLACEMENT_3D ( 'NONE', #150, #90, #8 ) ;
#169 = ORIENTED_EDGE ( 'NONE', *, *, #321, .T. ) ;
#170 = CIRCLE ( 'NONE', #107, 0.3125000000000000000 ) ;
#171 = DIRECTION ( 'NONE',  ( 0.000000000000000000, 0.000000000000000000, -1.000000000000000000 ) ) ;
#172 = DIRECTION ( 'NONE',  ( -1.551219278919980663E-16, 1.000000000000000000, 0.000000000000000000 ) ) ;
#173 =( LENGTH_UNIT ( ) NAMED_UNIT ( * ) SI_UNIT ( $, .METRE. ) );
#174 = DIRECTION ( 'NONE',  ( -1.000000000000000000, 0.000000000000000000, 0.000000000000000000 ) ) ;
#175 = APPLICATION_CONTEXT ( 'automotive_design' ) ;
#176 = DIRECTION ( 'NONE',  ( 0.000000000000000000, 0.000000000000000000, -1.000000000000000000 ) ) ;
#177 = LENGTH_MEASURE_WITH_UNIT ( LENGTH_MEASURE( 0.02539999999999999897 ), #89 );
#178 = EDGE_CURVE ( 'NONE', #147, #242, #93, .T. ) ;
#179 = SURFACE_STYLE_USAGE ( .BOTH. , #94 ) ;
#180 = SURFACE_STYLE_FILL_AREA ( #91 ) ;
#181 = PRESENTATION_LAYER_ASSIGNMENT (  '', '', ( #286 ) ) ;
#182 = VECTOR ( 'NONE', #261, 39.37007874015748143 ) ;
#183 = VERTEX_POINT ( 'NONE', #194 ) ;
#184 = CARTESIAN_POINT ( 'NONE',  ( 0.3124999999999996669, 3.500000000000000000, 3.827021247335475845E-17 ) ) ;
#185 = MECHANICAL_DESIGN_GEOMETRIC_PRESENTATION_REPRESENTATION (  '', ( #136 ), #26 ) ;
#186 = CARTESIAN_POINT ( 'NONE',  ( -0.3124999999999993894, 1.625000000000000000, 0.000000000000000000 ) ) ;
#187 = EDGE_LOOP ( 'NONE', ( #303, #6, #343, #372 ) ) ;
#188 = PRESENTATION_STYLE_ASSIGNMENT (( #76 ) ) ;
#189 = CARTESIAN_POINT ( 'NONE',  ( 0.000000000000000000, 1.625000000000000000, 0.000000000000000000 ) ) ;
#190 = LINE ( 'NONE', #115, #182 ) ;
#191 = EDGE_CURVE ( 'NONE', #30, #145, #124, .T. ) ;
#192 = APPLICATION_CONTEXT ( 'automotive_design' ) ;
#193 = CARTESIAN_POINT ( 'NONE',  ( 2.296212748401287479E-16, 1.625000000000000000, 0.000000000000000000 ) ) ;
#194 = CARTESIAN_POINT ( 'NONE',  ( 3.827021247335478926E-17, 0.3125000000000000555, 0.3125000000000000000 ) ) ;
#195 = DIRECTION ( 'NONE',  ( 0.000000000000000000, 0.000000000000000000, -1.000000000000000000 ) ) ;
#196 = DIRECTION ( 'NONE',  ( 0.000000000000000000, 0.000000000000000000, -1.000000000000000000 ) ) ;
#197 = VERTEX_POINT ( 'NONE', #291 ) ;
#198 = VECTOR ( 'NONE', #118, 39.37007874015748143 ) ;
#199 = AXIS2_PLACEMENT_3D ( 'NONE', #111, #167, #84 ) ;
#200 = FACE_OUTER_BOUND ( 'NONE', #119, .T. ) ;
#201 = CIRCLE ( 'NONE', #87, 0.3125000000000000000 ) ;
#202 = DIRECTION ( 'NONE',  ( -0.000000000000000000, -1.000000000000000000, -0.000000000000000000 ) ) ;
#203 = ADVANCED_FACE ( 'NONE', ( #83 ), #294, .T. ) ;
#204 = EDGE_LOOP ( 'NONE', ( #373, #331, #109, #2 ) ) ;
#205 = DIRECTION ( 'NONE',  ( 1.000000000000000000, 0.000000000000000000, 0.000000000000000000 ) ) ;
#206 = AXIS2_PLACEMENT_3D ( 'NONE', #60, #172, #234 ) ;
#207 = MANIFOLD_SOLID_BREP ( 'Revolve - Cutting Edge', #65 ) ;
#208 = CARTESIAN_POINT ( 'NONE',  ( 0.000000000000000000, 1.625000000000000000, 0.000000000000000000 ) ) ;
#209 = SHAPE_DEFINITION_REPRESENTATION ( #98, #345 ) ;
#210 = FILL_AREA_STYLE ('',( #329 ) ) ;
#211 = MECHANICAL_DESIGN_GEOMETRIC_PRESENTATION_REPRESENTATION (  '', ( #290 ), #37 ) ;
#212 = AXIS2_PLACEMENT_3D ( 'NONE', #208, #10, #269 ) ;
#213 = CARTESIAN_POINT ( 'NONE',  ( -3.827021247335478926E-17, 0.3125000000000000000, 0.000000000000000000 ) ) ;
#214 = UNCERTAINTY_MEASURE_WITH_UNIT (LENGTH_MEASURE( 1.000000000000000082E-05 ), #151, 'distance_accuracy_value', 'NONE');
#215 = DIRECTION ( 'NONE',  ( 0.000000000000000000, 0.000000000000000000, 1.000000000000000000 ) ) ;
#216 = LENGTH_MEASURE_WITH_UNIT ( LENGTH_MEASURE( 0.02539999999999999897 ), #104 );
#217 = DIRECTION ( 'NONE',  ( 1.000000000000000000, 0.000000000000000000, 0.000000000000000000 ) ) ;
#218 = DIMENSIONAL_EXPONENTS ( 1.000000000000000000, 0.000000000000000000, 0.000000000000000000, 0.000000000000000000, 0.000000000000000000, 0.000000000000000000, 0.000000000000000000 ) ;
#219 = DIRECTION ( 'NONE',  ( -1.551219278919980663E-16, 1.000000000000000000, -0.000000000000000000 ) ) ;
#220 = EDGE_CURVE ( 'NONE', #7, #5, #67, .T. ) ;
#221 = CIRCLE ( 'NONE', #255, 0.3125000000000000000 ) ;
#222 = AXIS2_PLACEMENT_3D ( 'NONE', #319, #62, #205 ) ;
#223 = STYLED_ITEM ( 'NONE', ( #153 ), #68 ) ;
#224 = DIRECTION ( 'NONE',  ( 1.000000000000000000, 0.000000000000000000, -1.224646799147353207E-16 ) ) ;
#225 = SURFACE_SIDE_STYLE ('',( #328 ) ) ;
#226 = PRODUCT_DEFINITION_CONTEXT ( 'detailed design', #192, 'design' ) ;
#227 = CARTESIAN_POINT ( 'NONE',  ( 0.000000000000000000, 0.3125000000000000555, 0.000000000000000000 ) ) ;
#228 = DIRECTION ( 'NONE',  ( -0.000000000000000000, -1.000000000000000000, -0.000000000000000000 ) ) ;
#229 = CARTESIAN_POINT ( 'NONE',  ( 0.3124999999999998890, 3.500000000000000000, 3.827021247335477078E-17 ) ) ;
#230 = DIRECTION ( 'NONE',  ( 0.000000000000000000, 0.000000000000000000, -1.000000000000000000 ) ) ;
#231 = SURFACE_STYLE_USAGE ( .BOTH. , #312 ) ;
#232 = LINE ( 'NONE', #339, #198 ) ;
#233 = ADVANCED_FACE ( 'NONE', ( #19 ), #253, .T. ) ;
#234 = DIRECTION ( 'NONE',  ( -1.000000000000000000, -1.551219278919980663E-16, 0.000000000000000000 ) ) ;
#235 = CARTESIAN_POINT ( 'NONE',  ( 0.000000000000000000, 0.3125000000000000555, 0.000000000000000000 ) ) ;
#236 =( NAMED_UNIT ( * ) PLANE_ANGLE_UNIT ( ) SI_UNIT ( $, .RADIAN. ) );
#237 = CARTESIAN_POINT ( 'NONE',  ( -0.3125000000000000000, 3.500000000000000000, 0.000000000000000000 ) ) ;
#238 = EDGE_CURVE ( 'NONE', #197, #5, #24, .T. ) ;
#239 =( LENGTH_UNIT ( ) NAMED_UNIT ( * ) SI_UNIT ( $, .METRE. ) );
#240 = AXIS2_PLACEMENT_3D ( 'NONE', #280, #21, #72 ) ;
#241 = COLOUR_RGB ( '',1.000000000000000000, 0.000000000000000000, 0.000000000000000000 ) ;
#242 = VERTEX_POINT ( 'NONE', #133 ) ;
#243 = EDGE_CURVE ( 'NONE', #5, #7, #272, .T. ) ;
#244 = FACE_OUTER_BOUND ( 'NONE', #155, .T. ) ;
#245 = DIRECTION ( 'NONE',  ( -1.000000000000000000, 0.000000000000000000, 0.000000000000000000 ) ) ;
#246 =( NAMED_UNIT ( * ) PLANE_ANGLE_UNIT ( ) SI_UNIT ( $, .RADIAN. ) );
#247 = AXIS2_PLACEMENT_3D ( 'NONE', #309, #63, #245 ) ;
#248 =( CONVERSION_BASED_UNIT ( 'INCH', #92 ) LENGTH_UNIT ( ) NAMED_UNIT ( #23 ) );
#249 =( LENGTH_UNIT ( ) NAMED_UNIT ( * ) SI_UNIT ( $, .METRE. ) );
#250 = CARTESIAN_POINT ( 'NONE',  ( -3.827021247335478926E-17, 0.3125000000000000000, 0.000000000000000000 ) ) ;
#251 = DIMENSIONAL_EXPONENTS ( 1.000000000000000000, 0.000000000000000000, 0.000000000000000000, 0.000000000000000000, 0.000000000000000000, 0.000000000000000000, 0.000000000000000000 ) ;
#252 = PRESENTATION_LAYER_ASSIGNMENT (  '', '', ( #223 ) ) ;
#253 = CYLINDRICAL_SURFACE ( 'NONE', #146, 0.3124999999999998890 ) ;
#254 = DIRECTION ( 'NONE',  ( 1.224646799147353207E-16, -0.000000000000000000, 1.000000000000000000 ) ) ;
#255 = AXIS2_PLACEMENT_3D ( 'NONE', #227, #228, #196 ) ;
#256 = PRODUCT_DEFINITION_FORMATION_WITH_SPECIFIED_SOURCE ( 'ANY', '', #53, .NOT_KNOWN. ) ;
#257 =( GEOMETRIC_REPRESENTATION_CONTEXT ( 3 ) GLOBAL_UNCERTAINTY_ASSIGNED_CONTEXT ( ( #214 ) ) GLOBAL_UNIT_ASSIGNED_CONTEXT ( ( #151, #246, #127 ) ) REPRESENTATION_CONTEXT ( 'NONE', 'WORKASPACE' ) );
#258 = FACE_OUTER_BOUND ( 'NONE', #22, .T. ) ;
#259 = AXIS2_PLACEMENT_3D ( 'NONE', #59, #54, #195 ) ;
#260 = FILL_AREA_STYLE_COLOUR ( '', #4 ) ;
#261 = DIRECTION ( 'NONE',  ( -0.000000000000000000, -1.000000000000000000, -0.000000000000000000 ) ) ;
#262 = EDGE_CURVE ( 'NONE', #242, #183, #157, .T. ) ;
#263 = AXIS2_PLACEMENT_3D ( 'NONE', #166, #348, #352 ) ;
#264 =( NAMED_UNIT ( * ) PLANE_ANGLE_UNIT ( ) SI_UNIT ( $, .RADIAN. ) );
#265 = ORIENTED_EDGE ( 'NONE', *, *, #35, .T. ) ;
#266 = COLOUR_RGB ( '',1.000000000000000000, 0.000000000000000000, 0.000000000000000000 ) ;
#267 = COLOUR_RGB ( '',1.000000000000000000, 0.000000000000000000, 0.000000000000000000 ) ;
#268 = FACE_OUTER_BOUND ( 'NONE', #34, .T. ) ;
#269 = DIRECTION ( 'NONE',  ( 0.000000000000000000, -0.000000000000000000, 1.000000000000000000 ) ) ;
#270 = AXIS2_PLACEMENT_3D ( 'NONE', #165, #171, #347 ) ;
#271 = STYLED_ITEM ( 'NONE', ( #121 ), #78 ) ;
#272 = CIRCLE ( 'NONE', #332, 0.3124999999999999445 ) ;
#273 = PRODUCT_DEFINITION ( 'UNKNOWN', '', #256, #226 ) ;
#274 = FACE_OUTER_BOUND ( 'NONE', #306, .T. ) ;
#275 = ORIENTED_EDGE ( 'NONE', *, *, #262, .F. ) ;
#276 = VERTEX_POINT ( 'NONE', #101 ) ;
#277 = PRODUCT_RELATED_PRODUCT_CATEGORY ( 'part', '', ( #53 ) ) ;
#278 = DIRECTION ( 'NONE',  ( -0.000000000000000000, -1.000000000000000000, -0.000000000000000000 ) ) ;
#279 = DIMENSIONAL_EXPONENTS ( 1.000000000000000000, 0.000000000000000000, 0.000000000000000000, 0.000000000000000000, 0.000000000000000000, 0.000000000000000000, 0.000000000000000000 ) ;
#280 = CARTESIAN_POINT ( 'NONE',  ( -6.123233995736759873E-17, 3.500000000000000000, 0.000000000000000000 ) ) ;
#281 = VERTEX_POINT ( 'NONE', #365 ) ;
#282 = PRESENTATION_STYLE_ASSIGNMENT (( #96 ) ) ;
#283 = PRESENTATION_STYLE_ASSIGNMENT (( #25 ) ) ;
#284 =( NAMED_UNIT ( * ) SI_UNIT ( $, .STERADIAN. ) SOLID_ANGLE_UNIT ( ) );
#285 =( NAMED_UNIT ( * ) PLANE_ANGLE_UNIT ( ) SI_UNIT ( $, .RADIAN. ) );
#286 = STYLED_ITEM ( 'NONE', ( #282 ), #233 ) ;
#287 = CIRCLE ( 'NONE', #199, 0.3124999999999996114 ) ;
#288 = CARTESIAN_POINT ( 'NONE',  ( 3.827021247335477078E-17, 0.000000000000000000, 0.3124999999999998890 ) ) ;
#289 = PLANE ( 'NONE',  #206 ) ;
#290 = STYLED_ITEM ( 'NONE', ( #80 ), #207 ) ;
#291 = CARTESIAN_POINT ( 'NONE',  ( 0.3124999999999998335, 1.625000000000000000, 3.827021247335476461E-17 ) ) ;
#292 = VECTOR ( 'NONE', #301, 39.37007874015748143 ) ;
#293 = CARTESIAN_POINT ( 'NONE',  ( 0.000000000000000000, 0.3125000000000000555, 0.000000000000000000 ) ) ;
#294 = CYLINDRICAL_SURFACE ( 'NONE', #52, 0.3124999999999997224 ) ;
#295 = EDGE_LOOP ( 'NONE', ( #275, #17, #341, #88, #308 ) ) ;
#296 = FACE_OUTER_BOUND ( 'NONE', #75, .T. ) ;
#297 =( NAMED_UNIT ( * ) SI_UNIT ( $, .STERADIAN. ) SOLID_ANGLE_UNIT ( ) );
#298 = EDGE_CURVE ( 'NONE', #276, #145, #170, .T. ) ;
#299 =( NAMED_UNIT ( * ) SI_UNIT ( $, .STERADIAN. ) SOLID_ANGLE_UNIT ( ) );
#300 = SPHERICAL_SURFACE ( 'NONE', #357, 0.3125000000000000000 ) ;
#301 = DIRECTION ( 'NONE',  ( -1.551219278919980663E-16, 1.000000000000000000, -0.000000000000000000 ) ) ;
#302 = CIRCLE ( 'NONE', #354, 0.3124999999999998335 ) ;
#303 = ORIENTED_EDGE ( 'NONE', *, *, #344, .T. ) ;
#304 = DIMENSIONAL_EXPONENTS ( 1.000000000000000000, 0.000000000000000000, 0.000000000000000000, 0.000000000000000000, 0.000000000000000000, 0.000000000000000000, 0.000000000000000000 ) ;
#305 = UNCERTAINTY_MEASURE_WITH_UNIT (LENGTH_MEASURE( 1.000000000000000082E-05 ), #12, 'distance_accuracy_value', 'NONE');
#306 = EDGE_LOOP ( 'NONE', ( #310, #31, #159, #169 ) ) ;
#307 = ADVANCED_FACE ( 'NONE', ( #258 ), #371, .T. ) ;
#308 = ORIENTED_EDGE ( 'NONE', *, *, #358, .F. ) ;
#309 = CARTESIAN_POINT ( 'NONE',  ( -6.123233995736758640E-17, 3.500000000000000000, 0.000000000000000000 ) ) ;
#310 = ORIENTED_EDGE ( 'NONE', *, *, #358, .T. ) ;
#311 = DIRECTION ( 'NONE',  ( -1.000000000000000000, 0.000000000000000000, 0.000000000000000000 ) ) ;
#312 = SURFACE_SIDE_STYLE ('',( #1 ) ) ;
#313 = ORIENTED_EDGE ( 'NONE', *, *, #337, .F. ) ;
#314 = PRESENTATION_LAYER_ASSIGNMENT (  '', '', ( #103 ) ) ;
#315 =( NAMED_UNIT ( * ) SI_UNIT ( $, .STERADIAN. ) SOLID_ANGLE_UNIT ( ) );
#316 = PRESENTATION_LAYER_ASSIGNMENT (  '', '', ( #144 ) ) ;
#317 = MECHANICAL_DESIGN_GEOMETRIC_PRESENTATION_REPRESENTATION (  '', ( #103 ), #370 ) ;
#318 =( NAMED_UNIT ( * ) PLANE_ANGLE_UNIT ( ) SI_UNIT ( $, .RADIAN. ) );
#319 = CARTESIAN_POINT ( 'NONE',  ( 0.000000000000000000, 0.000000000000000000, 0.000000000000000000 ) ) ;
#320 = FILL_AREA_STYLE_COLOUR ( '', #267 ) ;
#321 = EDGE_CURVE ( 'NONE', #30, #183, #201, .T. ) ;
#322 = PRODUCT_CONTEXT ( 'NONE', #175, 'mechanical' ) ;
#323 = CIRCLE ( 'NONE', #263, 0.3125000000000000000 ) ;
#324 = LENGTH_MEASURE_WITH_UNIT ( LENGTH_MEASURE( 0.02539999999999999897 ), #249 );
#325 = SURFACE_STYLE_USAGE ( .BOTH. , #36 ) ;
#326 =( LENGTH_UNIT ( ) NAMED_UNIT ( * ) SI_UNIT ( $, .METRE. ) );
#327 =( GEOMETRIC_REPRESENTATION_CONTEXT ( 3 ) GLOBAL_UNCERTAINTY_ASSIGNED_CONTEXT ( ( #130 ) ) GLOBAL_UNIT_ASSIGNED_CONTEXT ( ( #338, #163, #284 ) ) REPRESENTATION_CONTEXT ( 'NONE', 'WORKASPACE' ) );
#328 = SURFACE_STYLE_FILL_AREA ( #160 ) ;
#329 = FILL_AREA_STYLE_COLOUR ( '', #38 ) ;
#330 = AXIS2_PLACEMENT_3D ( 'NONE', #235, #122, #176 ) ;
#331 = ORIENTED_EDGE ( 'NONE', *, *, #126, .T. ) ;
#332 = AXIS2_PLACEMENT_3D ( 'NONE', #129, #219, #43 ) ;
#333 = FILL_AREA_STYLE_COLOUR ( '', #266 ) ;
#334 = DIMENSIONAL_EXPONENTS ( 1.000000000000000000, 0.000000000000000000, 0.000000000000000000, 0.000000000000000000, 0.000000000000000000, 0.000000000000000000, 0.000000000000000000 ) ;
#335 =( CONVERSION_BASED_UNIT ( 'INCH', #364 ) LENGTH_UNIT ( ) NAMED_UNIT ( #218 ) );
#336 = ORIENTED_EDGE ( 'NONE', *, *, #35, .F. ) ;
#337 = EDGE_CURVE ( 'NONE', #242, #147, #302, .T. ) ;
#338 =( CONVERSION_BASED_UNIT ( 'INCH', #216 ) LENGTH_UNIT ( ) NAMED_UNIT ( #304 ) );
#339 = CARTESIAN_POINT ( 'NONE',  ( -0.3124999999999998335, 3.500000000000000000, 0.000000000000000000 ) ) ;
#340 = ORIENTED_EDGE ( 'NONE', *, *, #238, .F. ) ;
#341 = ORIENTED_EDGE ( 'NONE', *, *, #11, .T. ) ;
#342 = DIRECTION ( 'NONE',  ( -1.551219278919980663E-16, 1.000000000000000000, -0.000000000000000000 ) ) ;
#343 = ORIENTED_EDGE ( 'NONE', *, *, #220, .F. ) ;
#344 = EDGE_CURVE ( 'NONE', #116, #197, #32, .T. ) ;
#345 = ADVANCED_BREP_SHAPE_REPRESENTATION ( '83371', ( #207, #82, #222 ), #114 ) ;
#346 =( NAMED_UNIT ( * ) SI_UNIT ( $, .STERADIAN. ) SOLID_ANGLE_UNIT ( ) );
#347 = DIRECTION ( 'NONE',  ( -1.000000000000000000, 0.000000000000000000, 0.000000000000000000 ) ) ;
#348 = DIRECTION ( 'NONE',  ( -0.000000000000000000, -1.000000000000000000, -0.000000000000000000 ) ) ;
#349 = AXIS2_PLACEMENT_3D ( 'NONE', #189, #143, #51 ) ;
#350 =( CONVERSION_BASED_UNIT ( 'INCH', #33 ) LENGTH_UNIT ( ) NAMED_UNIT ( #363 ) );
#351 = PRESENTATION_LAYER_ASSIGNMENT (  '', '', ( #136 ) ) ;
#352 = DIRECTION ( 'NONE',  ( 0.000000000000000000, 0.000000000000000000, -1.000000000000000000 ) ) ;
#353 = APPLICATION_PROTOCOL_DEFINITION ( 'draft international standard', 'automotive_design', 1998, #175 ) ;
#354 = AXIS2_PLACEMENT_3D ( 'NONE', #139, #112, #230 ) ;
#355 = PLANE ( 'NONE',  #168 ) ;
#356 = CLOSED_SHELL ( 'NONE', ( #203, #40, #110, #369 ) ) ;
#357 = AXIS2_PLACEMENT_3D ( 'NONE', #128, #100, #217 ) ;
#358 = EDGE_CURVE ( 'NONE', #183, #276, #367, .T. ) ;
#359 =( NAMED_UNIT ( * ) PLANE_ANGLE_UNIT ( ) SI_UNIT ( $, .RADIAN. ) );
#360 = DIRECTION ( 'NONE',  ( 0.000000000000000000, 0.000000000000000000, -1.000000000000000000 ) ) ;
#361 =( NAMED_UNIT ( * ) SI_UNIT ( $, .STERADIAN. ) SOLID_ANGLE_UNIT ( ) );
#362 = ORIENTED_EDGE ( 'NONE', *, *, #11, .F. ) ;
#363 = DIMENSIONAL_EXPONENTS ( 1.000000000000000000, 0.000000000000000000, 0.000000000000000000, 0.000000000000000000, 0.000000000000000000, 0.000000000000000000, 0.000000000000000000 ) ;
#364 = LENGTH_MEASURE_WITH_UNIT ( LENGTH_MEASURE( 0.02539999999999999897 ), #366 );
#365 = CARTESIAN_POINT ( 'NONE',  ( 0.000000000000000000, 0.3125000000000000555, -0.3125000000000000000 ) ) ;
#366 =( LENGTH_UNIT ( ) NAMED_UNIT ( * ) SI_UNIT ( $, .METRE. ) );
#367 = CIRCLE ( 'NONE', #330, 0.3125000000000000000 ) ;
#368 =( GEOMETRIC_REPRESENTATION_CONTEXT ( 3 ) GLOBAL_UNCERTAINTY_ASSIGNED_CONTEXT ( ( #134 ) ) GLOBAL_UNIT_ASSIGNED_CONTEXT ( ( #44, #285, #361 ) ) REPRESENTATION_CONTEXT ( 'NONE', 'WORKASPACE' ) );
#369 = ADVANCED_FACE ( 'NONE', ( #244 ), #355, .F. ) ;
#370 =( GEOMETRIC_REPRESENTATION_CONTEXT ( 3 ) GLOBAL_UNCERTAINTY_ASSIGNED_CONTEXT ( ( #99 ) ) GLOBAL_UNIT_ASSIGNED_CONTEXT ( ( #350, #264, #346 ) ) REPRESENTATION_CONTEXT ( 'NONE', 'WORKASPACE' ) );
#371 = CYLINDRICAL_SURFACE ( 'NONE', #259, 0.3124999999999998890 ) ;
#372 = ORIENTED_EDGE ( 'NONE', *, *, #152, .F. ) ;
#373 = ORIENTED_EDGE ( 'NONE', *, *, #298, .F. ) ;
ENDSEC;
END-ISO-10303-21;
