ISO-10303-21;
HEADER;
FILE_DESCRIPTION (( 'STEP AP214' ),
    '1' );
FILE_NAME ('Micro_GEM-046-3X.STEP',
    '2021-09-01T18:54:22',
    ( '' ),
    ( '' ),
    'SwSTEP 2.0',
    'SolidWorks 2020',
    '' );
FILE_SCHEMA (( 'AUTOMOTIVE_DESIGN' ));
ENDSEC;

DATA;
#1 = SURFACE_SIDE_STYLE ('',( #117 ) ) ;
#2 = CYLINDRICAL_SURFACE ( 'NONE', #203, 0.06250000000000002776 ) ;
#3 =( NAMED_UNIT ( * ) PLANE_ANGLE_UNIT ( ) SI_UNIT ( $, .RADIAN. ) );
#4 = ORIENTED_EDGE ( 'NONE', *, *, #152, .T. ) ;
#5 = CYLINDRICAL_SURFACE ( 'NONE', #126, 0.02342655000000000085 ) ;
#6 = CARTESIAN_POINT ( 'NONE',  ( 0.0000000000000000000, 0.0000000000000000000, 0.0000000000000000000 ) ) ;
#7 = CARTESIAN_POINT ( 'NONE',  ( -0.02342654999999998350, 5.261483720963751017E-18, 0.1089999999999999997 ) ) ;
#8 = DIRECTION ( 'NONE',  ( 1.000000000000000000, 0.0000000000000000000, 0.0000000000000000000 ) ) ;
#9 = ADVANCED_FACE ( 'NONE', ( #210 ), #2, .T. ) ;
#10 = DIRECTION ( 'NONE',  ( 1.224646799147353700E-16, 0.0000000000000000000, 1.000000000000000000 ) ) ;
#11 = VECTOR ( 'NONE', #42, 39.37007874015747433 ) ;
#12 = EDGE_CURVE ( 'NONE', #185, #16, #299, .T. ) ;
#13 = DIRECTION ( 'NONE',  ( 0.0000000000000000000, 0.0000000000000000000, 1.000000000000000000 ) ) ;
#14 = AXIS2_PLACEMENT_3D ( 'NONE', #100, #74, #254 ) ;
#15 = AXIS2_PLACEMENT_3D ( 'NONE', #75, #35, #198 ) ;
#16 = VERTEX_POINT ( 'NONE', #46 ) ;
#17 = COLOUR_RGB ( '',0.7921568627450980005, 0.8196078431372548767, 0.9333333333333333481 ) ;
#18 = PLANE ( 'NONE',  #270 ) ;
#19 = LENGTH_MEASURE_WITH_UNIT ( LENGTH_MEASURE( 0.02539999999999999897 ), #243 );
#20 = EDGE_LOOP ( 'NONE', ( #139, #168, #202, #205 ) ) ;
#21 = APPLICATION_CONTEXT ( 'automotive_design' ) ;
#22 = CARTESIAN_POINT ( 'NONE',  ( -0.04750000000000064587, 0.0000000000000000000, 1.500000000000000222 ) ) ;
#23 = EDGE_LOOP ( 'NONE', ( #106, #136 ) ) ;
#24 = FILL_AREA_STYLE ('',( #143 ) ) ;
#25 = CONICAL_SURFACE ( 'NONE', #104, 0.02342654999999999391, 0.1745329251994338915 ) ;
#26 = ORIENTED_EDGE ( 'NONE', *, *, #277, .F. ) ;
#27 = LENGTH_MEASURE_WITH_UNIT ( LENGTH_MEASURE( 0.02539999999999999897 ), #276 );
#28 = PRODUCT_RELATED_PRODUCT_CATEGORY ( 'part', '', ( #207 ) ) ;
#29 = DIRECTION ( 'NONE',  ( -1.000000000000000000, 0.0000000000000000000, 0.0000000000000000000 ) ) ;
#30 = FACE_OUTER_BOUND ( 'NONE', #296, .T. ) ;
#31 = FACE_OUTER_BOUND ( 'NONE', #266, .T. ) ;
#32 = DIRECTION ( 'NONE',  ( -0.0000000000000000000, -0.0000000000000000000, -1.000000000000000000 ) ) ;
#33 = VECTOR ( 'NONE', #153, 39.37007874015748143 ) ;
#34 = DIRECTION ( 'NONE',  ( 1.000000000000000000, 0.0000000000000000000, 0.0000000000000000000 ) ) ;
#35 = DIRECTION ( 'NONE',  ( 0.0000000000000000000, 0.0000000000000000000, 1.000000000000000000 ) ) ;
#36 = LENGTH_MEASURE_WITH_UNIT ( LENGTH_MEASURE( 0.02539999999999999897 ), #195 );
#37 = DIRECTION ( 'NONE',  ( 0.0000000000000000000, 0.0000000000000000000, 1.000000000000000000 ) ) ;
#38 = ORIENTED_EDGE ( 'NONE', *, *, #290, .F. ) ;
#39 = UNCERTAINTY_MEASURE_WITH_UNIT (LENGTH_MEASURE( 1.000000000000000082E-05 ), #103, 'distance_accuracy_value', 'NONE');
#40 = APPLICATION_PROTOCOL_DEFINITION ( 'draft international standard', 'automotive_design', 1998, #21 ) ;
#41 = VERTEX_POINT ( 'NONE', #45 ) ;
#42 = DIRECTION ( 'NONE',  ( -0.1736481776669311916, 2.126576849575783316E-17, 0.9848077530122080203 ) ) ;
#43 = DIRECTION ( 'NONE',  ( 0.1736481776669313859, 0.0000000000000000000, 0.9848077530122077983 ) ) ;
#44 = EDGE_CURVE ( 'NONE', #248, #291, #142, .T. ) ;
#45 = CARTESIAN_POINT ( 'NONE',  ( 0.02342655000000000778, 0.0000000000000000000, 0.1089999999999999997 ) ) ;
#46 = CARTESIAN_POINT ( 'NONE',  ( -0.06249999999999997918, 0.0000000000000000000, 0.3305965466147405274 ) ) ;
#47 = DIRECTION ( 'NONE',  ( -1.224646799147353700E-16, -0.0000000000000000000, -1.000000000000000000 ) ) ;
#48 = DIRECTION ( 'NONE',  ( -1.000000000000000000, 0.0000000000000000000, 1.224646799147353700E-16 ) ) ;
#49 = ORIENTED_EDGE ( 'NONE', *, *, #145, .F. ) ;
#50 = FACE_OUTER_BOUND ( 'NONE', #225, .T. ) ;
#51 = CIRCLE ( 'NONE', #125, 0.06250000000000002776 ) ;
#52 = CARTESIAN_POINT ( 'NONE',  ( -0.04750000000000064587, 0.0000000000000000000, 1.500000000000000222 ) ) ;
#53 = DIRECTION ( 'NONE',  ( 0.0000000000000000000, 0.0000000000000000000, -1.000000000000000000 ) ) ;
#54 = CARTESIAN_POINT ( 'NONE',  ( 0.0000000000000000000, 0.0000000000000000000, 1.500000000000000222 ) ) ;
#55 = FACE_OUTER_BOUND ( 'NONE', #189, .T. ) ;
#56 = UNCERTAINTY_MEASURE_WITH_UNIT (LENGTH_MEASURE( 1.000000000000000082E-05 ), #148, 'distance_accuracy_value', 'NONE');
#57 = VERTEX_POINT ( 'NONE', #271 ) ;
#58 = STYLED_ITEM ( 'NONE', ( #187 ), #293 ) ;
#59 = EDGE_CURVE ( 'NONE', #57, #297, #132, .T. ) ;
#60 =( NAMED_UNIT ( * ) SI_UNIT ( $, .STERADIAN. ) SOLID_ANGLE_UNIT ( ) );
#61 = VERTEX_POINT ( 'NONE', #224 ) ;
#62 = EDGE_CURVE ( 'NONE', #185, #41, #174, .T. ) ;
#63 = CARTESIAN_POINT ( 'NONE',  ( 0.04750000000000064587, 5.817072295950006528E-18, 1.500000000000000222 ) ) ;
#64 = FACE_OUTER_BOUND ( 'NONE', #242, .T. ) ;
#65 =( NAMED_UNIT ( * ) PLANE_ANGLE_UNIT ( ) SI_UNIT ( $, .RADIAN. ) );
#66 = MECHANICAL_DESIGN_GEOMETRIC_PRESENTATION_REPRESENTATION (  '', ( #58 ), #288 ) ;
#67 = ORIENTED_EDGE ( 'NONE', *, *, #290, .T. ) ;
#68 = CONICAL_SURFACE ( 'NONE', #233, 0.04750000000000064587, 0.7853981633974466137 ) ;
#69 = CIRCLE ( 'NONE', #15, 0.04750000000000064587 ) ;
#70 = CARTESIAN_POINT ( 'NONE',  ( 0.06250000000000002776, 7.654042494670959086E-18, 1.500000000000000222 ) ) ;
#71 = PRESENTATION_STYLE_ASSIGNMENT (( #273 ) ) ;
#72 = FACE_OUTER_BOUND ( 'NONE', #119, .T. ) ;
#73 = AXIS2_PLACEMENT_3D ( 'NONE', #6, #200, #262 ) ;
#74 = DIRECTION ( 'NONE',  ( -1.224646799147353700E-16, -0.0000000000000000000, -1.000000000000000000 ) ) ;
#75 = CARTESIAN_POINT ( 'NONE',  ( 0.0000000000000000000, 0.0000000000000000000, 1.500000000000000222 ) ) ;
#76 = DIRECTION ( 'NONE',  ( 1.000000000000000000, 0.0000000000000000000, 0.0000000000000000000 ) ) ;
#77 = CARTESIAN_POINT ( 'NONE',  ( -0.06250000000000002776, 0.0000000000000000000, 1.500000000000000222 ) ) ;
#78 = CLOSED_SHELL ( 'NONE', ( #214, #171, #188, #197, #9, #255, #83, #241, #167, #97 ) ) ;
#79 = FACE_OUTER_BOUND ( 'NONE', #23, .T. ) ;
#80 = STYLED_ITEM ( 'NONE', ( #71 ), #155 ) ;
#81 = AXIS2_PLACEMENT_3D ( 'NONE', #170, #192, #29 ) ;
#82 = ORIENTED_EDGE ( 'NONE', *, *, #161, .F. ) ;
#83 = ADVANCED_FACE ( 'NONE', ( #72 ), #68, .T. ) ;
#84 = ORIENTED_EDGE ( 'NONE', *, *, #152, .F. ) ;
#85 = SURFACE_STYLE_USAGE ( .BOTH. , #211 ) ;
#86 = CARTESIAN_POINT ( 'NONE',  ( 3.513419753651716505E-34, 0.0000000000000000000, 2.868924947256543719E-18 ) ) ;
#87 =( NAMED_UNIT ( * ) SI_UNIT ( $, .STERADIAN. ) SOLID_ANGLE_UNIT ( ) );
#88 = DIMENSIONAL_EXPONENTS ( 1.000000000000000000, 0.0000000000000000000, 0.0000000000000000000, 0.0000000000000000000, 0.0000000000000000000, 0.0000000000000000000, 0.0000000000000000000 ) ;
#89 = ORIENTED_EDGE ( 'NONE', *, *, #12, .F. ) ;
#90 = AXIS2_PLACEMENT_3D ( 'NONE', #113, #47, #295 ) ;
#91 = CARTESIAN_POINT ( 'NONE',  ( -0.02342654999999998350, 2.868924947256542179E-18, 0.1089999999999999997 ) ) ;
#92 = CARTESIAN_POINT ( 'NONE',  ( -0.02342655000000000085, 0.0000000000000000000, 5.737849894513087439E-18 ) ) ;
#93 = DIRECTION ( 'NONE',  ( -0.0000000000000000000, -0.0000000000000000000, -1.000000000000000000 ) ) ;
#94 = DIRECTION ( 'NONE',  ( 1.000000000000000000, 0.0000000000000000000, 0.0000000000000000000 ) ) ;
#95 = DIRECTION ( 'NONE',  ( 1.000000000000000000, 0.0000000000000000000, 0.0000000000000000000 ) ) ;
#96 =( GEOMETRIC_REPRESENTATION_CONTEXT ( 3 ) GLOBAL_UNCERTAINTY_ASSIGNED_CONTEXT ( ( #39 ) ) GLOBAL_UNIT_ASSIGNED_CONTEXT ( ( #103, #138, #60 ) ) REPRESENTATION_CONTEXT ( 'NONE', 'WORKASPACE' ) );
#97 = ADVANCED_FACE ( 'NONE', ( #64 ), #18, .F. ) ;
#98 = DIRECTION ( 'NONE',  ( -1.000000000000000000, 0.0000000000000000000, 0.0000000000000000000 ) ) ;
#99 = CARTESIAN_POINT ( 'NONE',  ( 1.334865011070615584E-17, 0.0000000000000000000, 0.1089999999999999997 ) ) ;
#100 = CARTESIAN_POINT ( 'NONE',  ( 4.048640026209108604E-17, 0.0000000000000000000, 0.3305965466147405274 ) ) ;
#101 = COLOUR_RGB ( '',0.7921568627450980005, 0.8196078431372548767, 0.9333333333333333481 ) ;
#102 = DIRECTION ( 'NONE',  ( 1.000000000000000000, 0.0000000000000000000, 0.0000000000000000000 ) ) ;
#103 =( CONVERSION_BASED_UNIT ( 'INCH', #36 ) LENGTH_UNIT ( ) NAMED_UNIT ( #246 ) );
#104 = AXIS2_PLACEMENT_3D ( 'NONE', #176, #130, #34 ) ;
#105 = EDGE_CURVE ( 'NONE', #41, #185, #163, .T. ) ;
#106 = ORIENTED_EDGE ( 'NONE', *, *, #191, .T. ) ;
#107 = PRODUCT_DEFINITION_CONTEXT ( 'detailed design', #21, 'design' ) ;
#108 = ORIENTED_EDGE ( 'NONE', *, *, #274, .T. ) ;
#109 = VECTOR ( 'NONE', #178, 39.37007874015748854 ) ;
#110 = ORIENTED_EDGE ( 'NONE', *, *, #145, .T. ) ;
#111 = CONICAL_SURFACE ( 'NONE', #258, 0.04750000000000064587, 0.7853981633974466137 ) ;
#112 = CARTESIAN_POINT ( 'NONE',  ( 0.0000000000000000000, 0.0000000000000000000, 0.0000000000000000000 ) ) ;
#113 = CARTESIAN_POINT ( 'NONE',  ( 3.513419753651716505E-34, 0.0000000000000000000, 2.868924947256543719E-18 ) ) ;
#114 = VERTEX_POINT ( 'NONE', #124 ) ;
#115 = CARTESIAN_POINT ( 'NONE',  ( 0.06250000000000006939, 7.654042494670963708E-18, 0.3305965466147405274 ) ) ;
#116 = DIRECTION ( 'NONE',  ( -0.0000000000000000000, -0.0000000000000000000, -1.000000000000000000 ) ) ;
#117 = SURFACE_STYLE_FILL_AREA ( #24 ) ;
#118 = DIMENSIONAL_EXPONENTS ( 1.000000000000000000, 0.0000000000000000000, 0.0000000000000000000, 0.0000000000000000000, 0.0000000000000000000, 0.0000000000000000000, 0.0000000000000000000 ) ;
#119 = EDGE_LOOP ( 'NONE', ( #38, #221, #269, #164 ) ) ;
#120 = DIRECTION ( 'NONE',  ( -1.224646799147353700E-16, -0.0000000000000000000, -1.000000000000000000 ) ) ;
#121 = ORIENTED_EDGE ( 'NONE', *, *, #287, .F. ) ;
#122 = LINE ( 'NONE', #63, #166 ) ;
#123 = EDGE_CURVE ( 'NONE', #114, #16, #257, .T. ) ;
#124 = CARTESIAN_POINT ( 'NONE',  ( -0.06250000000000002776, 0.0000000000000000000, 1.485000000000000764 ) ) ;
#125 = AXIS2_PLACEMENT_3D ( 'NONE', #280, #150, #8 ) ;
#126 = AXIS2_PLACEMENT_3D ( 'NONE', #194, #278, #259 ) ;
#127 = DIRECTION ( 'NONE',  ( -1.000000000000000000, 0.0000000000000000000, 0.0000000000000000000 ) ) ;
#128 = DIRECTION ( 'NONE',  ( 1.000000000000000000, 0.0000000000000000000, -0.0000000000000000000 ) ) ;
#129 = LINE ( 'NONE', #158, #33 ) ;
#130 = DIRECTION ( 'NONE',  ( 1.224646799147353700E-16, 0.0000000000000000000, 1.000000000000000000 ) ) ;
#131 = DIRECTION ( 'NONE',  ( 1.000000000000000000, 0.0000000000000000000, -0.0000000000000000000 ) ) ;
#132 = CIRCLE ( 'NONE', #285, 0.02342655000000000085 ) ;
#133 = SHAPE_DEFINITION_REPRESENTATION ( #239, #155 ) ;
#134 = EDGE_CURVE ( 'NONE', #61, #292, #69, .T. ) ;
#135 = ORIENTED_EDGE ( 'NONE', *, *, #179, .T. ) ;
#136 = ORIENTED_EDGE ( 'NONE', *, *, #134, .T. ) ;
#137 = ORIENTED_EDGE ( 'NONE', *, *, #44, .F. ) ;
#138 =( NAMED_UNIT ( * ) PLANE_ANGLE_UNIT ( ) SI_UNIT ( $, .RADIAN. ) );
#139 = ORIENTED_EDGE ( 'NONE', *, *, #161, .T. ) ;
#140 = EDGE_CURVE ( 'NONE', #292, #114, #281, .T. ) ;
#141 = ORIENTED_EDGE ( 'NONE', *, *, #12, .T. ) ;
#142 = LINE ( 'NONE', #70, #218 ) ;
#143 = FILL_AREA_STYLE_COLOUR ( '', #101 ) ;
#144 = EDGE_LOOP ( 'NONE', ( #208, #141, #135, #26 ) ) ;
#145 = EDGE_CURVE ( 'NONE', #41, #57, #217, .T. ) ;
#146 = FILL_AREA_STYLE_COLOUR ( '', #17 ) ;
#147 = DIRECTION ( 'NONE',  ( -1.000000000000000000, 0.0000000000000000000, 0.0000000000000000000 ) ) ;
#148 =( CONVERSION_BASED_UNIT ( 'INCH', #27 ) LENGTH_UNIT ( ) NAMED_UNIT ( #88 ) );
#149 = CARTESIAN_POINT ( 'NONE',  ( 0.0000000000000000000, 0.0000000000000000000, 1.500000000000000222 ) ) ;
#150 = DIRECTION ( 'NONE',  ( 0.0000000000000000000, 0.0000000000000000000, -1.000000000000000000 ) ) ;
#151 = AXIS2_PLACEMENT_3D ( 'NONE', #201, #120, #94 ) ;
#152 = EDGE_CURVE ( 'NONE', #185, #297, #129, .T. ) ;
#153 = DIRECTION ( 'NONE',  ( -1.224646799147353700E-16, -0.0000000000000000000, -1.000000000000000000 ) ) ;
#154 = AXIS2_PLACEMENT_3D ( 'NONE', #213, #232, #95 ) ;
#155 = ADVANCED_BREP_SHAPE_REPRESENTATION ( 'Micro_GEM-046-3X', ( #293, #298 ), #253 ) ;
#156 = FACE_OUTER_BOUND ( 'NONE', #20, .T. ) ;
#157 = APPLICATION_CONTEXT ( 'automotive_design' ) ;
#158 = CARTESIAN_POINT ( 'NONE',  ( -0.02342655000000000085, 0.0000000000000000000, 2.868924947256543719E-18 ) ) ;
#159 = CIRCLE ( 'NONE', #151, 0.06250000000000002776 ) ;
#160 = CARTESIAN_POINT ( 'NONE',  ( 0.06250000000000002776, 7.654042494670959086E-18, 1.485000000000000764 ) ) ;
#161 = EDGE_CURVE ( 'NONE', #114, #248, #234, .T. ) ;
#162 = VECTOR ( 'NONE', #43, 39.37007874015748143 ) ;
#163 = CIRCLE ( 'NONE', #190, 0.02342654999999999391 ) ;
#164 = ORIENTED_EDGE ( 'NONE', *, *, #199, .F. ) ;
#165 = DIRECTION ( 'NONE',  ( 0.0000000000000000000, 0.0000000000000000000, 1.000000000000000000 ) ) ;
#166 = VECTOR ( 'NONE', #230, 39.37007874015748854 ) ;
#167 = ADVANCED_FACE ( 'NONE', ( #50 ), #5, .T. ) ;
#168 = ORIENTED_EDGE ( 'NONE', *, *, #44, .T. ) ;
#169 =( NAMED_UNIT ( * ) SI_UNIT ( $, .STERADIAN. ) SOLID_ANGLE_UNIT ( ) );
#170 = CARTESIAN_POINT ( 'NONE',  ( 1.334865011070615584E-17, 0.0000000000000000000, 0.1089999999999999997 ) ) ;
#171 = ADVANCED_FACE ( 'NONE', ( #260 ), #25, .T. ) ;
#172 = CARTESIAN_POINT ( 'NONE',  ( 0.0000000000000000000, 0.0000000000000000000, 1.500000000000000222 ) ) ;
#173 = DIRECTION ( 'NONE',  ( 0.0000000000000000000, 0.0000000000000000000, 1.000000000000000000 ) ) ;
#174 = CIRCLE ( 'NONE', #81, 0.02342654999999999391 ) ;
#175 = DIRECTION ( 'NONE',  ( -1.224646799147353700E-16, -0.0000000000000000000, -1.000000000000000000 ) ) ;
#176 = CARTESIAN_POINT ( 'NONE',  ( 1.334865011070615584E-17, 0.0000000000000000000, 0.1089999999999999997 ) ) ;
#177 = CIRCLE ( 'NONE', #90, 0.02342655000000000085 ) ;
#178 = DIRECTION ( 'NONE',  ( -0.7071067811865462405, 0.0000000000000000000, -0.7071067811865486830 ) ) ;
#179 = EDGE_CURVE ( 'NONE', #16, #291, #268, .T. ) ;
#180 = CARTESIAN_POINT ( 'NONE',  ( 1.334865011070615584E-17, 0.0000000000000000000, 0.1089999999999999997 ) ) ;
#181 = ORIENTED_EDGE ( 'NONE', *, *, #199, .T. ) ;
#182 = CIRCLE ( 'NONE', #196, 0.04750000000000064587 ) ;
#183 = ORIENTED_EDGE ( 'NONE', *, *, #287, .T. ) ;
#184 = ORIENTED_EDGE ( 'NONE', *, *, #62, .T. ) ;
#185 = VERTEX_POINT ( 'NONE', #7 ) ;
#186 = ORIENTED_EDGE ( 'NONE', *, *, #59, .F. ) ;
#187 = PRESENTATION_STYLE_ASSIGNMENT (( #85 ) ) ;
#188 = ADVANCED_FACE ( 'NONE', ( #30 ), #111, .T. ) ;
#189 = EDGE_LOOP ( 'NONE', ( #89, #226, #222, #108 ) ) ;
#190 = AXIS2_PLACEMENT_3D ( 'NONE', #99, #282, #127 ) ;
#191 = EDGE_CURVE ( 'NONE', #292, #61, #182, .T. ) ;
#192 = DIRECTION ( 'NONE',  ( -1.224646799147353700E-16, -0.0000000000000000000, -1.000000000000000000 ) ) ;
#193 = SURFACE_STYLE_FILL_AREA ( #251 ) ;
#194 = CARTESIAN_POINT ( 'NONE',  ( 0.0000000000000000000, 0.0000000000000000000, 0.0000000000000000000 ) ) ;
#195 =( LENGTH_UNIT ( ) NAMED_UNIT ( * ) SI_UNIT ( $, .METRE. ) );
#196 = AXIS2_PLACEMENT_3D ( 'NONE', #54, #173, #76 ) ;
#197 = ADVANCED_FACE ( 'NONE', ( #156 ), #235, .T. ) ;
#198 = DIRECTION ( 'NONE',  ( 1.000000000000000000, 0.0000000000000000000, 0.0000000000000000000 ) ) ;
#199 = EDGE_CURVE ( 'NONE', #248, #114, #51, .T. ) ;
#200 = DIRECTION ( 'NONE',  ( -1.224646799147353700E-16, -0.0000000000000000000, -1.000000000000000000 ) ) ;
#201 = CARTESIAN_POINT ( 'NONE',  ( 4.048640026209108604E-17, 0.0000000000000000000, 0.3305965466147405274 ) ) ;
#202 = ORIENTED_EDGE ( 'NONE', *, *, #179, .F. ) ;
#203 = AXIS2_PLACEMENT_3D ( 'NONE', #275, #93, #147 ) ;
#204 = VECTOR ( 'NONE', #32, 39.37007874015748143 ) ;
#205 = ORIENTED_EDGE ( 'NONE', *, *, #123, .F. ) ;
#206 = ORIENTED_EDGE ( 'NONE', *, *, #105, .T. ) ;
#207 = PRODUCT ( 'Micro_GEM-046-3X', 'Micro_GEM-046-3X', '', ( #220 ) ) ;
#208 = ORIENTED_EDGE ( 'NONE', *, *, #62, .F. ) ;
#209 = LINE ( 'NONE', #249, #162 ) ;
#210 = FACE_OUTER_BOUND ( 'NONE', #229, .T. ) ;
#211 = SURFACE_SIDE_STYLE ('',( #193 ) ) ;
#212 = DIRECTION ( 'NONE',  ( -1.000000000000000000, 0.0000000000000000000, 0.0000000000000000000 ) ) ;
#213 = CARTESIAN_POINT ( 'NONE',  ( 0.0000000000000000000, 0.0000000000000000000, 1.485000000000000764 ) ) ;
#214 = ADVANCED_FACE ( 'NONE', ( #31 ), #215, .T. ) ;
#215 = CYLINDRICAL_SURFACE ( 'NONE', #73, 0.02342655000000000085 ) ;
#216 = DIRECTION ( 'NONE',  ( -0.0000000000000000000, -0.0000000000000000000, -1.000000000000000000 ) ) ;
#217 = LINE ( 'NONE', #284, #272 ) ;
#218 = VECTOR ( 'NONE', #116, 39.37007874015748143 ) ;
#219 = AXIS2_PLACEMENT_3D ( 'NONE', #286, #37, #131 ) ;
#220 = PRODUCT_CONTEXT ( 'NONE', #157, 'mechanical' ) ;
#221 = ORIENTED_EDGE ( 'NONE', *, *, #191, .F. ) ;
#222 = ORIENTED_EDGE ( 'NONE', *, *, #277, .T. ) ;
#223 = MECHANICAL_DESIGN_GEOMETRIC_PRESENTATION_REPRESENTATION (  '', ( #80 ), #96 ) ;
#224 = CARTESIAN_POINT ( 'NONE',  ( 0.04750000000000064587, 6.735557395310483192E-18, 1.500000000000000222 ) ) ;
#225 = EDGE_LOOP ( 'NONE', ( #49, #206, #4, #186 ) ) ;
#226 = ORIENTED_EDGE ( 'NONE', *, *, #105, .F. ) ;
#227 = ORIENTED_EDGE ( 'NONE', *, *, #134, .F. ) ;
#228 = PRESENTATION_LAYER_ASSIGNMENT (  '', '', ( #58 ) ) ;
#229 = EDGE_LOOP ( 'NONE', ( #137, #181, #294, #265 ) ) ;
#230 = DIRECTION ( 'NONE',  ( 0.7071067811865462405, 8.659560562354916834E-17, -0.7071067811865486830 ) ) ;
#231 = DIRECTION ( 'NONE',  ( -1.000000000000000000, 0.0000000000000000000, 0.0000000000000000000 ) ) ;
#232 = DIRECTION ( 'NONE',  ( 0.0000000000000000000, 0.0000000000000000000, -1.000000000000000000 ) ) ;
#233 = AXIS2_PLACEMENT_3D ( 'NONE', #172, #252, #212 ) ;
#234 = CIRCLE ( 'NONE', #154, 0.06250000000000002776 ) ;
#235 = CYLINDRICAL_SURFACE ( 'NONE', #244, 0.06250000000000002776 ) ;
#236 = AXIS2_PLACEMENT_3D ( 'NONE', #180, #10, #102 ) ;
#237 = DIRECTION ( 'NONE',  ( 1.000000000000000000, 0.0000000000000000000, 0.0000000000000000000 ) ) ;
#238 = PLANE ( 'NONE',  #219 ) ;
#239 = PRODUCT_DEFINITION_SHAPE ( 'NONE', 'NONE',  #264 ) ;
#240 = ORIENTED_EDGE ( 'NONE', *, *, #140, .F. ) ;
#241 = ADVANCED_FACE ( 'NONE', ( #55 ), #279, .T. ) ;
#242 = EDGE_LOOP ( 'NONE', ( #183, #247 ) ) ;
#243 =( LENGTH_UNIT ( ) NAMED_UNIT ( * ) SI_UNIT ( $, .METRE. ) );
#244 = AXIS2_PLACEMENT_3D ( 'NONE', #149, #216, #98 ) ;
#245 = PRODUCT_DEFINITION_FORMATION_WITH_SPECIFIED_SOURCE ( 'ANY', '', #207, .NOT_KNOWN. ) ;
#246 = DIMENSIONAL_EXPONENTS ( 1.000000000000000000, 0.0000000000000000000, 0.0000000000000000000, 0.0000000000000000000, 0.0000000000000000000, 0.0000000000000000000, 0.0000000000000000000 ) ;
#247 = ORIENTED_EDGE ( 'NONE', *, *, #59, .T. ) ;
#248 = VERTEX_POINT ( 'NONE', #160 ) ;
#249 = CARTESIAN_POINT ( 'NONE',  ( 0.02342655000000000778, 0.0000000000000000000, 0.1089999999999999997 ) ) ;
#250 = DIRECTION ( 'NONE',  ( -1.224646799147353700E-16, -0.0000000000000000000, -1.000000000000000000 ) ) ;
#251 = FILL_AREA_STYLE ('',( #146 ) ) ;
#252 = DIRECTION ( 'NONE',  ( 0.0000000000000000000, 0.0000000000000000000, -1.000000000000000000 ) ) ;
#253 =( GEOMETRIC_REPRESENTATION_CONTEXT ( 3 ) GLOBAL_UNCERTAINTY_ASSIGNED_CONTEXT ( ( #289 ) ) GLOBAL_UNIT_ASSIGNED_CONTEXT ( ( #267, #65, #169 ) ) REPRESENTATION_CONTEXT ( 'NONE', 'WORKASPACE' ) );
#254 = DIRECTION ( 'NONE',  ( 1.000000000000000000, 0.0000000000000000000, 0.0000000000000000000 ) ) ;
#255 = ADVANCED_FACE ( 'NONE', ( #79 ), #238, .T. ) ;
#256 = CARTESIAN_POINT ( 'NONE',  ( 0.0000000000000000000, 0.0000000000000000000, 1.500000000000000222 ) ) ;
#257 = LINE ( 'NONE', #77, #204 ) ;
#258 = AXIS2_PLACEMENT_3D ( 'NONE', #256, #53, #231 ) ;
#259 = DIRECTION ( 'NONE',  ( -1.000000000000000000, 0.0000000000000000000, 1.224646799147353700E-16 ) ) ;
#260 = FACE_OUTER_BOUND ( 'NONE', #144, .T. ) ;
#261 = CARTESIAN_POINT ( 'NONE',  ( 0.0000000000000000000, 0.0000000000000000000, 0.0000000000000000000 ) ) ;
#262 = DIRECTION ( 'NONE',  ( -1.000000000000000000, 0.0000000000000000000, 1.224646799147353700E-16 ) ) ;
#263 = APPLICATION_PROTOCOL_DEFINITION ( 'draft international standard', 'automotive_design', 1998, #157 ) ;
#264 = PRODUCT_DEFINITION ( 'UNKNOWN', '', #245, #107 ) ;
#265 = ORIENTED_EDGE ( 'NONE', *, *, #274, .F. ) ;
#266 = EDGE_LOOP ( 'NONE', ( #184, #110, #121, #84 ) ) ;
#267 =( CONVERSION_BASED_UNIT ( 'INCH', #19 ) LENGTH_UNIT ( ) NAMED_UNIT ( #118 ) );
#268 = CIRCLE ( 'NONE', #14, 0.06250000000000002776 ) ;
#269 = ORIENTED_EDGE ( 'NONE', *, *, #140, .T. ) ;
#270 = AXIS2_PLACEMENT_3D ( 'NONE', #112, #165, #128 ) ;
#271 = CARTESIAN_POINT ( 'NONE',  ( 0.02342655000000000085, 2.868924947256542564E-18, 0.0000000000000000000 ) ) ;
#272 = VECTOR ( 'NONE', #175, 39.37007874015748143 ) ;
#273 = SURFACE_STYLE_USAGE ( .BOTH. , #1 ) ;
#274 = EDGE_CURVE ( 'NONE', #291, #16, #159, .T. ) ;
#275 = CARTESIAN_POINT ( 'NONE',  ( 0.0000000000000000000, 0.0000000000000000000, 1.500000000000000222 ) ) ;
#276 =( LENGTH_UNIT ( ) NAMED_UNIT ( * ) SI_UNIT ( $, .METRE. ) );
#277 = EDGE_CURVE ( 'NONE', #41, #291, #209, .T. ) ;
#278 = DIRECTION ( 'NONE',  ( -1.224646799147353700E-16, -0.0000000000000000000, -1.000000000000000000 ) ) ;
#279 = CONICAL_SURFACE ( 'NONE', #236, 0.02342654999999999391, 0.1745329251994338915 ) ;
#280 = CARTESIAN_POINT ( 'NONE',  ( 0.0000000000000000000, 0.0000000000000000000, 1.485000000000000764 ) ) ;
#281 = LINE ( 'NONE', #52, #109 ) ;
#282 = DIRECTION ( 'NONE',  ( -1.224646799147353700E-16, -0.0000000000000000000, -1.000000000000000000 ) ) ;
#283 = PRESENTATION_LAYER_ASSIGNMENT (  '', '', ( #80 ) ) ;
#284 = CARTESIAN_POINT ( 'NONE',  ( 0.02342655000000000085, 2.868924947256542564E-18, -2.868924947256543719E-18 ) ) ;
#285 = AXIS2_PLACEMENT_3D ( 'NONE', #86, #250, #48 ) ;
#286 = CARTESIAN_POINT ( 'NONE',  ( 0.0000000000000000000, 0.0000000000000000000, 1.500000000000000222 ) ) ;
#287 = EDGE_CURVE ( 'NONE', #297, #57, #177, .T. ) ;
#288 =( GEOMETRIC_REPRESENTATION_CONTEXT ( 3 ) GLOBAL_UNCERTAINTY_ASSIGNED_CONTEXT ( ( #56 ) ) GLOBAL_UNIT_ASSIGNED_CONTEXT ( ( #148, #3, #87 ) ) REPRESENTATION_CONTEXT ( 'NONE', 'WORKASPACE' ) );
#289 = UNCERTAINTY_MEASURE_WITH_UNIT (LENGTH_MEASURE( 1.000000000000000082E-05 ), #267, 'distance_accuracy_value', 'NONE');
#290 = EDGE_CURVE ( 'NONE', #61, #248, #122, .T. ) ;
#291 = VERTEX_POINT ( 'NONE', #115 ) ;
#292 = VERTEX_POINT ( 'NONE', #22 ) ;
#293 = MANIFOLD_SOLID_BREP ( 'Cut-Revolve1', #78 ) ;
#294 = ORIENTED_EDGE ( 'NONE', *, *, #123, .T. ) ;
#295 = DIRECTION ( 'NONE',  ( -1.000000000000000000, 0.0000000000000000000, 1.224646799147353700E-16 ) ) ;
#296 = EDGE_LOOP ( 'NONE', ( #227, #67, #82, #240 ) ) ;
#297 = VERTEX_POINT ( 'NONE', #92 ) ;
#298 = AXIS2_PLACEMENT_3D ( 'NONE', #261, #13, #237 ) ;
#299 = LINE ( 'NONE', #91, #11 ) ;
ENDSEC;
END-ISO-10303-21;
