ISO-10303-21;
HEADER;
FILE_DESCRIPTION (( 'STEP AP214' ),
    '1' );
FILE_NAME ('Micro_DM-500-2120.STEP',
    '2021-09-02T16:06:24',
    ( '' ),
    ( '' ),
    'SwSTEP 2.0',
    'SolidWorks 2020',
    '' );
FILE_SCHEMA (( 'AUTOMOTIVE_DESIGN' ));
ENDSEC;

DATA;
#1 = CARTESIAN_POINT ( 'NONE',  ( -0.2350000000000011524, 0.0000000000000000000, 3.000000000000000444 ) ) ;
#2 = VECTOR ( 'NONE', #8, 39.37007874015748854 ) ;
#3 = CARTESIAN_POINT ( 'NONE',  ( -0.2350000000000011524, 0.0000000000000000000, 3.000000000000000444 ) ) ;
#4 = FACE_BOUND ( 'NONE', #14, .T. ) ;
#5 = UNCERTAINTY_MEASURE_WITH_UNIT (LENGTH_MEASURE( 1.000000000000000082E-05 ), #202, 'distance_accuracy_value', 'NONE');
#6 = VERTEX_POINT ( 'NONE', #110 ) ;
#7 = ORIENTED_EDGE ( 'NONE', *, *, #138, .T. ) ;
#8 = DIRECTION ( 'NONE',  ( 0.7071067811865402453, 8.659560562354845344E-17, -0.7071067811865546782 ) ) ;
#9 = ORIENTED_EDGE ( 'NONE', *, *, #43, .T. ) ;
#10 = ORIENTED_EDGE ( 'NONE', *, *, #183, .T. ) ;
#11 = AXIS2_PLACEMENT_3D ( 'NONE', #211, #312, #167 ) ;
#12 = AXIS2_PLACEMENT_3D ( 'NONE', #326, #299, #225 ) ;
#13 = CARTESIAN_POINT ( 'NONE',  ( 0.0000000000000000000, 0.0000000000000000000, 1.000000000000000000 ) ) ;
#14 = EDGE_LOOP ( 'NONE', ( #82, #268 ) ) ;
#15 = DIRECTION ( 'NONE',  ( -0.0000000000000000000, -0.0000000000000000000, -1.000000000000000000 ) ) ;
#16 = LENGTH_MEASURE_WITH_UNIT ( LENGTH_MEASURE( 0.02539999999999999897 ), #69 );
#17 = DIRECTION ( 'NONE',  ( 0.0000000000000000000, 0.0000000000000000000, -1.000000000000000000 ) ) ;
#18 = DIRECTION ( 'NONE',  ( -0.0000000000000000000, -0.0000000000000000000, -1.000000000000000000 ) ) ;
#19 =( NAMED_UNIT ( * ) SI_UNIT ( $, .STERADIAN. ) SOLID_ANGLE_UNIT ( ) );
#20 = VECTOR ( 'NONE', #115, 39.37007874015748143 ) ;
#21 = CARTESIAN_POINT ( 'NONE',  ( 0.0000000000000000000, 0.0000000000000000000, 1.000000000000000000 ) ) ;
#22 = DIRECTION ( 'NONE',  ( -0.0000000000000000000, -0.0000000000000000000, -1.000000000000000000 ) ) ;
#23 = FILL_AREA_STYLE ('',( #157 ) ) ;
#24 = EDGE_CURVE ( 'NONE', #159, #261, #178, .T. ) ;
#25 = CARTESIAN_POINT ( 'NONE',  ( 0.0000000000000000000, 0.0000000000000000000, 3.000000000000000444 ) ) ;
#26 = MANIFOLD_SOLID_BREP ( 'Cut-Revolve4', #29 ) ;
#27 = LINE ( 'NONE', #165, #323 ) ;
#28 = DIRECTION ( 'NONE',  ( -1.000000000000000000, 0.0000000000000000000, 0.0000000000000000000 ) ) ;
#29 = CLOSED_SHELL ( 'NONE', ( #191, #91, #197, #246, #262, #84, #129, #173, #278, #149, #179 ) ) ;
#30 = AXIS2_PLACEMENT_3D ( 'NONE', #72, #15, #148 ) ;
#31 = DIRECTION ( 'NONE',  ( -1.000000000000000000, 0.0000000000000000000, 0.0000000000000000000 ) ) ;
#32 = ORIENTED_EDGE ( 'NONE', *, *, #119, .T. ) ;
#33 = PLANE ( 'NONE',  #11 ) ;
#34 = ORIENTED_EDGE ( 'NONE', *, *, #39, .F. ) ;
#35 = DIRECTION ( 'NONE',  ( 0.0000000000000000000, 0.0000000000000000000, 1.000000000000000000 ) ) ;
#36 = ORIENTED_EDGE ( 'NONE', *, *, #205, .F. ) ;
#37 = CIRCLE ( 'NONE', #206, 0.2350000000000011524 ) ;
#38 = DIRECTION ( 'NONE',  ( 1.000000000000000000, 0.0000000000000000000, 0.0000000000000000000 ) ) ;
#39 = EDGE_CURVE ( 'NONE', #48, #6, #96, .T. ) ;
#40 = STYLED_ITEM ( 'NONE', ( #125 ), #26 ) ;
#41 = VECTOR ( 'NONE', #274, 39.37007874015748143 ) ;
#42 = DIRECTION ( 'NONE',  ( -0.0000000000000000000, -0.0000000000000000000, -1.000000000000000000 ) ) ;
#43 = EDGE_CURVE ( 'NONE', #141, #229, #113, .T. ) ;
#44 = DIRECTION ( 'NONE',  ( -1.000000000000000000, 0.0000000000000000000, 0.0000000000000000000 ) ) ;
#45 = LINE ( 'NONE', #170, #231 ) ;
#46 = DIRECTION ( 'NONE',  ( 0.0000000000000000000, 0.0000000000000000000, -1.000000000000000000 ) ) ;
#47 = DIMENSIONAL_EXPONENTS ( 1.000000000000000000, 0.0000000000000000000, 0.0000000000000000000, 0.0000000000000000000, 0.0000000000000000000, 0.0000000000000000000, 0.0000000000000000000 ) ;
#48 = VERTEX_POINT ( 'NONE', #3 ) ;
#49 = SURFACE_STYLE_FILL_AREA ( #23 ) ;
#50 = AXIS2_PLACEMENT_3D ( 'NONE', #270, #42, #44 ) ;
#51 = DIRECTION ( 'NONE',  ( -1.000000000000000000, 0.0000000000000000000, 0.0000000000000000000 ) ) ;
#52 = FACE_OUTER_BOUND ( 'NONE', #264, .T. ) ;
#53 = ORIENTED_EDGE ( 'NONE', *, *, #121, .F. ) ;
#54 = DIRECTION ( 'NONE',  ( 0.0000000000000000000, 0.0000000000000000000, 1.000000000000000000 ) ) ;
#55 = DIRECTION ( 'NONE',  ( -0.0000000000000000000, -0.0000000000000000000, -1.000000000000000000 ) ) ;
#56 = CIRCLE ( 'NONE', #118, 0.2500000000000000000 ) ;
#57 = EDGE_LOOP ( 'NONE', ( #234, #7, #286, #281 ) ) ;
#58 = APPLICATION_CONTEXT ( 'automotive_design' ) ;
#59 = CARTESIAN_POINT ( 'NONE',  ( -0.2500000000000000000, 0.0000000000000000000, 2.985000000000001208 ) ) ;
#60 = ORIENTED_EDGE ( 'NONE', *, *, #181, .T. ) ;
#61 = DIRECTION ( 'NONE',  ( -0.0000000000000000000, -0.0000000000000000000, -1.000000000000000000 ) ) ;
#62 = EDGE_LOOP ( 'NONE', ( #9, #10 ) ) ;
#63 = ORIENTED_EDGE ( 'NONE', *, *, #203, .T. ) ;
#64 = PRODUCT_RELATED_PRODUCT_CATEGORY ( 'part', '', ( #275 ) ) ;
#65 = FACE_OUTER_BOUND ( 'NONE', #109, .T. ) ;
#66 = EDGE_LOOP ( 'NONE', ( #313, #221, #32, #292 ) ) ;
#67 = CIRCLE ( 'NONE', #78, 0.2499500000000001165 ) ;
#68 = VERTEX_POINT ( 'NONE', #188 ) ;
#69 =( LENGTH_UNIT ( ) NAMED_UNIT ( * ) SI_UNIT ( $, .METRE. ) );
#70 = EDGE_CURVE ( 'NONE', #68, #169, #27, .T. ) ;
#71 =( GEOMETRIC_REPRESENTATION_CONTEXT ( 3 ) GLOBAL_UNCERTAINTY_ASSIGNED_CONTEXT ( ( #156 ) ) GLOBAL_UNIT_ASSIGNED_CONTEXT ( ( #321, #145, #19 ) ) REPRESENTATION_CONTEXT ( 'NONE', 'WORKASPACE' ) );
#72 = CARTESIAN_POINT ( 'NONE',  ( 0.0000000000000000000, 0.0000000000000000000, 0.0000000000000000000 ) ) ;
#73 = DIRECTION ( 'NONE',  ( -1.000000000000000000, 0.0000000000000000000, 0.0000000000000000000 ) ) ;
#74 = DIRECTION ( 'NONE',  ( -1.000000000000000000, 0.0000000000000000000, 0.0000000000000000000 ) ) ;
#75 = EDGE_CURVE ( 'NONE', #48, #137, #108, .T. ) ;
#76 = FILL_AREA_STYLE_COLOUR ( '', #301 ) ;
#77 = DIRECTION ( 'NONE',  ( 1.000000000000000000, 0.0000000000000000000, -0.0000000000000000000 ) ) ;
#78 = AXIS2_PLACEMENT_3D ( 'NONE', #13, #61, #194 ) ;
#79 = STYLED_ITEM ( 'NONE', ( #228 ), #111 ) ;
#80 = DIMENSIONAL_EXPONENTS ( 1.000000000000000000, 0.0000000000000000000, 0.0000000000000000000, 0.0000000000000000000, 0.0000000000000000000, 0.0000000000000000000, 0.0000000000000000000 ) ;
#81 =( NAMED_UNIT ( * ) SI_UNIT ( $, .STERADIAN. ) SOLID_ANGLE_UNIT ( ) );
#82 = ORIENTED_EDGE ( 'NONE', *, *, #303, .F. ) ;
#83 = AXIS2_PLACEMENT_3D ( 'NONE', #322, #46, #150 ) ;
#84 = ADVANCED_FACE ( 'NONE', ( #185 ), #233, .T. ) ;
#85 = CARTESIAN_POINT ( 'NONE',  ( 0.0000000000000000000, 0.0000000000000000000, 1.000000000000000000 ) ) ;
#86 = DIRECTION ( 'NONE',  ( 0.0000000000000000000, 0.0000000000000000000, 1.000000000000000000 ) ) ;
#87 = VERTEX_POINT ( 'NONE', #215 ) ;
#88 = PLANE ( 'NONE',  #223 ) ;
#89 = CONICAL_SURFACE ( 'NONE', #302, 0.2350000000000011524, 0.7853981633974380649 ) ;
#90 = ORIENTED_EDGE ( 'NONE', *, *, #106, .T. ) ;
#91 = ADVANCED_FACE ( 'NONE', ( #310 ), #127, .T. ) ;
#92 = DIRECTION ( 'NONE',  ( -0.7071067811865402453, 0.0000000000000000000, -0.7071067811865546782 ) ) ;
#93 = ORIENTED_EDGE ( 'NONE', *, *, #43, .F. ) ;
#94 = LINE ( 'NONE', #139, #273 ) ;
#95 = DIRECTION ( 'NONE',  ( -0.0000000000000000000, -0.0000000000000000000, -1.000000000000000000 ) ) ;
#96 = CIRCLE ( 'NONE', #162, 0.2350000000000011524 ) ;
#97 = AXIS2_PLACEMENT_3D ( 'NONE', #222, #220, #144 ) ;
#98 = CARTESIAN_POINT ( 'NONE',  ( -0.007499999999999999722, 9.184850993605147975E-19, 1.707404996040164512E-17 ) ) ;
#99 = CARTESIAN_POINT ( 'NONE',  ( 0.0000000000000000000, 0.0000000000000000000, 1.707404996040164512E-17 ) ) ;
#100 = DIRECTION ( 'NONE',  ( -0.0000000000000000000, -0.0000000000000000000, -1.000000000000000000 ) ) ;
#101 = SURFACE_STYLE_USAGE ( .BOTH. , #152 ) ;
#102 = FACE_OUTER_BOUND ( 'NONE', #114, .T. ) ;
#103 = EDGE_CURVE ( 'NONE', #216, #229, #94, .T. ) ;
#104 = AXIS2_PLACEMENT_3D ( 'NONE', #198, #18, #120 ) ;
#105 = DIRECTION ( 'NONE',  ( -1.000000000000000000, 0.0000000000000000000, 0.0000000000000000000 ) ) ;
#106 = EDGE_CURVE ( 'NONE', #6, #216, #107, .T. ) ;
#107 = LINE ( 'NONE', #255, #2 ) ;
#108 = LINE ( 'NONE', #1, #171 ) ;
#109 = EDGE_LOOP ( 'NONE', ( #63, #236, #93, #116 ) ) ;
#110 = CARTESIAN_POINT ( 'NONE',  ( 0.2350000000000011524, 2.969768487932338510E-17, 3.000000000000000444 ) ) ;
#111 = ADVANCED_BREP_SHAPE_REPRESENTATION ( 'Micro_DM-500-2120', ( #26, #12 ), #308 ) ;
#112 = DIRECTION ( 'NONE',  ( -0.0000000000000000000, -0.0000000000000000000, -1.000000000000000000 ) ) ;
#113 = CIRCLE ( 'NONE', #143, 0.2500000000000000000 ) ;
#114 = EDGE_LOOP ( 'NONE', ( #53, #90, #193, #210 ) ) ;
#115 = DIRECTION ( 'NONE',  ( -0.0000000000000000000, -0.0000000000000000000, -1.000000000000000000 ) ) ;
#116 = ORIENTED_EDGE ( 'NONE', *, *, #119, .F. ) ;
#117 = DIRECTION ( 'NONE',  ( -0.0000000000000000000, -0.0000000000000000000, -1.000000000000000000 ) ) ;
#118 = AXIS2_PLACEMENT_3D ( 'NONE', #319, #95, #297 ) ;
#119 = EDGE_CURVE ( 'NONE', #137, #141, #163, .T. ) ;
#120 = DIRECTION ( 'NONE',  ( -1.000000000000000000, 0.0000000000000000000, 0.0000000000000000000 ) ) ;
#121 = EDGE_CURVE ( 'NONE', #6, #48, #37, .T. ) ;
#122 = DIRECTION ( 'NONE',  ( 1.000000000000000000, 0.0000000000000000000, 0.0000000000000000000 ) ) ;
#123 = CARTESIAN_POINT ( 'NONE',  ( 0.2500000000000000000, 3.061616997868382402E-17, 2.985000000000001208 ) ) ;
#124 =( CONVERSION_BASED_UNIT ( 'INCH', #248 ) LENGTH_UNIT ( ) NAMED_UNIT ( #47 ) );
#125 = PRESENTATION_STYLE_ASSIGNMENT (( #101 ) ) ;
#126 = PRESENTATION_LAYER_ASSIGNMENT (  '', '', ( #40 ) ) ;
#127 = CONICAL_SURFACE ( 'NONE', #237, 0.007499999999999999722, 1.047197551196600296 ) ;
#128 = AXIS2_PLACEMENT_3D ( 'NONE', #21, #100, #267 ) ;
#129 = ADVANCED_FACE ( 'NONE', ( #158 ), #134, .T. ) ;
#130 = SURFACE_STYLE_USAGE ( .BOTH. , #204 ) ;
#131 = ORIENTED_EDGE ( 'NONE', *, *, #133, .T. ) ;
#132 = DIRECTION ( 'NONE',  ( 0.0000000000000000000, 0.0000000000000000000, 1.000000000000000000 ) ) ;
#133 = EDGE_CURVE ( 'NONE', #288, #68, #67, .T. ) ;
#134 = CONICAL_SURFACE ( 'NONE', #296, 0.2350000000000011524, 0.7853981633974380649 ) ;
#135 = CARTESIAN_POINT ( 'NONE',  ( 0.2499500000000000888, 3.061004674468810760E-17, 0.0000000000000000000 ) ) ;
#136 = DIRECTION ( 'NONE',  ( -0.0000000000000000000, -0.0000000000000000000, -1.000000000000000000 ) ) ;
#137 = VERTEX_POINT ( 'NONE', #59 ) ;
#138 = EDGE_CURVE ( 'NONE', #288, #87, #186, .T. ) ;
#139 = CARTESIAN_POINT ( 'NONE',  ( 0.2500000000000000000, 3.061616997868382402E-17, 3.000000000000000444 ) ) ;
#140 = ORIENTED_EDGE ( 'NONE', *, *, #290, .T. ) ;
#141 = VERTEX_POINT ( 'NONE', #217 ) ;
#142 = DIRECTION ( 'NONE',  ( -0.0000000000000000000, -0.0000000000000000000, -1.000000000000000000 ) ) ;
#143 = AXIS2_PLACEMENT_3D ( 'NONE', #85, #55, #105 ) ;
#144 = DIRECTION ( 'NONE',  ( -1.000000000000000000, 0.0000000000000000000, 0.0000000000000000000 ) ) ;
#145 =( NAMED_UNIT ( * ) PLANE_ANGLE_UNIT ( ) SI_UNIT ( $, .RADIAN. ) );
#146 = AXIS2_PLACEMENT_3D ( 'NONE', #298, #117, #74 ) ;
#147 = CONICAL_SURFACE ( 'NONE', #259, 0.007499999999999999722, 1.047197551196600296 ) ;
#148 = DIRECTION ( 'NONE',  ( -1.000000000000000000, 0.0000000000000000000, 0.0000000000000000000 ) ) ;
#149 = ADVANCED_FACE ( 'NONE', ( #52 ), #230, .T. ) ;
#150 = DIRECTION ( 'NONE',  ( 1.000000000000000000, 0.0000000000000000000, 0.0000000000000000000 ) ) ;
#151 = CARTESIAN_POINT ( 'NONE',  ( 0.2500000000000000000, 3.061616997868382402E-17, 1.000000000000000000 ) ) ;
#152 = SURFACE_SIDE_STYLE ('',( #250 ) ) ;
#153 = DIRECTION ( 'NONE',  ( 0.0000000000000000000, 0.0000000000000000000, -1.000000000000000000 ) ) ;
#154 = APPLICATION_PROTOCOL_DEFINITION ( 'draft international standard', 'automotive_design', 1998, #58 ) ;
#155 = COLOUR_RGB ( '',0.7921568627450980005, 0.8196078431372548767, 0.9333333333333333481 ) ;
#156 = UNCERTAINTY_MEASURE_WITH_UNIT (LENGTH_MEASURE( 1.000000000000000082E-05 ), #321, 'distance_accuracy_value', 'NONE');
#157 = FILL_AREA_STYLE_COLOUR ( '', #155 ) ;
#158 = FACE_OUTER_BOUND ( 'NONE', #239, .T. ) ;
#159 = VERTEX_POINT ( 'NONE', #318 ) ;
#160 = DIRECTION ( 'NONE',  ( 0.0000000000000000000, 0.0000000000000000000, -1.000000000000000000 ) ) ;
#161 = PRODUCT_DEFINITION_CONTEXT ( 'detailed design', #213, 'design' ) ;
#162 = AXIS2_PLACEMENT_3D ( 'NONE', #25, #209, #315 ) ;
#163 = LINE ( 'NONE', #192, #20 ) ;
#164 = ORIENTED_EDGE ( 'NONE', *, *, #317, .F. ) ;
#165 = CARTESIAN_POINT ( 'NONE',  ( -0.2499500000000000888, 0.0000000000000000000, 0.0000000000000000000 ) ) ;
#166 = EDGE_LOOP ( 'NONE', ( #266, #218, #60, #164 ) ) ;
#167 = DIRECTION ( 'NONE',  ( -1.000000000000000000, 0.0000000000000000000, 0.0000000000000000000 ) ) ;
#168 = EDGE_LOOP ( 'NONE', ( #212, #140 ) ) ;
#169 = VERTEX_POINT ( 'NONE', #263 ) ;
#170 = CARTESIAN_POINT ( 'NONE',  ( 0.007499999999999999722, 0.0000000000000000000, 1.707404996040164512E-17 ) ) ;
#171 = VECTOR ( 'NONE', #92, 39.37007874015748854 ) ;
#172 = FACE_OUTER_BOUND ( 'NONE', #66, .T. ) ;
#173 = ADVANCED_FACE ( 'NONE', ( #4, #291 ), #33, .T. ) ;
#174 = CARTESIAN_POINT ( 'NONE',  ( -0.007499999999999999722, 1.576426592202430716E-17, 1.707404996040164512E-17 ) ) ;
#175 = DIRECTION ( 'NONE',  ( -0.0000000000000000000, -0.0000000000000000000, -1.000000000000000000 ) ) ;
#176 = APPLICATION_PROTOCOL_DEFINITION ( 'draft international standard', 'automotive_design', 1998, #213 ) ;
#177 = FILL_AREA_STYLE ('',( #76 ) ) ;
#178 = CIRCLE ( 'NONE', #257, 0.007499999999999999722 ) ;
#179 = ADVANCED_FACE ( 'NONE', ( #235 ), #88, .F. ) ;
#180 = DIMENSIONAL_EXPONENTS ( 1.000000000000000000, 0.0000000000000000000, 0.0000000000000000000, 0.0000000000000000000, 0.0000000000000000000, 0.0000000000000000000, 0.0000000000000000000 ) ;
#181 = EDGE_CURVE ( 'NONE', #169, #87, #258, .T. ) ;
#182 = AXIS2_PLACEMENT_3D ( 'NONE', #99, #175, #271 ) ;
#183 = EDGE_CURVE ( 'NONE', #229, #141, #56, .T. ) ;
#184 = EDGE_LOOP ( 'NONE', ( #241, #195, #279, #187 ) ) ;
#185 = FACE_OUTER_BOUND ( 'NONE', #316, .T. ) ;
#186 = LINE ( 'NONE', #135, #320 ) ;
#187 = ORIENTED_EDGE ( 'NONE', *, *, #205, .T. ) ;
#188 = CARTESIAN_POINT ( 'NONE',  ( -0.2499500000000001165, 0.0000000000000000000, 1.000000000000000000 ) ) ;
#189 = PRESENTATION_LAYER_ASSIGNMENT (  '', '', ( #79 ) ) ;
#190 = ORIENTED_EDGE ( 'NONE', *, *, #39, .T. ) ;
#191 = ADVANCED_FACE ( 'NONE', ( #269 ), #295, .T. ) ;
#192 = CARTESIAN_POINT ( 'NONE',  ( -0.2500000000000000000, 0.0000000000000000000, 3.000000000000000444 ) ) ;
#193 = ORIENTED_EDGE ( 'NONE', *, *, #203, .F. ) ;
#194 = DIRECTION ( 'NONE',  ( -1.000000000000000000, 0.0000000000000000000, 0.0000000000000000000 ) ) ;
#195 = ORIENTED_EDGE ( 'NONE', *, *, #24, .F. ) ;
#196 = EDGE_CURVE ( 'NONE', #216, #137, #199, .T. ) ;
#197 = ADVANCED_FACE ( 'NONE', ( #102 ), #89, .T. ) ;
#198 = CARTESIAN_POINT ( 'NONE',  ( 0.0000000000000000000, 0.0000000000000000000, 0.1399785727650239564 ) ) ;
#199 = CIRCLE ( 'NONE', #83, 0.2500000000000000000 ) ;
#200 = CARTESIAN_POINT ( 'NONE',  ( 0.0000000000000000000, 0.0000000000000000000, 3.000000000000000444 ) ) ;
#201 = CARTESIAN_POINT ( 'NONE',  ( 0.0000000000000000000, 0.0000000000000000000, 2.985000000000001208 ) ) ;
#202 =( CONVERSION_BASED_UNIT ( 'INCH', #305 ) LENGTH_UNIT ( ) NAMED_UNIT ( #80 ) );
#203 = EDGE_CURVE ( 'NONE', #137, #216, #328, .T. ) ;
#204 = SURFACE_SIDE_STYLE ('',( #49 ) ) ;
#205 = EDGE_CURVE ( 'NONE', #87, #169, #242, .T. ) ;
#206 = AXIS2_PLACEMENT_3D ( 'NONE', #283, #132, #260 ) ;
#207 = MECHANICAL_DESIGN_GEOMETRIC_PRESENTATION_REPRESENTATION (  '', ( #79 ), #304 ) ;
#208 = CARTESIAN_POINT ( 'NONE',  ( 0.0000000000000000000, 0.0000000000000000000, 1.707404996040164512E-17 ) ) ;
#209 = DIRECTION ( 'NONE',  ( 0.0000000000000000000, 0.0000000000000000000, 1.000000000000000000 ) ) ;
#210 = ORIENTED_EDGE ( 'NONE', *, *, #75, .F. ) ;
#211 = CARTESIAN_POINT ( 'NONE',  ( 0.2499500000000001165, 0.0000000000000000000, 1.000000000000000000 ) ) ;
#212 = ORIENTED_EDGE ( 'NONE', *, *, #24, .T. ) ;
#213 = APPLICATION_CONTEXT ( 'automotive_design' ) ;
#214 = CIRCLE ( 'NONE', #182, 0.007499999999999999722 ) ;
#215 = CARTESIAN_POINT ( 'NONE',  ( 0.2499499999999999778, 0.0000000000000000000, 0.1399785727650239564 ) ) ;
#216 = VERTEX_POINT ( 'NONE', #123 ) ;
#217 = CARTESIAN_POINT ( 'NONE',  ( -0.2500000000000000000, 0.0000000000000000000, 1.000000000000000000 ) ) ;
#218 = ORIENTED_EDGE ( 'NONE', *, *, #256, .T. ) ;
#219 = PRODUCT_DEFINITION ( 'UNKNOWN', '', #252, #161 ) ;
#220 = DIRECTION ( 'NONE',  ( -0.0000000000000000000, -0.0000000000000000000, -1.000000000000000000 ) ) ;
#221 = ORIENTED_EDGE ( 'NONE', *, *, #196, .T. ) ;
#222 = CARTESIAN_POINT ( 'NONE',  ( 0.0000000000000000000, 0.0000000000000000000, 3.000000000000000444 ) ) ;
#223 = AXIS2_PLACEMENT_3D ( 'NONE', #265, #35, #77 ) ;
#224 = CARTESIAN_POINT ( 'NONE',  ( 0.2499500000000001443, 3.061004674468811376E-17, 1.000000000000000000 ) ) ;
#225 = DIRECTION ( 'NONE',  ( 1.000000000000000000, 0.0000000000000000000, 0.0000000000000000000 ) ) ;
#226 = PRODUCT_DEFINITION_SHAPE ( 'NONE', 'NONE',  #219 ) ;
#227 = AXIS2_PLACEMENT_3D ( 'NONE', #254, #54, #238 ) ;
#228 = PRESENTATION_STYLE_ASSIGNMENT (( #130 ) ) ;
#229 = VERTEX_POINT ( 'NONE', #151 ) ;
#230 = CYLINDRICAL_SURFACE ( 'NONE', #251, 0.2499500000000000888 ) ;
#231 = VECTOR ( 'NONE', #247, 39.37007874015748143 ) ;
#232 = CARTESIAN_POINT ( 'NONE',  ( 0.0000000000000000000, 0.0000000000000000000, 0.0000000000000000000 ) ) ;
#233 = PLANE ( 'NONE',  #227 ) ;
#234 = ORIENTED_EDGE ( 'NONE', *, *, #303, .T. ) ;
#235 = FACE_OUTER_BOUND ( 'NONE', #168, .T. ) ;
#236 = ORIENTED_EDGE ( 'NONE', *, *, #103, .T. ) ;
#237 = AXIS2_PLACEMENT_3D ( 'NONE', #208, #86, #309 ) ;
#238 = DIRECTION ( 'NONE',  ( 1.000000000000000000, 0.0000000000000000000, -0.0000000000000000000 ) ) ;
#239 = EDGE_LOOP ( 'NONE', ( #282, #34, #329, #280 ) ) ;
#240 = CYLINDRICAL_SURFACE ( 'NONE', #50, 0.2500000000000000000 ) ;
#241 = ORIENTED_EDGE ( 'NONE', *, *, #256, .F. ) ;
#242 = CIRCLE ( 'NONE', #146, 0.2499500000000000333 ) ;
#243 = CIRCLE ( 'NONE', #128, 0.2499500000000001165 ) ;
#244 = CYLINDRICAL_SURFACE ( 'NONE', #97, 0.2500000000000000000 ) ;
#245 = FACE_OUTER_BOUND ( 'NONE', #184, .T. ) ;
#246 = ADVANCED_FACE ( 'NONE', ( #65 ), #244, .T. ) ;
#247 = DIRECTION ( 'NONE',  ( 0.8660254037844398178, 0.0000000000000000000, 0.4999999999999977240 ) ) ;
#248 = LENGTH_MEASURE_WITH_UNIT ( LENGTH_MEASURE( 0.02539999999999999897 ), #325 );
#249 =( NAMED_UNIT ( * ) SI_UNIT ( $, .STERADIAN. ) SOLID_ANGLE_UNIT ( ) );
#250 = SURFACE_STYLE_FILL_AREA ( #177 ) ;
#251 = AXIS2_PLACEMENT_3D ( 'NONE', #232, #285, #31 ) ;
#252 = PRODUCT_DEFINITION_FORMATION_WITH_SPECIFIED_SOURCE ( 'ANY', '', #275, .NOT_KNOWN. ) ;
#253 =( LENGTH_UNIT ( ) NAMED_UNIT ( * ) SI_UNIT ( $, .METRE. ) );
#254 = CARTESIAN_POINT ( 'NONE',  ( 0.0000000000000000000, 0.0000000000000000000, 3.000000000000000444 ) ) ;
#255 = CARTESIAN_POINT ( 'NONE',  ( 0.2350000000000011524, 2.877919977996294002E-17, 3.000000000000000444 ) ) ;
#256 = EDGE_CURVE ( 'NONE', #261, #169, #324, .T. ) ;
#257 = AXIS2_PLACEMENT_3D ( 'NONE', #289, #22, #51 ) ;
#258 = CIRCLE ( 'NONE', #104, 0.2499500000000000333 ) ;
#259 = AXIS2_PLACEMENT_3D ( 'NONE', #300, #327, #122 ) ;
#260 = DIRECTION ( 'NONE',  ( 1.000000000000000000, 0.0000000000000000000, 0.0000000000000000000 ) ) ;
#261 = VERTEX_POINT ( 'NONE', #174 ) ;
#262 = ADVANCED_FACE ( 'NONE', ( #172 ), #240, .T. ) ;
#263 = CARTESIAN_POINT ( 'NONE',  ( -0.2499499999999999778, 3.061004674468809528E-17, 0.1399785727650239564 ) ) ;
#264 = EDGE_LOOP ( 'NONE', ( #311, #131, #293, #36 ) ) ;
#265 = CARTESIAN_POINT ( 'NONE',  ( 0.0000000000000000000, 0.0000000000000000000, 0.0000000000000000000 ) ) ;
#266 = ORIENTED_EDGE ( 'NONE', *, *, #290, .F. ) ;
#267 = DIRECTION ( 'NONE',  ( -1.000000000000000000, 0.0000000000000000000, 0.0000000000000000000 ) ) ;
#268 = ORIENTED_EDGE ( 'NONE', *, *, #133, .F. ) ;
#269 = FACE_OUTER_BOUND ( 'NONE', #57, .T. ) ;
#270 = CARTESIAN_POINT ( 'NONE',  ( 0.0000000000000000000, 0.0000000000000000000, 3.000000000000000444 ) ) ;
#271 = DIRECTION ( 'NONE',  ( -1.000000000000000000, 0.0000000000000000000, 0.0000000000000000000 ) ) ;
#272 = SHAPE_DEFINITION_REPRESENTATION ( #226, #111 ) ;
#273 = VECTOR ( 'NONE', #142, 39.37007874015748143 ) ;
#274 = DIRECTION ( 'NONE',  ( -0.8660254037844398178, 1.060575238724908517E-16, 0.4999999999999977240 ) ) ;
#275 = PRODUCT ( 'Micro_DM-500-2120', 'Micro_DM-500-2120', '', ( #307 ) ) ;
#276 =( NAMED_UNIT ( * ) PLANE_ANGLE_UNIT ( ) SI_UNIT ( $, .RADIAN. ) );
#277 = ORIENTED_EDGE ( 'NONE', *, *, #121, .T. ) ;
#278 = ADVANCED_FACE ( 'NONE', ( #245 ), #147, .T. ) ;
#279 = ORIENTED_EDGE ( 'NONE', *, *, #317, .T. ) ;
#280 = ORIENTED_EDGE ( 'NONE', *, *, #196, .F. ) ;
#281 = ORIENTED_EDGE ( 'NONE', *, *, #70, .F. ) ;
#282 = ORIENTED_EDGE ( 'NONE', *, *, #106, .F. ) ;
#283 = CARTESIAN_POINT ( 'NONE',  ( 0.0000000000000000000, 0.0000000000000000000, 3.000000000000000444 ) ) ;
#284 = UNCERTAINTY_MEASURE_WITH_UNIT (LENGTH_MEASURE( 1.000000000000000082E-05 ), #124, 'distance_accuracy_value', 'NONE');
#285 = DIRECTION ( 'NONE',  ( -0.0000000000000000000, -0.0000000000000000000, -1.000000000000000000 ) ) ;
#286 = ORIENTED_EDGE ( 'NONE', *, *, #181, .F. ) ;
#287 = CARTESIAN_POINT ( 'NONE',  ( 0.0000000000000000000, 0.0000000000000000000, 3.000000000000000444 ) ) ;
#288 = VERTEX_POINT ( 'NONE', #224 ) ;
#289 = CARTESIAN_POINT ( 'NONE',  ( 0.0000000000000000000, 0.0000000000000000000, 1.707404996040164512E-17 ) ) ;
#290 = EDGE_CURVE ( 'NONE', #261, #159, #214, .T. ) ;
#291 = FACE_OUTER_BOUND ( 'NONE', #62, .T. ) ;
#292 = ORIENTED_EDGE ( 'NONE', *, *, #183, .F. ) ;
#293 = ORIENTED_EDGE ( 'NONE', *, *, #70, .T. ) ;
#294 = AXIS2_PLACEMENT_3D ( 'NONE', #201, #17, #38 ) ;
#295 = CYLINDRICAL_SURFACE ( 'NONE', #30, 0.2499500000000000888 ) ;
#296 = AXIS2_PLACEMENT_3D ( 'NONE', #287, #160, #28 ) ;
#297 = DIRECTION ( 'NONE',  ( -1.000000000000000000, 0.0000000000000000000, 0.0000000000000000000 ) ) ;
#298 = CARTESIAN_POINT ( 'NONE',  ( 0.0000000000000000000, 0.0000000000000000000, 0.1399785727650239564 ) ) ;
#299 = DIRECTION ( 'NONE',  ( 0.0000000000000000000, 0.0000000000000000000, 1.000000000000000000 ) ) ;
#300 = CARTESIAN_POINT ( 'NONE',  ( 0.0000000000000000000, 0.0000000000000000000, 1.707404996040164512E-17 ) ) ;
#301 = COLOUR_RGB ( '',0.7921568627450980005, 0.8196078431372548767, 0.9333333333333333481 ) ;
#302 = AXIS2_PLACEMENT_3D ( 'NONE', #200, #153, #73 ) ;
#303 = EDGE_CURVE ( 'NONE', #68, #288, #243, .T. ) ;
#304 =( GEOMETRIC_REPRESENTATION_CONTEXT ( 3 ) GLOBAL_UNCERTAINTY_ASSIGNED_CONTEXT ( ( #5 ) ) GLOBAL_UNIT_ASSIGNED_CONTEXT ( ( #202, #276, #249 ) ) REPRESENTATION_CONTEXT ( 'NONE', 'WORKASPACE' ) );
#305 = LENGTH_MEASURE_WITH_UNIT ( LENGTH_MEASURE( 0.02539999999999999897 ), #253 );
#306 =( NAMED_UNIT ( * ) PLANE_ANGLE_UNIT ( ) SI_UNIT ( $, .RADIAN. ) );
#307 = PRODUCT_CONTEXT ( 'NONE', #58, 'mechanical' ) ;
#308 =( GEOMETRIC_REPRESENTATION_CONTEXT ( 3 ) GLOBAL_UNCERTAINTY_ASSIGNED_CONTEXT ( ( #284 ) ) GLOBAL_UNIT_ASSIGNED_CONTEXT ( ( #124, #306, #81 ) ) REPRESENTATION_CONTEXT ( 'NONE', 'WORKASPACE' ) );
#309 = DIRECTION ( 'NONE',  ( 1.000000000000000000, 0.0000000000000000000, 0.0000000000000000000 ) ) ;
#310 = FACE_OUTER_BOUND ( 'NONE', #166, .T. ) ;
#311 = ORIENTED_EDGE ( 'NONE', *, *, #138, .F. ) ;
#312 = DIRECTION ( 'NONE',  ( -0.0000000000000000000, 0.0000000000000000000, -1.000000000000000000 ) ) ;
#313 = ORIENTED_EDGE ( 'NONE', *, *, #103, .F. ) ;
#314 = MECHANICAL_DESIGN_GEOMETRIC_PRESENTATION_REPRESENTATION (  '', ( #40 ), #71 ) ;
#315 = DIRECTION ( 'NONE',  ( 1.000000000000000000, 0.0000000000000000000, 0.0000000000000000000 ) ) ;
#316 = EDGE_LOOP ( 'NONE', ( #190, #277 ) ) ;
#317 = EDGE_CURVE ( 'NONE', #159, #87, #45, .T. ) ;
#318 = CARTESIAN_POINT ( 'NONE',  ( 0.007499999999999999722, 0.0000000000000000000, 1.707404996040164512E-17 ) ) ;
#319 = CARTESIAN_POINT ( 'NONE',  ( 0.0000000000000000000, 0.0000000000000000000, 1.000000000000000000 ) ) ;
#320 = VECTOR ( 'NONE', #112, 39.37007874015748143 ) ;
#321 =( CONVERSION_BASED_UNIT ( 'INCH', #16 ) LENGTH_UNIT ( ) NAMED_UNIT ( #180 ) );
#322 = CARTESIAN_POINT ( 'NONE',  ( 0.0000000000000000000, 0.0000000000000000000, 2.985000000000001208 ) ) ;
#323 = VECTOR ( 'NONE', #136, 39.37007874015748143 ) ;
#324 = LINE ( 'NONE', #98, #41 ) ;
#325 =( LENGTH_UNIT ( ) NAMED_UNIT ( * ) SI_UNIT ( $, .METRE. ) );
#326 = CARTESIAN_POINT ( 'NONE',  ( 0.0000000000000000000, 0.0000000000000000000, 0.0000000000000000000 ) ) ;
#327 = DIRECTION ( 'NONE',  ( 0.0000000000000000000, 0.0000000000000000000, 1.000000000000000000 ) ) ;
#328 = CIRCLE ( 'NONE', #294, 0.2500000000000000000 ) ;
#329 = ORIENTED_EDGE ( 'NONE', *, *, #75, .T. ) ;
ENDSEC;
END-ISO-10303-21;
