ISO-10303-21;
HEADER;
FILE_DESCRIPTION (( 'STEP AP214' ),
    '1' );
FILE_NAME ('01645.STEP',
    '2023-06-22T14:41:17',
    ( '' ),
    ( '' ),
    'SwSTEP 2.0',
    'SolidWorks 2023',
    '' );
FILE_SCHEMA (( 'AUTOMOTIVE_DESIGN' ));
ENDSEC;

DATA;
#1 = CARTESIAN_POINT ( 'NONE',  ( 2.449293598294707400E-16, 4.000000000000000000, 0.000000000000000000 ) ) ;
#2 = DIRECTION ( 'NONE',  ( -1.000000000000000000, 0.000000000000000000, 0.000000000000000000 ) ) ;
#3 = DIMENSIONAL_EXPONENTS ( 1.000000000000000000, 0.000000000000000000, 0.000000000000000000, 0.000000000000000000, 0.000000000000000000, 0.000000000000000000, 0.000000000000000000 ) ;
#4 = PRODUCT_DEFINITION_SHAPE ( 'NONE', 'NONE',  #292 ) ;
#5 = CARTESIAN_POINT ( 'NONE',  ( 0.3750000000000000555, 4.000000000000000000, 4.592425496802573602E-17 ) ) ;
#6 = CARTESIAN_POINT ( 'NONE',  ( 0.000000000000000000, 0.000000000000000000, 0.000000000000000000 ) ) ;
#7 = AXIS2_PLACEMENT_3D ( 'NONE', #208, #215, #2 ) ;
#8 =( LENGTH_UNIT ( ) NAMED_UNIT ( * ) SI_UNIT ( $, .METRE. ) );
#9 = EDGE_LOOP ( 'NONE', ( #23, #308 ) ) ;
#10 = DIRECTION ( 'NONE',  ( 0.000000000000000000, 0.000000000000000000, -1.000000000000000000 ) ) ;
#11 = MECHANICAL_DESIGN_GEOMETRIC_PRESENTATION_REPRESENTATION (  '', ( #298 ), #309 ) ;
#12 = ORIENTED_EDGE ( 'NONE', *, *, #43, .T. ) ;
#13 = PRESENTATION_STYLE_ASSIGNMENT (( #105 ) ) ;
#14 = DIRECTION ( 'NONE',  ( -8.164311994315692567E-17, -1.000000000000000000, 0.000000000000000000 ) ) ;
#15 = FILL_AREA_STYLE ('',( #160 ) ) ;
#16 =( NAMED_UNIT ( * ) SI_UNIT ( $, .STERADIAN. ) SOLID_ANGLE_UNIT ( ) );
#17 = CARTESIAN_POINT ( 'NONE',  ( -0.3749999999999996114, 4.000000000000000000, 0.000000000000000000 ) ) ;
#18 = PLANE ( 'NONE',  #199 ) ;
#19 = PLANE ( 'NONE',  #85 ) ;
#20 = DIRECTION ( 'NONE',  ( 1.000000000000000000, 0.000000000000000000, 0.000000000000000000 ) ) ;
#21 = DIRECTION ( 'NONE',  ( 0.000000000000000000, 1.000000000000000000, 0.000000000000000000 ) ) ;
#22 = LINE ( 'NONE', #115, #123 ) ;
#23 = ORIENTED_EDGE ( 'NONE', *, *, #131, .T. ) ;
#24 = CYLINDRICAL_SURFACE ( 'NONE', #7, 0.3749999999999998890 ) ;
#25 = ADVANCED_FACE ( 'NONE', ( #219 ), #152, .T. ) ;
#26 = CARTESIAN_POINT ( 'NONE',  ( 0.000000000000000000, 0.000000000000000000, 0.000000000000000000 ) ) ;
#27 = DIMENSIONAL_EXPONENTS ( 1.000000000000000000, 0.000000000000000000, 0.000000000000000000, 0.000000000000000000, 0.000000000000000000, 0.000000000000000000, 0.000000000000000000 ) ;
#28 =( GEOMETRIC_REPRESENTATION_CONTEXT ( 3 ) GLOBAL_UNCERTAINTY_ASSIGNED_CONTEXT ( ( #36 ) ) GLOBAL_UNIT_ASSIGNED_CONTEXT ( ( #118, #229, #16 ) ) REPRESENTATION_CONTEXT ( 'NONE', 'WORKASPACE' ) );
#29 = ORIENTED_EDGE ( 'NONE', *, *, #253, .T. ) ;
#30 = DIMENSIONAL_EXPONENTS ( 1.000000000000000000, 0.000000000000000000, 0.000000000000000000, 0.000000000000000000, 0.000000000000000000, 0.000000000000000000, 0.000000000000000000 ) ;
#31 = CARTESIAN_POINT ( 'NONE',  ( 0.3750000000000000555, 1.000000000000000222, 4.592425496802573602E-17 ) ) ;
#32 = MANIFOLD_SOLID_BREP ( 'Revolve - Cutting Edge', #88 ) ;
#33 = DIRECTION ( 'NONE',  ( 8.164311994315692567E-17, 1.000000000000000000, -0.000000000000000000 ) ) ;
#34 = DIMENSIONAL_EXPONENTS ( 1.000000000000000000, 0.000000000000000000, 0.000000000000000000, 0.000000000000000000, 0.000000000000000000, 0.000000000000000000, 0.000000000000000000 ) ;
#35 = CIRCLE ( 'NONE', #227, 0.3750000000000000555 ) ;
#36 = UNCERTAINTY_MEASURE_WITH_UNIT (LENGTH_MEASURE( 1.000000000000000082E-05 ), #118, 'distance_accuracy_value', 'NONE');
#37 = FILL_AREA_STYLE_COLOUR ( '', #213 ) ;
#38 = ORIENTED_EDGE ( 'NONE', *, *, #140, .F. ) ;
#39 = SURFACE_STYLE_FILL_AREA ( #121 ) ;
#40 = AXIS2_PLACEMENT_3D ( 'NONE', #122, #59, #218 ) ;
#41 = SURFACE_SIDE_STYLE ('',( #154 ) ) ;
#42 = DIRECTION ( 'NONE',  ( 0.000000000000000000, 0.000000000000000000, -1.000000000000000000 ) ) ;
#43 = EDGE_CURVE ( 'NONE', #257, #174, #157, .T. ) ;
#44 = CARTESIAN_POINT ( 'NONE',  ( 2.449293598294707400E-16, 4.000000000000000000, 0.000000000000000000 ) ) ;
#45 = FACE_OUTER_BOUND ( 'NONE', #9, .T. ) ;
#46 = AXIS2_PLACEMENT_3D ( 'NONE', #6, #175, #10 ) ;
#47 =( LENGTH_UNIT ( ) NAMED_UNIT ( * ) SI_UNIT ( $, .METRE. ) );
#48 =( LENGTH_UNIT ( ) NAMED_UNIT ( * ) SI_UNIT ( $, .METRE. ) );
#49 = AXIS2_PLACEMENT_3D ( 'NONE', #220, #247, #130 ) ;
#50 = DIRECTION ( 'NONE',  ( 8.164311994315692567E-17, 1.000000000000000000, -0.000000000000000000 ) ) ;
#51 = PRESENTATION_STYLE_ASSIGNMENT (( #95 ) ) ;
#52 = EDGE_LOOP ( 'NONE', ( #178, #162, #116, #78 ) ) ;
#53 = DIMENSIONAL_EXPONENTS ( 1.000000000000000000, 0.000000000000000000, 0.000000000000000000, 0.000000000000000000, 0.000000000000000000, 0.000000000000000000, 0.000000000000000000 ) ;
#54 = DIRECTION ( 'NONE',  ( -1.000000000000000000, 0.000000000000000000, 0.000000000000000000 ) ) ;
#55 =( GEOMETRIC_REPRESENTATION_CONTEXT ( 3 ) GLOBAL_UNCERTAINTY_ASSIGNED_CONTEXT ( ( #231 ) ) GLOBAL_UNIT_ASSIGNED_CONTEXT ( ( #224, #173, #104 ) ) REPRESENTATION_CONTEXT ( 'NONE', 'WORKASPACE' ) );
#56 = MECHANICAL_DESIGN_GEOMETRIC_PRESENTATION_REPRESENTATION (  '', ( #183 ), #28 ) ;
#57 =( NAMED_UNIT ( * ) SI_UNIT ( $, .STERADIAN. ) SOLID_ANGLE_UNIT ( ) );
#58 = ADVANCED_FACE ( 'NONE', ( #45 ), #19, .F. ) ;
#59 = DIRECTION ( 'NONE',  ( 8.164311994315692567E-17, 1.000000000000000000, -0.000000000000000000 ) ) ;
#60 = SURFACE_SIDE_STYLE ('',( #273 ) ) ;
#61 = AXIS2_PLACEMENT_3D ( 'NONE', #44, #33, #259 ) ;
#62 = PRODUCT_DEFINITION_CONTEXT ( 'detailed design', #256, 'design' ) ;
#63 = ORIENTED_EDGE ( 'NONE', *, *, #274, .F. ) ;
#64 = ORIENTED_EDGE ( 'NONE', *, *, #114, .T. ) ;
#65 = CARTESIAN_POINT ( 'NONE',  ( 4.592425496802575451E-17, 0.000000000000000000, 0.3750000000000000555 ) ) ;
#66 = DIRECTION ( 'NONE',  ( 0.000000000000000000, 0.000000000000000000, 1.000000000000000000 ) ) ;
#67 = CIRCLE ( 'NONE', #77, 0.3750000000000000555 ) ;
#68 = CLOSED_SHELL ( 'NONE', ( #209, #188, #198, #58 ) ) ;
#69 = SURFACE_SIDE_STYLE ('',( #87 ) ) ;
#70 = DIRECTION ( 'NONE',  ( 8.164311994315692567E-17, 1.000000000000000000, -0.000000000000000000 ) ) ;
#71 = SURFACE_SIDE_STYLE ('',( #165 ) ) ;
#72 =( NAMED_UNIT ( * ) PLANE_ANGLE_UNIT ( ) SI_UNIT ( $, .RADIAN. ) );
#73 = PRESENTATION_LAYER_ASSIGNMENT (  '', '', ( #298 ) ) ;
#74 = ORIENTED_EDGE ( 'NONE', *, *, #102, .T. ) ;
#75 = ORIENTED_EDGE ( 'NONE', *, *, #131, .F. ) ;
#76 = FACE_OUTER_BOUND ( 'NONE', #167, .T. ) ;
#77 = AXIS2_PLACEMENT_3D ( 'NONE', #127, #171, #42 ) ;
#78 = ORIENTED_EDGE ( 'NONE', *, *, #230, .F. ) ;
#79 = SURFACE_SIDE_STYLE ('',( #151 ) ) ;
#80 = UNCERTAINTY_MEASURE_WITH_UNIT (LENGTH_MEASURE( 1.000000000000000082E-05 ), #177, 'distance_accuracy_value', 'NONE');
#81 = PRESENTATION_LAYER_ASSIGNMENT (  '', '', ( #191 ) ) ;
#82 = LENGTH_MEASURE_WITH_UNIT ( LENGTH_MEASURE( 0.02539999999999999897 ), #299 );
#83 = EDGE_LOOP ( 'NONE', ( #254, #192 ) ) ;
#84 =( CONVERSION_BASED_UNIT ( 'INCH', #108 ) LENGTH_UNIT ( ) NAMED_UNIT ( #34 ) );
#85 = AXIS2_PLACEMENT_3D ( 'NONE', #111, #14, #133 ) ;
#86 = LINE ( 'NONE', #65, #275 ) ;
#87 = SURFACE_STYLE_FILL_AREA ( #282 ) ;
#88 = CLOSED_SHELL ( 'NONE', ( #25, #159, #239, #146 ) ) ;
#89 = CARTESIAN_POINT ( 'NONE',  ( 0.3750000000000001665, 4.000000000000000000, 4.592425496802572986E-17 ) ) ;
#90 = CIRCLE ( 'NONE', #137, 0.3749999999999997780 ) ;
#91 = PRODUCT_RELATED_PRODUCT_CATEGORY ( 'part', '', ( #276 ) ) ;
#92 = CARTESIAN_POINT ( 'NONE',  ( 4.592425496802575451E-17, 0.000000000000000000, 0.3750000000000000555 ) ) ;
#93 = CARTESIAN_POINT ( 'NONE',  ( 1.249799818884882708E-33, 1.000000000000000222, 0.000000000000000000 ) ) ;
#94 = MECHANICAL_DESIGN_GEOMETRIC_PRESENTATION_REPRESENTATION (  '', ( #128 ), #132 ) ;
#95 = SURFACE_STYLE_USAGE ( .BOTH. , #71 ) ;
#96 = FACE_OUTER_BOUND ( 'NONE', #187, .T. ) ;
#97 =( LENGTH_UNIT ( ) NAMED_UNIT ( * ) SI_UNIT ( $, .METRE. ) );
#98 = VERTEX_POINT ( 'NONE', #283 ) ;
#99 = COLOUR_RGB ( '',0.7921568627450980005, 0.8196078431372548767, 0.9333333333333333481 ) ;
#100 =( LENGTH_UNIT ( ) NAMED_UNIT ( * ) SI_UNIT ( $, .METRE. ) );
#101 = ORIENTED_EDGE ( 'NONE', *, *, #217, .F. ) ;
#102 = EDGE_CURVE ( 'NONE', #291, #98, #35, .T. ) ;
#103 = AXIS2_PLACEMENT_3D ( 'NONE', #1, #184, #186 ) ;
#104 =( NAMED_UNIT ( * ) SI_UNIT ( $, .STERADIAN. ) SOLID_ANGLE_UNIT ( ) );
#105 = SURFACE_STYLE_USAGE ( .BOTH. , #79 ) ;
#106 = CARTESIAN_POINT ( 'NONE',  ( 2.449293598294707400E-16, 4.000000000000000000, 0.000000000000000000 ) ) ;
#107 =( CONVERSION_BASED_UNIT ( 'INCH', #144 ) LENGTH_UNIT ( ) NAMED_UNIT ( #53 ) );
#108 = LENGTH_MEASURE_WITH_UNIT ( LENGTH_MEASURE( 0.02539999999999999897 ), #47 );
#109 = AXIS2_PLACEMENT_3D ( 'NONE', #189, #269, #54 ) ;
#110 = CARTESIAN_POINT ( 'NONE',  ( 0.000000000000000000, 0.000000000000000000, 0.000000000000000000 ) ) ;
#111 = CARTESIAN_POINT ( 'NONE',  ( 0.3750000000000000555, 4.000000000000000000, 0.000000000000000000 ) ) ;
#112 = DIRECTION ( 'NONE',  ( -1.000000000000000000, 8.164311994315692567E-17, 0.000000000000000000 ) ) ;
#113 = COLOUR_RGB ( '',1.000000000000000000, 0.000000000000000000, 0.000000000000000000 ) ;
#114 = EDGE_CURVE ( 'NONE', #211, #197, #237, .T. ) ;
#115 = CARTESIAN_POINT ( 'NONE',  ( 0.000000000000000000, 0.000000000000000000, -0.3750000000000000555 ) ) ;
#116 = ORIENTED_EDGE ( 'NONE', *, *, #43, .F. ) ;
#117 = DIRECTION ( 'NONE',  ( -0.000000000000000000, -1.000000000000000000, -0.000000000000000000 ) ) ;
#118 =( CONVERSION_BASED_UNIT ( 'INCH', #290 ) LENGTH_UNIT ( ) NAMED_UNIT ( #27 ) );
#119 = UNCERTAINTY_MEASURE_WITH_UNIT (LENGTH_MEASURE( 1.000000000000000082E-05 ), #84, 'distance_accuracy_value', 'NONE');
#120 =( NAMED_UNIT ( * ) SI_UNIT ( $, .STERADIAN. ) SOLID_ANGLE_UNIT ( ) );
#121 = FILL_AREA_STYLE ('',( #37 ) ) ;
#122 = CARTESIAN_POINT ( 'NONE',  ( 0.000000000000000000, 1.000000000000000222, 0.000000000000000000 ) ) ;
#123 = VECTOR ( 'NONE', #284, 39.37007874015748143 ) ;
#124 = DIMENSIONAL_EXPONENTS ( 1.000000000000000000, 0.000000000000000000, 0.000000000000000000, 0.000000000000000000, 0.000000000000000000, 0.000000000000000000, 0.000000000000000000 ) ;
#125 = SURFACE_SIDE_STYLE ('',( #39 ) ) ;
#126 = CIRCLE ( 'NONE', #40, 0.3750000000000000555 ) ;
#127 = CARTESIAN_POINT ( 'NONE',  ( 0.000000000000000000, 1.000000000000000222, 0.000000000000000000 ) ) ;
#128 = STYLED_ITEM ( 'NONE', ( #195 ), #32 ) ;
#129 = PRESENTATION_STYLE_ASSIGNMENT (( #155 ) ) ;
#130 = DIRECTION ( 'NONE',  ( 0.000000000000000000, 0.000000000000000000, -1.000000000000000000 ) ) ;
#131 = EDGE_CURVE ( 'NONE', #197, #285, #90, .T. ) ;
#132 =( GEOMETRIC_REPRESENTATION_CONTEXT ( 3 ) GLOBAL_UNCERTAINTY_ASSIGNED_CONTEXT ( ( #80 ) ) GLOBAL_UNIT_ASSIGNED_CONTEXT ( ( #177, #255, #232 ) ) REPRESENTATION_CONTEXT ( 'NONE', 'WORKASPACE' ) );
#133 = DIRECTION ( 'NONE',  ( 1.000000000000000000, -8.164311994315692567E-17, 0.000000000000000000 ) ) ;
#134 = SURFACE_STYLE_USAGE ( .BOTH. , #69 ) ;
#135 = CYLINDRICAL_SURFACE ( 'NONE', #103, 0.3749999999999998890 ) ;
#136 = PLANE ( 'NONE',  #176 ) ;
#137 = AXIS2_PLACEMENT_3D ( 'NONE', #106, #204, #304 ) ;
#138 = CARTESIAN_POINT ( 'NONE',  ( -0.3749999999999995004, 4.000000000000000000, 0.000000000000000000 ) ) ;
#139 = CARTESIAN_POINT ( 'NONE',  ( 0.000000000000000000, 1.000000000000000222, 0.000000000000000000 ) ) ;
#140 = EDGE_CURVE ( 'NONE', #294, #285, #303, .T. ) ;
#141 =( LENGTH_UNIT ( ) NAMED_UNIT ( * ) SI_UNIT ( $, .METRE. ) );
#142 = STYLED_ITEM ( 'NONE', ( #129 ), #146 ) ;
#143 =( CONVERSION_BASED_UNIT ( 'INCH', #248 ) LENGTH_UNIT ( ) NAMED_UNIT ( #228 ) );
#144 = LENGTH_MEASURE_WITH_UNIT ( LENGTH_MEASURE( 0.02539999999999999897 ), #97 );
#145 = CARTESIAN_POINT ( 'NONE',  ( 0.000000000000000000, 0.000000000000000000, 0.000000000000000000 ) ) ;
#146 = ADVANCED_FACE ( 'NONE', ( #264 ), #18, .T. ) ;
#147 = UNCERTAINTY_MEASURE_WITH_UNIT (LENGTH_MEASURE( 1.000000000000000082E-05 ), #190, 'distance_accuracy_value', 'NONE');
#148 = AXIS2_PLACEMENT_3D ( 'NONE', #266, #66, #20 ) ;
#149 = SURFACE_STYLE_USAGE ( .BOTH. , #60 ) ;
#150 = ORIENTED_EDGE ( 'NONE', *, *, #172, .T. ) ;
#151 = SURFACE_STYLE_FILL_AREA ( #233 ) ;
#152 = CYLINDRICAL_SURFACE ( 'NONE', #46, 0.3750000000000000555 ) ;
#153 = VECTOR ( 'NONE', #260, 39.37007874015748143 ) ;
#154 = SURFACE_STYLE_FILL_AREA ( #15 ) ;
#155 = SURFACE_STYLE_USAGE ( .BOTH. , #41 ) ;
#156 = EDGE_CURVE ( 'NONE', #291, #174, #86, .T. ) ;
#157 = CIRCLE ( 'NONE', #214, 0.3750000000000000555 ) ;
#158 = PLANE ( 'NONE',  #293 ) ;
#159 = ADVANCED_FACE ( 'NONE', ( #234 ), #158, .T. ) ;
#160 = FILL_AREA_STYLE_COLOUR ( '', #113 ) ;
#161 = FILL_AREA_STYLE ('',( #307 ) ) ;
#162 = ORIENTED_EDGE ( 'NONE', *, *, #156, .T. ) ;
#163 =( NAMED_UNIT ( * ) SI_UNIT ( $, .STERADIAN. ) SOLID_ANGLE_UNIT ( ) );
#164 = MECHANICAL_DESIGN_GEOMETRIC_PRESENTATION_REPRESENTATION (  '', ( #142 ), #301 ) ;
#165 = SURFACE_STYLE_FILL_AREA ( #161 ) ;
#166 = ORIENTED_EDGE ( 'NONE', *, *, #253, .F. ) ;
#167 = EDGE_LOOP ( 'NONE', ( #38, #29, #64, #63 ) ) ;
#168 =( NAMED_UNIT ( * ) PLANE_ANGLE_UNIT ( ) SI_UNIT ( $, .RADIAN. ) );
#169 = ORIENTED_EDGE ( 'NONE', *, *, #156, .F. ) ;
#170 = COLOUR_RGB ( '',1.000000000000000000, 0.000000000000000000, 0.000000000000000000 ) ;
#171 = DIRECTION ( 'NONE',  ( -0.000000000000000000, -1.000000000000000000, -0.000000000000000000 ) ) ;
#172 = EDGE_CURVE ( 'NONE', #211, #294, #263, .T. ) ;
#173 =( NAMED_UNIT ( * ) PLANE_ANGLE_UNIT ( ) SI_UNIT ( $, .RADIAN. ) );
#174 = VERTEX_POINT ( 'NONE', #92 ) ;
#175 = DIRECTION ( 'NONE',  ( -0.000000000000000000, -1.000000000000000000, -0.000000000000000000 ) ) ;
#176 = AXIS2_PLACEMENT_3D ( 'NONE', #93, #50, #112 ) ;
#177 =( CONVERSION_BASED_UNIT ( 'INCH', #82 ) LENGTH_UNIT ( ) NAMED_UNIT ( #30 ) );
#178 = ORIENTED_EDGE ( 'NONE', *, *, #295, .T. ) ;
#179 = PRESENTATION_LAYER_ASSIGNMENT (  '', '', ( #183 ) ) ;
#180 = DIRECTION ( 'NONE',  ( -0.000000000000000000, -1.000000000000000000, -0.000000000000000000 ) ) ;
#181 = DIRECTION ( 'NONE',  ( -0.000000000000000000, -1.000000000000000000, -0.000000000000000000 ) ) ;
#182 = DIRECTION ( 'NONE',  ( 0.000000000000000000, -1.000000000000000000, -0.000000000000000000 ) ) ;
#183 = STYLED_ITEM ( 'NONE', ( #51 ), #239 ) ;
#184 = DIRECTION ( 'NONE',  ( 8.164311994315692567E-17, 1.000000000000000000, -0.000000000000000000 ) ) ;
#185 = AXIS2_PLACEMENT_3D ( 'NONE', #26, #117, #267 ) ;
#186 = DIRECTION ( 'NONE',  ( -1.000000000000000000, 0.000000000000000000, 0.000000000000000000 ) ) ;
#187 = EDGE_LOOP ( 'NONE', ( #169, #74, #194, #101 ) ) ;
#188 = ADVANCED_FACE ( 'NONE', ( #210 ), #136, .F. ) ;
#189 = CARTESIAN_POINT ( 'NONE',  ( 0.000000000000000000, 1.000000000000000222, 0.000000000000000000 ) ) ;
#190 =( CONVERSION_BASED_UNIT ( 'INCH', #245 ) LENGTH_UNIT ( ) NAMED_UNIT ( #124 ) );
#191 = STYLED_ITEM ( 'NONE', ( #271 ), #25 ) ;
#192 = ORIENTED_EDGE ( 'NONE', *, *, #102, .F. ) ;
#193 = CARTESIAN_POINT ( 'NONE',  ( 4.592425496802575451E-17, 1.000000000000000222, 0.3750000000000000555 ) ) ;
#194 = ORIENTED_EDGE ( 'NONE', *, *, #230, .T. ) ;
#195 = PRESENTATION_STYLE_ASSIGNMENT (( #149 ) ) ;
#196 = APPLICATION_CONTEXT ( 'automotive_design' ) ;
#197 = VERTEX_POINT ( 'NONE', #138 ) ;
#198 = ADVANCED_FACE ( 'NONE', ( #76 ), #24, .T. ) ;
#199 = AXIS2_PLACEMENT_3D ( 'NONE', #110, #182, #281 ) ;
#200 =( NAMED_UNIT ( * ) PLANE_ANGLE_UNIT ( ) SI_UNIT ( $, .RADIAN. ) );
#201 = DIRECTION ( 'NONE',  ( -0.000000000000000000, -1.000000000000000000, -0.000000000000000000 ) ) ;
#202 = COLOUR_RGB ( '',1.000000000000000000, 0.000000000000000000, 0.000000000000000000 ) ;
#203 =( NAMED_UNIT ( * ) SI_UNIT ( $, .STERADIAN. ) SOLID_ANGLE_UNIT ( ) );
#204 = DIRECTION ( 'NONE',  ( 8.164311994315692567E-17, 1.000000000000000000, -0.000000000000000000 ) ) ;
#205 = DIRECTION ( 'NONE',  ( 0.000000000000000000, 0.000000000000000000, -1.000000000000000000 ) ) ;
#206 = CIRCLE ( 'NONE', #61, 0.3749999999999997780 ) ;
#207 = APPLICATION_PROTOCOL_DEFINITION ( 'draft international standard', 'automotive_design', 1998, #256 ) ;
#208 = CARTESIAN_POINT ( 'NONE',  ( 2.449293598294707400E-16, 4.000000000000000000, 0.000000000000000000 ) ) ;
#209 = ADVANCED_FACE ( 'NONE', ( #305 ), #135, .T. ) ;
#210 = FACE_OUTER_BOUND ( 'NONE', #268, .T. ) ;
#211 = VERTEX_POINT ( 'NONE', #243 ) ;
#212 = PRODUCT_DEFINITION_FORMATION_WITH_SPECIFIED_SOURCE ( 'ANY', '', #276, .NOT_KNOWN. ) ;
#213 = COLOUR_RGB ( '',1.000000000000000000, 0.000000000000000000, 0.000000000000000000 ) ;
#214 = AXIS2_PLACEMENT_3D ( 'NONE', #145, #201, #238 ) ;
#215 = DIRECTION ( 'NONE',  ( 8.164311994315692567E-17, 1.000000000000000000, -0.000000000000000000 ) ) ;
#216 = DIRECTION ( 'NONE',  ( 0.000000000000000000, -0.000000000000000000, 1.000000000000000000 ) ) ;
#217 = EDGE_CURVE ( 'NONE', #174, #257, #252, .T. ) ;
#218 = DIRECTION ( 'NONE',  ( -1.000000000000000000, 0.000000000000000000, 0.000000000000000000 ) ) ;
#219 = FACE_OUTER_BOUND ( 'NONE', #52, .T. ) ;
#220 = CARTESIAN_POINT ( 'NONE',  ( 0.000000000000000000, 0.000000000000000000, 0.000000000000000000 ) ) ;
#221 = COLOUR_RGB ( '',0.7921568627450980005, 0.8196078431372548767, 0.9333333333333333481 ) ;
#222 = MECHANICAL_DESIGN_GEOMETRIC_PRESENTATION_REPRESENTATION (  '', ( #279 ), #235 ) ;
#223 = UNCERTAINTY_MEASURE_WITH_UNIT (LENGTH_MEASURE( 1.000000000000000082E-05 ), #143, 'distance_accuracy_value', 'NONE');
#224 =( CONVERSION_BASED_UNIT ( 'INCH', #225 ) LENGTH_UNIT ( ) NAMED_UNIT ( #3 ) );
#225 = LENGTH_MEASURE_WITH_UNIT ( LENGTH_MEASURE( 0.02539999999999999897 ), #100 );
#226 = MECHANICAL_DESIGN_GEOMETRIC_PRESENTATION_REPRESENTATION (  '', ( #191 ), #55 ) ;
#227 = AXIS2_PLACEMENT_3D ( 'NONE', #262, #181, #205 ) ;
#228 = DIMENSIONAL_EXPONENTS ( 1.000000000000000000, 0.000000000000000000, 0.000000000000000000, 0.000000000000000000, 0.000000000000000000, 0.000000000000000000, 0.000000000000000000 ) ;
#229 =( NAMED_UNIT ( * ) PLANE_ANGLE_UNIT ( ) SI_UNIT ( $, .RADIAN. ) );
#230 = EDGE_CURVE ( 'NONE', #98, #257, #22, .T. ) ;
#231 = UNCERTAINTY_MEASURE_WITH_UNIT (LENGTH_MEASURE( 1.000000000000000082E-05 ), #224, 'distance_accuracy_value', 'NONE');
#232 =( NAMED_UNIT ( * ) SI_UNIT ( $, .STERADIAN. ) SOLID_ANGLE_UNIT ( ) );
#233 = FILL_AREA_STYLE ('',( #278 ) ) ;
#234 = FACE_OUTER_BOUND ( 'NONE', #83, .T. ) ;
#235 =( GEOMETRIC_REPRESENTATION_CONTEXT ( 3 ) GLOBAL_UNCERTAINTY_ASSIGNED_CONTEXT ( ( #223 ) ) GLOBAL_UNIT_ASSIGNED_CONTEXT ( ( #143, #168, #120 ) ) REPRESENTATION_CONTEXT ( 'NONE', 'WORKASPACE' ) );
#236 = SHAPE_DEFINITION_REPRESENTATION ( #4, #265 ) ;
#237 = LINE ( 'NONE', #17, #153 ) ;
#238 = DIRECTION ( 'NONE',  ( 0.000000000000000000, 0.000000000000000000, -1.000000000000000000 ) ) ;
#239 = ADVANCED_FACE ( 'NONE', ( #96 ), #288, .T. ) ;
#240 = PRESENTATION_STYLE_ASSIGNMENT (( #134 ) ) ;
#241 = PRODUCT_CONTEXT ( 'NONE', #196, 'mechanical' ) ;
#242 = PRESENTATION_LAYER_ASSIGNMENT (  '', '', ( #128 ) ) ;
#243 = CARTESIAN_POINT ( 'NONE',  ( -0.3750000000000000555, 1.000000000000000222, 0.000000000000000000 ) ) ;
#244 = MANIFOLD_SOLID_BREP ( 'Revolve - Tool Body (Straight Shanked)', #68 ) ;
#245 = LENGTH_MEASURE_WITH_UNIT ( LENGTH_MEASURE( 0.02539999999999999897 ), #48 );
#246 = EDGE_LOOP ( 'NONE', ( #12, #297 ) ) ;
#247 = DIRECTION ( 'NONE',  ( -0.000000000000000000, -1.000000000000000000, -0.000000000000000000 ) ) ;
#248 = LENGTH_MEASURE_WITH_UNIT ( LENGTH_MEASURE( 0.02539999999999999897 ), #8 );
#249 = FILL_AREA_STYLE_COLOUR ( '', #221 ) ;
#250 =( GEOMETRIC_REPRESENTATION_CONTEXT ( 3 ) GLOBAL_UNCERTAINTY_ASSIGNED_CONTEXT ( ( #300 ) ) GLOBAL_UNIT_ASSIGNED_CONTEXT ( ( #107, #272, #57 ) ) REPRESENTATION_CONTEXT ( 'NONE', 'WORKASPACE' ) );
#251 = SURFACE_STYLE_USAGE ( .BOTH. , #125 ) ;
#252 = CIRCLE ( 'NONE', #185, 0.3750000000000000555 ) ;
#253 = EDGE_CURVE ( 'NONE', #294, #211, #126, .T. ) ;
#254 = ORIENTED_EDGE ( 'NONE', *, *, #295, .F. ) ;
#255 =( NAMED_UNIT ( * ) PLANE_ANGLE_UNIT ( ) SI_UNIT ( $, .RADIAN. ) );
#256 = APPLICATION_CONTEXT ( 'automotive_design' ) ;
#257 = VERTEX_POINT ( 'NONE', #261 ) ;
#258 = PRESENTATION_LAYER_ASSIGNMENT (  '', '', ( #142 ) ) ;
#259 = DIRECTION ( 'NONE',  ( -1.000000000000000000, 0.000000000000000000, 0.000000000000000000 ) ) ;
#260 = DIRECTION ( 'NONE',  ( 8.164311994315692567E-17, 1.000000000000000000, -0.000000000000000000 ) ) ;
#261 = CARTESIAN_POINT ( 'NONE',  ( 0.000000000000000000, 0.000000000000000000, -0.3750000000000000555 ) ) ;
#262 = CARTESIAN_POINT ( 'NONE',  ( 0.000000000000000000, 1.000000000000000222, 0.000000000000000000 ) ) ;
#263 = CIRCLE ( 'NONE', #109, 0.3750000000000000555 ) ;
#264 = FACE_OUTER_BOUND ( 'NONE', #246, .T. ) ;
#265 = ADVANCED_BREP_SHAPE_REPRESENTATION ( '01645', ( #32, #244, #148 ), #250 ) ;
#266 = CARTESIAN_POINT ( 'NONE',  ( 0.000000000000000000, 0.000000000000000000, 0.000000000000000000 ) ) ;
#267 = DIRECTION ( 'NONE',  ( 0.000000000000000000, 0.000000000000000000, -1.000000000000000000 ) ) ;
#268 = EDGE_LOOP ( 'NONE', ( #270, #166 ) ) ;
#269 = DIRECTION ( 'NONE',  ( 8.164311994315692567E-17, 1.000000000000000000, -0.000000000000000000 ) ) ;
#270 = ORIENTED_EDGE ( 'NONE', *, *, #172, .F. ) ;
#271 = PRESENTATION_STYLE_ASSIGNMENT (( #251 ) ) ;
#272 =( NAMED_UNIT ( * ) PLANE_ANGLE_UNIT ( ) SI_UNIT ( $, .RADIAN. ) );
#273 = SURFACE_STYLE_FILL_AREA ( #296 ) ;
#274 = EDGE_CURVE ( 'NONE', #285, #197, #206, .T. ) ;
#275 = VECTOR ( 'NONE', #180, 39.37007874015748143 ) ;
#276 = PRODUCT ( '01645', '01645', '', ( #241 ) ) ;
#277 = ORIENTED_EDGE ( 'NONE', *, *, #114, .F. ) ;
#278 = FILL_AREA_STYLE_COLOUR ( '', #99 ) ;
#279 = STYLED_ITEM ( 'NONE', ( #13 ), #244 ) ;
#280 = APPLICATION_PROTOCOL_DEFINITION ( 'draft international standard', 'automotive_design', 1998, #196 ) ;
#281 = DIRECTION ( 'NONE',  ( 0.000000000000000000, 0.000000000000000000, -1.000000000000000000 ) ) ;
#282 = FILL_AREA_STYLE ('',( #302 ) ) ;
#283 = CARTESIAN_POINT ( 'NONE',  ( 0.000000000000000000, 1.000000000000000222, -0.3750000000000000555 ) ) ;
#284 = DIRECTION ( 'NONE',  ( -0.000000000000000000, -1.000000000000000000, -0.000000000000000000 ) ) ;
#285 = VERTEX_POINT ( 'NONE', #5 ) ;
#286 = VECTOR ( 'NONE', #70, 39.37007874015748143 ) ;
#287 = PRESENTATION_LAYER_ASSIGNMENT (  '', '', ( #279 ) ) ;
#288 = CYLINDRICAL_SURFACE ( 'NONE', #49, 0.3750000000000000555 ) ;
#289 = EDGE_LOOP ( 'NONE', ( #150, #306, #75, #277 ) ) ;
#290 = LENGTH_MEASURE_WITH_UNIT ( LENGTH_MEASURE( 0.02539999999999999897 ), #141 );
#291 = VERTEX_POINT ( 'NONE', #193 ) ;
#292 = PRODUCT_DEFINITION ( 'UNKNOWN', '', #212, #62 ) ;
#293 = AXIS2_PLACEMENT_3D ( 'NONE', #139, #21, #216 ) ;
#294 = VERTEX_POINT ( 'NONE', #31 ) ;
#295 = EDGE_CURVE ( 'NONE', #98, #291, #67, .T. ) ;
#296 = FILL_AREA_STYLE ('',( #249 ) ) ;
#297 = ORIENTED_EDGE ( 'NONE', *, *, #217, .T. ) ;
#298 = STYLED_ITEM ( 'NONE', ( #240 ), #159 ) ;
#299 =( LENGTH_UNIT ( ) NAMED_UNIT ( * ) SI_UNIT ( $, .METRE. ) );
#300 = UNCERTAINTY_MEASURE_WITH_UNIT (LENGTH_MEASURE( 1.000000000000000082E-05 ), #107, 'distance_accuracy_value', 'NONE');
#301 =( GEOMETRIC_REPRESENTATION_CONTEXT ( 3 ) GLOBAL_UNCERTAINTY_ASSIGNED_CONTEXT ( ( #119 ) ) GLOBAL_UNIT_ASSIGNED_CONTEXT ( ( #84, #200, #203 ) ) REPRESENTATION_CONTEXT ( 'NONE', 'WORKASPACE' ) );
#302 = FILL_AREA_STYLE_COLOUR ( '', #202 ) ;
#303 = LINE ( 'NONE', #89, #286 ) ;
#304 = DIRECTION ( 'NONE',  ( -1.000000000000000000, 0.000000000000000000, 0.000000000000000000 ) ) ;
#305 = FACE_OUTER_BOUND ( 'NONE', #289, .T. ) ;
#306 = ORIENTED_EDGE ( 'NONE', *, *, #140, .T. ) ;
#307 = FILL_AREA_STYLE_COLOUR ( '', #170 ) ;
#308 = ORIENTED_EDGE ( 'NONE', *, *, #274, .T. ) ;
#309 =( GEOMETRIC_REPRESENTATION_CONTEXT ( 3 ) GLOBAL_UNCERTAINTY_ASSIGNED_CONTEXT ( ( #147 ) ) GLOBAL_UNIT_ASSIGNED_CONTEXT ( ( #190, #72, #163 ) ) REPRESENTATION_CONTEXT ( 'NONE', 'WORKASPACE' ) );
ENDSEC;
END-ISO-10303-21;
