ISO-10303-21;
HEADER;
FILE_DESCRIPTION (( 'STEP AP214' ),
    '1' );
FILE_NAME ('83524.STEP',
    '2023-06-23T10:34:12',
    ( '' ),
    ( '' ),
    'SwSTEP 2.0',
    'SolidWorks 2023',
    '' );
FILE_SCHEMA (( 'AUTOMOTIVE_DESIGN' ));
ENDSEC;

DATA;
#1 = ORIENTED_EDGE ( 'NONE', *, *, #48, .T. ) ;
#2 = CARTESIAN_POINT ( 'NONE',  ( 0.000000000000000000, 0.000000000000000000, 0.000000000000000000 ) ) ;
#3 = STYLED_ITEM ( 'NONE', ( #106 ), #69 ) ;
#4 = EDGE_LOOP ( 'NONE', ( #45, #211, #255, #287 ) ) ;
#5 =( NAMED_UNIT ( * ) PLANE_ANGLE_UNIT ( ) SI_UNIT ( $, .RADIAN. ) );
#6 = CIRCLE ( 'NONE', #102, 0.1250000000000001943 ) ;
#7 = DIRECTION ( 'NONE',  ( -0.000000000000000000, -1.000000000000000000, -0.000000000000000000 ) ) ;
#8 = FACE_OUTER_BOUND ( 'NONE', #113, .T. ) ;
#9 = DIRECTION ( 'NONE',  ( -1.000000000000000000, 0.000000000000000000, 0.000000000000000000 ) ) ;
#10 = PRODUCT_RELATED_PRODUCT_CATEGORY ( 'part', '', ( #119 ) ) ;
#11 =( GEOMETRIC_REPRESENTATION_CONTEXT ( 3 ) GLOBAL_UNCERTAINTY_ASSIGNED_CONTEXT ( ( #261 ) ) GLOBAL_UNIT_ASSIGNED_CONTEXT ( ( #130, #86, #95 ) ) REPRESENTATION_CONTEXT ( 'NONE', 'WORKASPACE' ) );
#12 = PRESENTATION_STYLE_ASSIGNMENT (( #276 ) ) ;
#13 = DIRECTION ( 'NONE',  ( -0.000000000000000000, -1.000000000000000000, -0.000000000000000000 ) ) ;
#14 = EDGE_CURVE ( 'NONE', #41, #89, #162, .T. ) ;
#15 =( LENGTH_UNIT ( ) NAMED_UNIT ( * ) SI_UNIT ( $, .METRE. ) );
#16 = ADVANCED_BREP_SHAPE_REPRESENTATION ( '83524', ( #69, #171, #260 ), #291 ) ;
#17 = SURFACE_STYLE_FILL_AREA ( #279 ) ;
#18 = DIMENSIONAL_EXPONENTS ( 1.000000000000000000, 0.000000000000000000, 0.000000000000000000, 0.000000000000000000, 0.000000000000000000, 0.000000000000000000, 0.000000000000000000 ) ;
#19 = AXIS2_PLACEMENT_3D ( 'NONE', #84, #288, #297 ) ;
#20 = CARTESIAN_POINT ( 'NONE',  ( 0.1249999999999999167, 4.000000000000000000, 1.530808498934192742E-17 ) ) ;
#21 = UNCERTAINTY_MEASURE_WITH_UNIT (LENGTH_MEASURE( 1.000000000000000082E-05 ), #111, 'distance_accuracy_value', 'NONE');
#22 = VERTEX_POINT ( 'NONE', #135 ) ;
#23 = COLOUR_RGB ( '',1.000000000000000000, 0.000000000000000000, 0.000000000000000000 ) ;
#24 = EDGE_CURVE ( 'NONE', #308, #89, #6, .T. ) ;
#25 = AXIS2_PLACEMENT_3D ( 'NONE', #282, #283, #62 ) ;
#26 = ORIENTED_EDGE ( 'NONE', *, *, #166, .F. ) ;
#27 = PLANE ( 'NONE',  #210 ) ;
#28 = CARTESIAN_POINT ( 'NONE',  ( 0.000000000000000000, 1.750000000000000000, -0.1250000000000000000 ) ) ;
#29 = CIRCLE ( 'NONE', #19, 0.1250000000000000000 ) ;
#30 = DIRECTION ( 'NONE',  ( 0.000000000000000000, 0.000000000000000000, -1.000000000000000000 ) ) ;
#31 = PLANE ( 'NONE',  #209 ) ;
#32 =( NAMED_UNIT ( * ) PLANE_ANGLE_UNIT ( ) SI_UNIT ( $, .RADIAN. ) );
#33 = FILL_AREA_STYLE ('',( #36 ) ) ;
#34 = MECHANICAL_DESIGN_GEOMETRIC_PRESENTATION_REPRESENTATION (  '', ( #197 ), #112 ) ;
#35 = MECHANICAL_DESIGN_GEOMETRIC_PRESENTATION_REPRESENTATION (  '', ( #64 ), #241 ) ;
#36 = FILL_AREA_STYLE_COLOUR ( '', #155 ) ;
#37 = LENGTH_MEASURE_WITH_UNIT ( LENGTH_MEASURE( 0.02539999999999999897 ), #15 );
#38 = PRESENTATION_LAYER_ASSIGNMENT (  '', '', ( #64 ) ) ;
#39 = DIRECTION ( 'NONE',  ( 0.000000000000000000, 0.000000000000000000, -1.000000000000000000 ) ) ;
#40 =( NAMED_UNIT ( * ) SI_UNIT ( $, .STERADIAN. ) SOLID_ANGLE_UNIT ( ) );
#41 = VERTEX_POINT ( 'NONE', #243 ) ;
#42 = DIRECTION ( 'NONE',  ( 0.000000000000000000, 0.000000000000000000, -1.000000000000000000 ) ) ;
#43 = PRESENTATION_LAYER_ASSIGNMENT (  '', '', ( #222 ) ) ;
#44 = PRESENTATION_LAYER_ASSIGNMENT (  '', '', ( #3 ) ) ;
#45 = ORIENTED_EDGE ( 'NONE', *, *, #277, .T. ) ;
#46 =( NAMED_UNIT ( * ) SI_UNIT ( $, .STERADIAN. ) SOLID_ANGLE_UNIT ( ) );
#47 = ORIENTED_EDGE ( 'NONE', *, *, #205, .T. ) ;
#48 = EDGE_CURVE ( 'NONE', #236, #308, #127, .T. ) ;
#49 = ORIENTED_EDGE ( 'NONE', *, *, #284, .T. ) ;
#50 = LENGTH_MEASURE_WITH_UNIT ( LENGTH_MEASURE( 0.02539999999999999897 ), #181 );
#51 =( CONVERSION_BASED_UNIT ( 'INCH', #239 ) LENGTH_UNIT ( ) NAMED_UNIT ( #18 ) );
#52 = PLANE ( 'NONE',  #87 ) ;
#53 = FACE_OUTER_BOUND ( 'NONE', #306, .T. ) ;
#54 = APPLICATION_PROTOCOL_DEFINITION ( 'draft international standard', 'automotive_design', 1998, #307 ) ;
#55 = FACE_OUTER_BOUND ( 'NONE', #110, .T. ) ;
#56 = SURFACE_SIDE_STYLE ('',( #80 ) ) ;
#57 = CARTESIAN_POINT ( 'NONE',  ( 0.000000000000000000, 1.750000000000000000, 0.000000000000000000 ) ) ;
#58 = AXIS2_PLACEMENT_3D ( 'NONE', #90, #289, #39 ) ;
#59 =( NAMED_UNIT ( * ) PLANE_ANGLE_UNIT ( ) SI_UNIT ( $, .RADIAN. ) );
#60 = SURFACE_STYLE_USAGE ( .BOTH. , #104 ) ;
#61 = DIRECTION ( 'NONE',  ( -1.000000000000000000, 0.000000000000000000, 0.000000000000000000 ) ) ;
#62 = DIRECTION ( 'NONE',  ( 0.000000000000000000, 0.000000000000000000, -1.000000000000000000 ) ) ;
#63 = FILL_AREA_STYLE_COLOUR ( '', #129 ) ;
#64 = STYLED_ITEM ( 'NONE', ( #234 ), #300 ) ;
#65 = SURFACE_SIDE_STYLE ('',( #249 ) ) ;
#66 = ORIENTED_EDGE ( 'NONE', *, *, #216, .T. ) ;
#67 = FACE_OUTER_BOUND ( 'NONE', #70, .T. ) ;
#68 =( GEOMETRIC_REPRESENTATION_CONTEXT ( 3 ) GLOBAL_UNCERTAINTY_ASSIGNED_CONTEXT ( ( #189 ) ) GLOBAL_UNIT_ASSIGNED_CONTEXT ( ( #51, #32, #278 ) ) REPRESENTATION_CONTEXT ( 'NONE', 'WORKASPACE' ) );
#69 = MANIFOLD_SOLID_BREP ( 'Revolve - Cutting Edge', #208 ) ;
#70 = EDGE_LOOP ( 'NONE', ( #259, #186 ) ) ;
#71 = DIRECTION ( 'NONE',  ( 1.000000000000000000, 0.000000000000000000, 0.000000000000000000 ) ) ;
#72 =( NAMED_UNIT ( * ) SI_UNIT ( $, .STERADIAN. ) SOLID_ANGLE_UNIT ( ) );
#73 = DIRECTION ( 'NONE',  ( -8.164311994315687637E-17, 1.000000000000000000, 0.000000000000000000 ) ) ;
#74 = PRODUCT_DEFINITION_SHAPE ( 'NONE', 'NONE',  #81 ) ;
#75 = DIRECTION ( 'NONE',  ( -8.164311994315687637E-17, 1.000000000000000000, -0.000000000000000000 ) ) ;
#76 = UNCERTAINTY_MEASURE_WITH_UNIT (LENGTH_MEASURE( 1.000000000000000082E-05 ), #82, 'distance_accuracy_value', 'NONE');
#77 = CARTESIAN_POINT ( 'NONE',  ( 0.1250000000000000000, 4.000000000000000000, 0.000000000000000000 ) ) ;
#78 = FILL_AREA_STYLE_COLOUR ( '', #172 ) ;
#79 = CIRCLE ( 'NONE', #250, 0.1250000000000000000 ) ;
#80 = SURFACE_STYLE_FILL_AREA ( #33 ) ;
#81 = PRODUCT_DEFINITION ( 'UNKNOWN', '', #258, #274 ) ;
#82 =( CONVERSION_BASED_UNIT ( 'INCH', #302 ) LENGTH_UNIT ( ) NAMED_UNIT ( #231 ) );
#83 = SHAPE_DEFINITION_REPRESENTATION ( #74, #16 ) ;
#84 = CARTESIAN_POINT ( 'NONE',  ( 0.000000000000000000, 1.750000000000000000, 0.000000000000000000 ) ) ;
#85 = AXIS2_PLACEMENT_3D ( 'NONE', #177, #246, #61 ) ;
#86 =( NAMED_UNIT ( * ) PLANE_ANGLE_UNIT ( ) SI_UNIT ( $, .RADIAN. ) );
#87 = AXIS2_PLACEMENT_3D ( 'NONE', #196, #219, #144 ) ;
#88 = LENGTH_MEASURE_WITH_UNIT ( LENGTH_MEASURE( 0.02539999999999999897 ), #247 );
#89 = VERTEX_POINT ( 'NONE', #285 ) ;
#90 = CARTESIAN_POINT ( 'NONE',  ( 0.000000000000000000, 0.000000000000000000, 0.000000000000000000 ) ) ;
#91 = ORIENTED_EDGE ( 'NONE', *, *, #166, .T. ) ;
#92 = ORIENTED_EDGE ( 'NONE', *, *, #14, .F. ) ;
#93 = DIRECTION ( 'NONE',  ( 0.000000000000000000, 0.000000000000000000, 1.000000000000000000 ) ) ;
#94 = UNCERTAINTY_MEASURE_WITH_UNIT (LENGTH_MEASURE( 1.000000000000000082E-05 ), #252, 'distance_accuracy_value', 'NONE');
#95 =( NAMED_UNIT ( * ) SI_UNIT ( $, .STERADIAN. ) SOLID_ANGLE_UNIT ( ) );
#96 = CIRCLE ( 'NONE', #273, 0.1250000000000000000 ) ;
#97 = ORIENTED_EDGE ( 'NONE', *, *, #180, .F. ) ;
#98 = PLANE ( 'NONE',  #304 ) ;
#99 = DIRECTION ( 'NONE',  ( -1.000000000000000000, 0.000000000000000000, 0.000000000000000000 ) ) ;
#100 = DIRECTION ( 'NONE',  ( -1.000000000000000000, 0.000000000000000000, 0.000000000000000000 ) ) ;
#101 = DIRECTION ( 'NONE',  ( 1.000000000000000000, 8.164311994315687637E-17, 0.000000000000000000 ) ) ;
#102 = AXIS2_PLACEMENT_3D ( 'NONE', #201, #193, #99 ) ;
#103 = LINE ( 'NONE', #242, #105 ) ;
#104 = SURFACE_SIDE_STYLE ('',( #17 ) ) ;
#105 = VECTOR ( 'NONE', #199, 39.37007874015748143 ) ;
#106 = PRESENTATION_STYLE_ASSIGNMENT (( #60 ) ) ;
#107 = DIRECTION ( 'NONE',  ( -1.000000000000000000, 0.000000000000000000, 0.000000000000000000 ) ) ;
#108 = ADVANCED_FACE ( 'NONE', ( #109 ), #151, .T. ) ;
#109 = FACE_OUTER_BOUND ( 'NONE', #165, .T. ) ;
#110 = EDGE_LOOP ( 'NONE', ( #117, #47 ) ) ;
#111 =( CONVERSION_BASED_UNIT ( 'INCH', #269 ) LENGTH_UNIT ( ) NAMED_UNIT ( #235 ) );
#112 =( GEOMETRIC_REPRESENTATION_CONTEXT ( 3 ) GLOBAL_UNCERTAINTY_ASSIGNED_CONTEXT ( ( #267 ) ) GLOBAL_UNIT_ASSIGNED_CONTEXT ( ( #254, #59, #40 ) ) REPRESENTATION_CONTEXT ( 'NONE', 'WORKASPACE' ) );
#113 = EDGE_LOOP ( 'NONE', ( #26, #264, #183, #116 ) ) ;
#114 = ORIENTED_EDGE ( 'NONE', *, *, #284, .F. ) ;
#115 =( NAMED_UNIT ( * ) PLANE_ANGLE_UNIT ( ) SI_UNIT ( $, .RADIAN. ) );
#116 = ORIENTED_EDGE ( 'NONE', *, *, #220, .F. ) ;
#117 = ORIENTED_EDGE ( 'NONE', *, *, #24, .T. ) ;
#118 = DIRECTION ( 'NONE',  ( 0.000000000000000000, -1.000000000000000000, -0.000000000000000000 ) ) ;
#119 = PRODUCT ( '83524', '83524', '', ( #136 ) ) ;
#120 = SURFACE_SIDE_STYLE ('',( #240 ) ) ;
#121 = UNCERTAINTY_MEASURE_WITH_UNIT (LENGTH_MEASURE( 1.000000000000000082E-05 ), #138, 'distance_accuracy_value', 'NONE');
#122 = DIRECTION ( 'NONE',  ( -1.000000000000000000, -8.164311994315687637E-17, 0.000000000000000000 ) ) ;
#123 = PRESENTATION_STYLE_ASSIGNMENT (( #298 ) ) ;
#124 = CARTESIAN_POINT ( 'NONE',  ( -0.1250000000000000000, 1.750000000000000000, 0.000000000000000000 ) ) ;
#125 = CIRCLE ( 'NONE', #168, 0.1250000000000000000 ) ;
#126 = CARTESIAN_POINT ( 'NONE',  ( 0.000000000000000000, 0.000000000000000000, -0.1250000000000000000 ) ) ;
#127 = LINE ( 'NONE', #150, #244 ) ;
#128 = SURFACE_STYLE_USAGE ( .BOTH. , #65 ) ;
#129 = COLOUR_RGB ( '',1.000000000000000000, 0.000000000000000000, 0.000000000000000000 ) ;
#130 =( CONVERSION_BASED_UNIT ( 'INCH', #37 ) LENGTH_UNIT ( ) NAMED_UNIT ( #233 ) );
#131 = ADVANCED_FACE ( 'NONE', ( #158 ), #167, .T. ) ;
#132 =( LENGTH_UNIT ( ) NAMED_UNIT ( * ) SI_UNIT ( $, .METRE. ) );
#133 = PRESENTATION_LAYER_ASSIGNMENT (  '', '', ( #237 ) ) ;
#134 = VERTEX_POINT ( 'NONE', #170 ) ;
#135 = CARTESIAN_POINT ( 'NONE',  ( 1.530808498934191509E-17, 1.750000000000000000, 0.1250000000000000000 ) ) ;
#136 = PRODUCT_CONTEXT ( 'NONE', #238, 'mechanical' ) ;
#137 = EDGE_LOOP ( 'NONE', ( #92, #49, #1, #232 ) ) ;
#138 =( CONVERSION_BASED_UNIT ( 'INCH', #50 ) LENGTH_UNIT ( ) NAMED_UNIT ( #190 ) );
#139 = EDGE_CURVE ( 'NONE', #22, #182, #29, .T. ) ;
#140 = CARTESIAN_POINT ( 'NONE',  ( -1.836970198721029688E-16, 4.000000000000000000, 0.000000000000000000 ) ) ;
#141 = FILL_AREA_STYLE ('',( #78 ) ) ;
#142 = CARTESIAN_POINT ( 'NONE',  ( 4.165999396282937514E-34, 1.750000000000000000, 0.000000000000000000 ) ) ;
#143 = MECHANICAL_DESIGN_GEOMETRIC_PRESENTATION_REPRESENTATION (  '', ( #237 ), #303 ) ;
#144 = DIRECTION ( 'NONE',  ( 0.000000000000000000, -0.000000000000000000, 1.000000000000000000 ) ) ;
#145 =( LENGTH_UNIT ( ) NAMED_UNIT ( * ) SI_UNIT ( $, .METRE. ) );
#146 = DIRECTION ( 'NONE',  ( -0.000000000000000000, -1.000000000000000000, -0.000000000000000000 ) ) ;
#147 =( LENGTH_UNIT ( ) NAMED_UNIT ( * ) SI_UNIT ( $, .METRE. ) );
#148 = FACE_OUTER_BOUND ( 'NONE', #4, .T. ) ;
#149 = MECHANICAL_DESIGN_GEOMETRIC_PRESENTATION_REPRESENTATION (  '', ( #222 ), #11 ) ;
#150 = CARTESIAN_POINT ( 'NONE',  ( -0.1250000000000002776, 4.000000000000000000, 0.000000000000000000 ) ) ;
#151 = CYLINDRICAL_SURFACE ( 'NONE', #58, 0.1250000000000000000 ) ;
#152 = CYLINDRICAL_SURFACE ( 'NONE', #85, 0.1250000000000001110 ) ;
#153 = CARTESIAN_POINT ( 'NONE',  ( 0.000000000000000000, 1.750000000000000000, 0.000000000000000000 ) ) ;
#154 = ADVANCED_FACE ( 'NONE', ( #148 ), #152, .T. ) ;
#155 = COLOUR_RGB ( '',1.000000000000000000, 0.000000000000000000, 0.000000000000000000 ) ;
#156 = LENGTH_MEASURE_WITH_UNIT ( LENGTH_MEASURE( 0.02539999999999999897 ), #251 );
#157 = DIRECTION ( 'NONE',  ( -8.164311994315687637E-17, 1.000000000000000000, -0.000000000000000000 ) ) ;
#158 = FACE_OUTER_BOUND ( 'NONE', #137, .T. ) ;
#159 = ORIENTED_EDGE ( 'NONE', *, *, #277, .F. ) ;
#160 = ORIENTED_EDGE ( 'NONE', *, *, #139, .F. ) ;
#161 = STYLED_ITEM ( 'NONE', ( #123 ), #175 ) ;
#162 = LINE ( 'NONE', #20, #178 ) ;
#163 = CARTESIAN_POINT ( 'NONE',  ( -1.836970198721029688E-16, 4.000000000000000000, 0.000000000000000000 ) ) ;
#164 = FILL_AREA_STYLE_COLOUR ( '', #198 ) ;
#165 = EDGE_LOOP ( 'NONE', ( #66, #91, #204, #97 ) ) ;
#166 = EDGE_CURVE ( 'NONE', #22, #134, #248, .T. ) ;
#167 = CYLINDRICAL_SURFACE ( 'NONE', #203, 0.1250000000000001110 ) ;
#168 = AXIS2_PLACEMENT_3D ( 'NONE', #224, #299, #191 ) ;
#169 = CARTESIAN_POINT ( 'NONE',  ( 0.000000000000000000, 1.750000000000000000, 0.000000000000000000 ) ) ;
#170 = CARTESIAN_POINT ( 'NONE',  ( 1.530808498934191509E-17, 0.000000000000000000, 0.1250000000000000000 ) ) ;
#171 = MANIFOLD_SOLID_BREP ( 'Revolve - Tool Body (Straight Shanked)', #230 ) ;
#172 = COLOUR_RGB ( '',0.7921568627450980005, 0.8196078431372548767, 0.9333333333333333481 ) ;
#173 = SURFACE_STYLE_USAGE ( .BOTH. , #120 ) ;
#174 = SURFACE_SIDE_STYLE ('',( #221 ) ) ;
#175 = ADVANCED_FACE ( 'NONE', ( #53 ), #52, .T. ) ;
#176 = FILL_AREA_STYLE_COLOUR ( '', #257 ) ;
#177 = CARTESIAN_POINT ( 'NONE',  ( -1.836970198721029688E-16, 4.000000000000000000, 0.000000000000000000 ) ) ;
#178 = VECTOR ( 'NONE', #263, 39.37007874015748143 ) ;
#179 =( NAMED_UNIT ( * ) PLANE_ANGLE_UNIT ( ) SI_UNIT ( $, .RADIAN. ) );
#180 = EDGE_CURVE ( 'NONE', #182, #207, #103, .T. ) ;
#181 =( LENGTH_UNIT ( ) NAMED_UNIT ( * ) SI_UNIT ( $, .METRE. ) );
#182 = VERTEX_POINT ( 'NONE', #28 ) ;
#183 = ORIENTED_EDGE ( 'NONE', *, *, #180, .T. ) ;
#184 = AXIS2_PLACEMENT_3D ( 'NONE', #272, #146, #214 ) ;
#185 = APPLICATION_PROTOCOL_DEFINITION ( 'draft international standard', 'automotive_design', 1998, #238 ) ;
#186 = ORIENTED_EDGE ( 'NONE', *, *, #220, .T. ) ;
#187 = DIRECTION ( 'NONE',  ( -8.164311994315687637E-17, 1.000000000000000000, -0.000000000000000000 ) ) ;
#188 = EDGE_CURVE ( 'NONE', #207, #134, #290, .T. ) ;
#189 = UNCERTAINTY_MEASURE_WITH_UNIT (LENGTH_MEASURE( 1.000000000000000082E-05 ), #51, 'distance_accuracy_value', 'NONE');
#190 = DIMENSIONAL_EXPONENTS ( 1.000000000000000000, 0.000000000000000000, 0.000000000000000000, 0.000000000000000000, 0.000000000000000000, 0.000000000000000000, 0.000000000000000000 ) ;
#191 = DIRECTION ( 'NONE',  ( 0.000000000000000000, 0.000000000000000000, -1.000000000000000000 ) ) ;
#192 = PRESENTATION_LAYER_ASSIGNMENT (  '', '', ( #197 ) ) ;
#193 = DIRECTION ( 'NONE',  ( -8.164311994315687637E-17, 1.000000000000000000, -0.000000000000000000 ) ) ;
#194 = DIRECTION ( 'NONE',  ( 8.164311994315687637E-17, -1.000000000000000000, 0.000000000000000000 ) ) ;
#195 = FILL_AREA_STYLE_COLOUR ( '', #23 ) ;
#196 = CARTESIAN_POINT ( 'NONE',  ( 0.000000000000000000, 1.750000000000000000, 0.000000000000000000 ) ) ;
#197 = STYLED_ITEM ( 'NONE', ( #12 ), #281 ) ;
#198 = COLOUR_RGB ( '',1.000000000000000000, 0.000000000000000000, 0.000000000000000000 ) ;
#199 = DIRECTION ( 'NONE',  ( -0.000000000000000000, -1.000000000000000000, -0.000000000000000000 ) ) ;
#200 =( NAMED_UNIT ( * ) SI_UNIT ( $, .STERADIAN. ) SOLID_ANGLE_UNIT ( ) );
#201 = CARTESIAN_POINT ( 'NONE',  ( -1.836970198721029688E-16, 4.000000000000000000, 0.000000000000000000 ) ) ;
#202 = DIRECTION ( 'NONE',  ( -1.000000000000000000, 0.000000000000000000, 0.000000000000000000 ) ) ;
#203 = AXIS2_PLACEMENT_3D ( 'NONE', #163, #187, #107 ) ;
#204 = ORIENTED_EDGE ( 'NONE', *, *, #188, .F. ) ;
#205 = EDGE_CURVE ( 'NONE', #89, #308, #268, .T. ) ;
#206 = SURFACE_SIDE_STYLE ('',( #293 ) ) ;
#207 = VERTEX_POINT ( 'NONE', #126 ) ;
#208 = CLOSED_SHELL ( 'NONE', ( #108, #175, #281, #300 ) ) ;
#209 = AXIS2_PLACEMENT_3D ( 'NONE', #142, #73, #122 ) ;
#210 = AXIS2_PLACEMENT_3D ( 'NONE', #256, #118, #42 ) ;
#211 = ORIENTED_EDGE ( 'NONE', *, *, #14, .T. ) ;
#212 = CARTESIAN_POINT ( 'NONE',  ( -0.1250000000000003608, 4.000000000000000000, 0.000000000000000000 ) ) ;
#213 = VECTOR ( 'NONE', #13, 39.37007874015748143 ) ;
#214 = DIRECTION ( 'NONE',  ( 0.000000000000000000, 0.000000000000000000, -1.000000000000000000 ) ) ;
#215 = MECHANICAL_DESIGN_GEOMETRIC_PRESENTATION_REPRESENTATION (  '', ( #3 ), #295 ) ;
#216 = EDGE_CURVE ( 'NONE', #182, #22, #96, .T. ) ;
#217 = PRESENTATION_STYLE_ASSIGNMENT (( #173 ) ) ;
#218 = DIRECTION ( 'NONE',  ( -8.164311994315687637E-17, 1.000000000000000000, -0.000000000000000000 ) ) ;
#219 = DIRECTION ( 'NONE',  ( 0.000000000000000000, 1.000000000000000000, 0.000000000000000000 ) ) ;
#220 = EDGE_CURVE ( 'NONE', #134, #207, #125, .T. ) ;
#221 = SURFACE_STYLE_FILL_AREA ( #275 ) ;
#222 = STYLED_ITEM ( 'NONE', ( #225 ), #108 ) ;
#223 = CARTESIAN_POINT ( 'NONE',  ( 1.530808498934191509E-17, 0.000000000000000000, 0.1250000000000000000 ) ) ;
#224 = CARTESIAN_POINT ( 'NONE',  ( 0.000000000000000000, 0.000000000000000000, 0.000000000000000000 ) ) ;
#225 = PRESENTATION_STYLE_ASSIGNMENT (( #128 ) ) ;
#226 = AXIS2_PLACEMENT_3D ( 'NONE', #140, #75, #9 ) ;
#227 = DIRECTION ( 'NONE',  ( -8.164311994315687637E-17, 1.000000000000000000, -0.000000000000000000 ) ) ;
#228 = FILL_AREA_STYLE ('',( #63 ) ) ;
#229 = ADVANCED_FACE ( 'NONE', ( #55 ), #98, .F. ) ;
#230 = CLOSED_SHELL ( 'NONE', ( #154, #253, #131, #229 ) ) ;
#231 = DIMENSIONAL_EXPONENTS ( 1.000000000000000000, 0.000000000000000000, 0.000000000000000000, 0.000000000000000000, 0.000000000000000000, 0.000000000000000000, 0.000000000000000000 ) ;
#232 = ORIENTED_EDGE ( 'NONE', *, *, #205, .F. ) ;
#233 = DIMENSIONAL_EXPONENTS ( 1.000000000000000000, 0.000000000000000000, 0.000000000000000000, 0.000000000000000000, 0.000000000000000000, 0.000000000000000000, 0.000000000000000000 ) ;
#234 = PRESENTATION_STYLE_ASSIGNMENT (( #265 ) ) ;
#235 = DIMENSIONAL_EXPONENTS ( 1.000000000000000000, 0.000000000000000000, 0.000000000000000000, 0.000000000000000000, 0.000000000000000000, 0.000000000000000000, 0.000000000000000000 ) ;
#236 = VERTEX_POINT ( 'NONE', #124 ) ;
#237 = STYLED_ITEM ( 'NONE', ( #217 ), #171 ) ;
#238 = APPLICATION_CONTEXT ( 'automotive_design' ) ;
#239 = LENGTH_MEASURE_WITH_UNIT ( LENGTH_MEASURE( 0.02539999999999999897 ), #147 );
#240 = SURFACE_STYLE_FILL_AREA ( #141 ) ;
#241 =( GEOMETRIC_REPRESENTATION_CONTEXT ( 3 ) GLOBAL_UNCERTAINTY_ASSIGNED_CONTEXT ( ( #121 ) ) GLOBAL_UNIT_ASSIGNED_CONTEXT ( ( #138, #115, #72 ) ) REPRESENTATION_CONTEXT ( 'NONE', 'WORKASPACE' ) );
#242 = CARTESIAN_POINT ( 'NONE',  ( 0.000000000000000000, 0.000000000000000000, -0.1250000000000000000 ) ) ;
#243 = CARTESIAN_POINT ( 'NONE',  ( 0.1250000000000000000, 1.750000000000000000, 1.530808498934193358E-17 ) ) ;
#244 = VECTOR ( 'NONE', #157, 39.37007874015748143 ) ;
#245 = CIRCLE ( 'NONE', #270, 0.1250000000000000000 ) ;
#246 = DIRECTION ( 'NONE',  ( -8.164311994315687637E-17, 1.000000000000000000, -0.000000000000000000 ) ) ;
#247 =( LENGTH_UNIT ( ) NAMED_UNIT ( * ) SI_UNIT ( $, .METRE. ) );
#248 = LINE ( 'NONE', #223, #213 ) ;
#249 = SURFACE_STYLE_FILL_AREA ( #228 ) ;
#250 = AXIS2_PLACEMENT_3D ( 'NONE', #169, #218, #100 ) ;
#251 =( LENGTH_UNIT ( ) NAMED_UNIT ( * ) SI_UNIT ( $, .METRE. ) );
#252 =( CONVERSION_BASED_UNIT ( 'INCH', #88 ) LENGTH_UNIT ( ) NAMED_UNIT ( #266 ) );
#253 = ADVANCED_FACE ( 'NONE', ( #296 ), #31, .F. ) ;
#254 =( CONVERSION_BASED_UNIT ( 'INCH', #156 ) LENGTH_UNIT ( ) NAMED_UNIT ( #262 ) );
#255 = ORIENTED_EDGE ( 'NONE', *, *, #24, .F. ) ;
#256 = CARTESIAN_POINT ( 'NONE',  ( 0.000000000000000000, 0.000000000000000000, 0.000000000000000000 ) ) ;
#257 = COLOUR_RGB ( '',0.7921568627450980005, 0.8196078431372548767, 0.9333333333333333481 ) ;
#258 = PRODUCT_DEFINITION_FORMATION_WITH_SPECIFIED_SOURCE ( 'ANY', '', #119, .NOT_KNOWN. ) ;
#259 = ORIENTED_EDGE ( 'NONE', *, *, #188, .T. ) ;
#260 = AXIS2_PLACEMENT_3D ( 'NONE', #2, #93, #71 ) ;
#261 = UNCERTAINTY_MEASURE_WITH_UNIT (LENGTH_MEASURE( 1.000000000000000082E-05 ), #130, 'distance_accuracy_value', 'NONE');
#262 = DIMENSIONAL_EXPONENTS ( 1.000000000000000000, 0.000000000000000000, 0.000000000000000000, 0.000000000000000000, 0.000000000000000000, 0.000000000000000000, 0.000000000000000000 ) ;
#263 = DIRECTION ( 'NONE',  ( -8.164311994315687637E-17, 1.000000000000000000, -0.000000000000000000 ) ) ;
#264 = ORIENTED_EDGE ( 'NONE', *, *, #139, .T. ) ;
#265 = SURFACE_STYLE_USAGE ( .BOTH. , #206 ) ;
#266 = DIMENSIONAL_EXPONENTS ( 1.000000000000000000, 0.000000000000000000, 0.000000000000000000, 0.000000000000000000, 0.000000000000000000, 0.000000000000000000, 0.000000000000000000 ) ;
#267 = UNCERTAINTY_MEASURE_WITH_UNIT (LENGTH_MEASURE( 1.000000000000000082E-05 ), #254, 'distance_accuracy_value', 'NONE');
#268 = CIRCLE ( 'NONE', #226, 0.1250000000000001943 ) ;
#269 = LENGTH_MEASURE_WITH_UNIT ( LENGTH_MEASURE( 0.02539999999999999897 ), #132 );
#270 = AXIS2_PLACEMENT_3D ( 'NONE', #153, #227, #202 ) ;
#271 =( NAMED_UNIT ( * ) SI_UNIT ( $, .STERADIAN. ) SOLID_ANGLE_UNIT ( ) );
#272 = CARTESIAN_POINT ( 'NONE',  ( 0.000000000000000000, 0.000000000000000000, 0.000000000000000000 ) ) ;
#273 = AXIS2_PLACEMENT_3D ( 'NONE', #57, #7, #30 ) ;
#274 = PRODUCT_DEFINITION_CONTEXT ( 'detailed design', #307, 'design' ) ;
#275 = FILL_AREA_STYLE ('',( #195 ) ) ;
#276 = SURFACE_STYLE_USAGE ( .BOTH. , #174 ) ;
#277 = EDGE_CURVE ( 'NONE', #236, #41, #79, .T. ) ;
#278 =( NAMED_UNIT ( * ) SI_UNIT ( $, .STERADIAN. ) SOLID_ANGLE_UNIT ( ) );
#279 = FILL_AREA_STYLE ('',( #176 ) ) ;
#280 = MECHANICAL_DESIGN_GEOMETRIC_PRESENTATION_REPRESENTATION (  '', ( #161 ), #68 ) ;
#281 = ADVANCED_FACE ( 'NONE', ( #8 ), #301, .T. ) ;
#282 = CARTESIAN_POINT ( 'NONE',  ( 0.000000000000000000, 0.000000000000000000, 0.000000000000000000 ) ) ;
#283 = DIRECTION ( 'NONE',  ( -0.000000000000000000, -1.000000000000000000, -0.000000000000000000 ) ) ;
#284 = EDGE_CURVE ( 'NONE', #41, #236, #245, .T. ) ;
#285 = CARTESIAN_POINT ( 'NONE',  ( 0.1250000000000000000, 4.000000000000000000, 1.530808498934193358E-17 ) ) ;
#286 = PRESENTATION_LAYER_ASSIGNMENT (  '', '', ( #161 ) ) ;
#287 = ORIENTED_EDGE ( 'NONE', *, *, #48, .F. ) ;
#288 = DIRECTION ( 'NONE',  ( -0.000000000000000000, -1.000000000000000000, -0.000000000000000000 ) ) ;
#289 = DIRECTION ( 'NONE',  ( -0.000000000000000000, -1.000000000000000000, -0.000000000000000000 ) ) ;
#290 = CIRCLE ( 'NONE', #184, 0.1250000000000000000 ) ;
#291 =( GEOMETRIC_REPRESENTATION_CONTEXT ( 3 ) GLOBAL_UNCERTAINTY_ASSIGNED_CONTEXT ( ( #21 ) ) GLOBAL_UNIT_ASSIGNED_CONTEXT ( ( #111, #5, #46 ) ) REPRESENTATION_CONTEXT ( 'NONE', 'WORKASPACE' ) );
#292 = ORIENTED_EDGE ( 'NONE', *, *, #216, .F. ) ;
#293 = SURFACE_STYLE_FILL_AREA ( #309 ) ;
#294 = EDGE_LOOP ( 'NONE', ( #159, #114 ) ) ;
#295 =( GEOMETRIC_REPRESENTATION_CONTEXT ( 3 ) GLOBAL_UNCERTAINTY_ASSIGNED_CONTEXT ( ( #94 ) ) GLOBAL_UNIT_ASSIGNED_CONTEXT ( ( #252, #179, #200 ) ) REPRESENTATION_CONTEXT ( 'NONE', 'WORKASPACE' ) );
#296 = FACE_OUTER_BOUND ( 'NONE', #294, .T. ) ;
#297 = DIRECTION ( 'NONE',  ( 0.000000000000000000, 0.000000000000000000, -1.000000000000000000 ) ) ;
#298 = SURFACE_STYLE_USAGE ( .BOTH. , #56 ) ;
#299 = DIRECTION ( 'NONE',  ( -0.000000000000000000, -1.000000000000000000, -0.000000000000000000 ) ) ;
#300 = ADVANCED_FACE ( 'NONE', ( #67 ), #27, .T. ) ;
#301 = CYLINDRICAL_SURFACE ( 'NONE', #25, 0.1250000000000000000 ) ;
#302 = LENGTH_MEASURE_WITH_UNIT ( LENGTH_MEASURE( 0.02539999999999999897 ), #145 );
#303 =( GEOMETRIC_REPRESENTATION_CONTEXT ( 3 ) GLOBAL_UNCERTAINTY_ASSIGNED_CONTEXT ( ( #76 ) ) GLOBAL_UNIT_ASSIGNED_CONTEXT ( ( #82, #305, #271 ) ) REPRESENTATION_CONTEXT ( 'NONE', 'WORKASPACE' ) );
#304 = AXIS2_PLACEMENT_3D ( 'NONE', #77, #194, #101 ) ;
#305 =( NAMED_UNIT ( * ) PLANE_ANGLE_UNIT ( ) SI_UNIT ( $, .RADIAN. ) );
#306 = EDGE_LOOP ( 'NONE', ( #292, #160 ) ) ;
#307 = APPLICATION_CONTEXT ( 'automotive_design' ) ;
#308 = VERTEX_POINT ( 'NONE', #212 ) ;
#309 = FILL_AREA_STYLE ('',( #164 ) ) ;
ENDSEC;
END-ISO-10303-21;
