ISO-10303-21;
HEADER;
FILE_DESCRIPTION (( 'STEP AP214' ),
    '1' );
FILE_NAME ('44242W.STEP',
    '2023-06-22T19:45:24',
    ( '' ),
    ( '' ),
    'SwSTEP 2.0',
    'SolidWorks 2023',
    '' );
FILE_SCHEMA (( 'AUTOMOTIVE_DESIGN' ));
ENDSEC;

DATA;
#1 = PLANE ( 'NONE',  #70 ) ;
#2 = VERTEX_POINT ( 'NONE', #7 ) ;
#3 = ORIENTED_EDGE ( 'NONE', *, *, #167, .F. ) ;
#4 = CIRCLE ( 'NONE', #294, 0.1875000000000001943 ) ;
#5 = AXIS2_PLACEMENT_3D ( 'NONE', #41, #132, #184 ) ;
#6 = SURFACE_SIDE_STYLE ('',( #242 ) ) ;
#7 = CARTESIAN_POINT ( 'NONE',  ( 0.1875000000000000555, 3.000000000000000444, 2.296212748401289266E-17 ) ) ;
#8 = CARTESIAN_POINT ( 'NONE',  ( 0.000000000000000000, 1.250000000000000000, 0.000000000000000000 ) ) ;
#9 = ORIENTED_EDGE ( 'NONE', *, *, #10, .T. ) ;
#10 = EDGE_CURVE ( 'NONE', #270, #13, #19, .T. ) ;
#11 = DIMENSIONAL_EXPONENTS ( 1.000000000000000000, 0.000000000000000000, 0.000000000000000000, 0.000000000000000000, 0.000000000000000000, 0.000000000000000000, 0.000000000000000000 ) ;
#12 = CARTESIAN_POINT ( 'NONE',  ( 0.000000000000000000, 0.000000000000000000, -0.1875000000000000555 ) ) ;
#13 = VERTEX_POINT ( 'NONE', #32 ) ;
#14 = AXIS2_PLACEMENT_3D ( 'NONE', #39, #129, #187 ) ;
#15 = DIRECTION ( 'NONE',  ( -6.997981709413449187E-17, 1.000000000000000000, -0.000000000000000000 ) ) ;
#16 = DIRECTION ( 'NONE',  ( -0.000000000000000000, -1.000000000000000000, -0.000000000000000000 ) ) ;
#17 = CARTESIAN_POINT ( 'NONE',  ( 0.1875000000000000555, 3.000000000000000444, 0.000000000000000000 ) ) ;
#18 = DIMENSIONAL_EXPONENTS ( 1.000000000000000000, 0.000000000000000000, 0.000000000000000000, 0.000000000000000000, 0.000000000000000000, 0.000000000000000000, 0.000000000000000000 ) ;
#19 = CIRCLE ( 'NONE', #85, 0.1875000000000000278 ) ;
#20 = CARTESIAN_POINT ( 'NONE',  ( 0.000000000000000000, 0.000000000000000000, 0.000000000000000000 ) ) ;
#21 =( NAMED_UNIT ( * ) PLANE_ANGLE_UNIT ( ) SI_UNIT ( $, .RADIAN. ) );
#22 = DIRECTION ( 'NONE',  ( -6.997981709413449187E-17, 1.000000000000000000, -0.000000000000000000 ) ) ;
#23 = MECHANICAL_DESIGN_GEOMETRIC_PRESENTATION_REPRESENTATION (  '', ( #290 ), #281 ) ;
#24 =( NAMED_UNIT ( * ) PLANE_ANGLE_UNIT ( ) SI_UNIT ( $, .RADIAN. ) );
#25 = LINE ( 'NONE', #134, #203 ) ;
#26 = ADVANCED_FACE ( 'NONE', ( #119 ), #96, .F. ) ;
#27 = SURFACE_STYLE_USAGE ( .BOTH. , #66 ) ;
#28 = DIRECTION ( 'NONE',  ( -1.000000000000000000, 0.000000000000000000, 0.000000000000000000 ) ) ;
#29 = CARTESIAN_POINT ( 'NONE',  ( 0.000000000000000000, 1.250000000000000000, 0.000000000000000000 ) ) ;
#30 = DIRECTION ( 'NONE',  ( 0.000000000000000000, 0.000000000000000000, 1.000000000000000000 ) ) ;
#31 = ORIENTED_EDGE ( 'NONE', *, *, #285, .T. ) ;
#32 = CARTESIAN_POINT ( 'NONE',  ( 0.000000000000000000, 0.000000000000000000, -0.1875000000000000278 ) ) ;
#33 = COLOUR_RGB ( '',1.000000000000000000, 0.000000000000000000, 0.000000000000000000 ) ;
#34 = ORIENTED_EDGE ( 'NONE', *, *, #123, .T. ) ;
#35 =( LENGTH_UNIT ( ) NAMED_UNIT ( * ) SI_UNIT ( $, .METRE. ) );
#36 = SHAPE_DEFINITION_REPRESENTATION ( #260, #163 ) ;
#37 = AXIS2_PLACEMENT_3D ( 'NONE', #29, #286, #172 ) ;
#38 = FILL_AREA_STYLE_COLOUR ( '', #33 ) ;
#39 = CARTESIAN_POINT ( 'NONE',  ( -1.224646799147353700E-16, 3.000000000000000444, 0.000000000000000000 ) ) ;
#40 =( CONVERSION_BASED_UNIT ( 'INCH', #302 ) LENGTH_UNIT ( ) NAMED_UNIT ( #79 ) );
#41 = CARTESIAN_POINT ( 'NONE',  ( -1.224646799147353700E-16, 3.000000000000000444, 0.000000000000000000 ) ) ;
#42 = SURFACE_SIDE_STYLE ('',( #152 ) ) ;
#43 =( NAMED_UNIT ( * ) SI_UNIT ( $, .STERADIAN. ) SOLID_ANGLE_UNIT ( ) );
#44 = CARTESIAN_POINT ( 'NONE',  ( -1.224646799147353700E-16, 3.000000000000000444, 0.000000000000000000 ) ) ;
#45 = ADVANCED_FACE ( 'NONE', ( #157 ), #301, .T. ) ;
#46 = CARTESIAN_POINT ( 'NONE',  ( 0.000000000000000000, 0.000000000000000000, 0.000000000000000000 ) ) ;
#47 = PRESENTATION_LAYER_ASSIGNMENT (  '', '', ( #207 ) ) ;
#48 = CARTESIAN_POINT ( 'NONE',  ( 0.000000000000000000, 1.250000000000000000, -0.1875000000000000555 ) ) ;
#49 = CIRCLE ( 'NONE', #145, 0.1875000000000000555 ) ;
#50 = DIRECTION ( 'NONE',  ( -1.000000000000000000, -6.997981709413449187E-17, 0.000000000000000000 ) ) ;
#51 = ORIENTED_EDGE ( 'NONE', *, *, #150, .F. ) ;
#52 = UNCERTAINTY_MEASURE_WITH_UNIT (LENGTH_MEASURE( 1.000000000000000082E-05 ), #54, 'distance_accuracy_value', 'NONE');
#53 = FACE_OUTER_BOUND ( 'NONE', #223, .T. ) ;
#54 =( CONVERSION_BASED_UNIT ( 'INCH', #138 ) LENGTH_UNIT ( ) NAMED_UNIT ( #11 ) );
#55 = MECHANICAL_DESIGN_GEOMETRIC_PRESENTATION_REPRESENTATION (  '', ( #228 ), #212 ) ;
#56 = CARTESIAN_POINT ( 'NONE',  ( -0.1875000000000003331, 3.000000000000000444, 0.000000000000000000 ) ) ;
#57 = ORIENTED_EDGE ( 'NONE', *, *, #167, .T. ) ;
#58 = CARTESIAN_POINT ( 'NONE',  ( 2.296212748401287726E-17, 0.000000000000000000, 0.1875000000000000278 ) ) ;
#59 = EDGE_CURVE ( 'NONE', #239, #270, #251, .T. ) ;
#60 = LENGTH_MEASURE_WITH_UNIT ( LENGTH_MEASURE( 0.02539999999999999897 ), #233 );
#61 = FILL_AREA_STYLE ('',( #204 ) ) ;
#62 = AXIS2_PLACEMENT_3D ( 'NONE', #308, #30, #90 ) ;
#63 = DIRECTION ( 'NONE',  ( -0.000000000000000000, -1.000000000000000000, -0.000000000000000000 ) ) ;
#64 = COLOUR_RGB ( '',0.7921568627450980005, 0.8196078431372548767, 0.9333333333333333481 ) ;
#65 = FILL_AREA_STYLE_COLOUR ( '', #244 ) ;
#66 = SURFACE_SIDE_STYLE ('',( #258 ) ) ;
#67 =( CONVERSION_BASED_UNIT ( 'INCH', #189 ) LENGTH_UNIT ( ) NAMED_UNIT ( #18 ) );
#68 = CARTESIAN_POINT ( 'NONE',  ( 4.591101375495486296E-34, 1.250000000000000000, 0.000000000000000000 ) ) ;
#69 = ORIENTED_EDGE ( 'NONE', *, *, #282, .T. ) ;
#70 = AXIS2_PLACEMENT_3D ( 'NONE', #68, #264, #50 ) ;
#71 =( NAMED_UNIT ( * ) SI_UNIT ( $, .STERADIAN. ) SOLID_ANGLE_UNIT ( ) );
#72 = DIRECTION ( 'NONE',  ( 0.000000000000000000, 0.000000000000000000, -1.000000000000000000 ) ) ;
#73 =( NAMED_UNIT ( * ) PLANE_ANGLE_UNIT ( ) SI_UNIT ( $, .RADIAN. ) );
#74 = DIRECTION ( 'NONE',  ( -0.000000000000000000, -1.000000000000000000, -0.000000000000000000 ) ) ;
#75 = PRESENTATION_LAYER_ASSIGNMENT (  '', '', ( #110 ) ) ;
#76 = ORIENTED_EDGE ( 'NONE', *, *, #116, .F. ) ;
#77 = CARTESIAN_POINT ( 'NONE',  ( 0.000000000000000000, 1.250000000000000000, 0.000000000000000000 ) ) ;
#78 = PRESENTATION_LAYER_ASSIGNMENT (  '', '', ( #228 ) ) ;
#79 = DIMENSIONAL_EXPONENTS ( 1.000000000000000000, 0.000000000000000000, 0.000000000000000000, 0.000000000000000000, 0.000000000000000000, 0.000000000000000000, 0.000000000000000000 ) ;
#80 = FACE_OUTER_BOUND ( 'NONE', #202, .T. ) ;
#81 = PRESENTATION_LAYER_ASSIGNMENT (  '', '', ( #227 ) ) ;
#82 =( GEOMETRIC_REPRESENTATION_CONTEXT ( 3 ) GLOBAL_UNCERTAINTY_ASSIGNED_CONTEXT ( ( #154 ) ) GLOBAL_UNIT_ASSIGNED_CONTEXT ( ( #280, #162, #234 ) ) REPRESENTATION_CONTEXT ( 'NONE', 'WORKASPACE' ) );
#83 = SURFACE_SIDE_STYLE ('',( #114 ) ) ;
#84 = DIRECTION ( 'NONE',  ( -6.997981709413449187E-17, 1.000000000000000000, -0.000000000000000000 ) ) ;
#85 = AXIS2_PLACEMENT_3D ( 'NONE', #196, #92, #72 ) ;
#86 = CYLINDRICAL_SURFACE ( 'NONE', #272, 0.1875000000000000555 ) ;
#87 = VECTOR ( 'NONE', #91, 39.37007874015748143 ) ;
#88 = APPLICATION_PROTOCOL_DEFINITION ( 'draft international standard', 'automotive_design', 1998, #274 ) ;
#89 = PRESENTATION_STYLE_ASSIGNMENT (( #309 ) ) ;
#90 = DIRECTION ( 'NONE',  ( 1.000000000000000000, 0.000000000000000000, 0.000000000000000000 ) ) ;
#91 = DIRECTION ( 'NONE',  ( -0.000000000000000000, -1.000000000000000000, -0.000000000000000000 ) ) ;
#92 = DIRECTION ( 'NONE',  ( -0.000000000000000000, -1.000000000000000000, -0.000000000000000000 ) ) ;
#93 = EDGE_CURVE ( 'NONE', #239, #125, #307, .T. ) ;
#94 = AXIS2_PLACEMENT_3D ( 'NONE', #46, #256, #161 ) ;
#95 = SURFACE_STYLE_FILL_AREA ( #237 ) ;
#96 = PLANE ( 'NONE',  #271 ) ;
#97 = DIRECTION ( 'NONE',  ( -0.000000000000000000, -1.000000000000000000, -0.000000000000000000 ) ) ;
#98 = SURFACE_STYLE_USAGE ( .BOTH. , #6 ) ;
#99 = ORIENTED_EDGE ( 'NONE', *, *, #253, .F. ) ;
#100 = ADVANCED_FACE ( 'NONE', ( #296 ), #177, .T. ) ;
#101 = PLANE ( 'NONE',  #94 ) ;
#102 = SURFACE_SIDE_STYLE ('',( #155 ) ) ;
#103 = DIMENSIONAL_EXPONENTS ( 1.000000000000000000, 0.000000000000000000, 0.000000000000000000, 0.000000000000000000, 0.000000000000000000, 0.000000000000000000, 0.000000000000000000 ) ;
#104 =( NAMED_UNIT ( * ) PLANE_ANGLE_UNIT ( ) SI_UNIT ( $, .RADIAN. ) );
#105 =( GEOMETRIC_REPRESENTATION_CONTEXT ( 3 ) GLOBAL_UNCERTAINTY_ASSIGNED_CONTEXT ( ( #210 ) ) GLOBAL_UNIT_ASSIGNED_CONTEXT ( ( #67, #191, #304 ) ) REPRESENTATION_CONTEXT ( 'NONE', 'WORKASPACE' ) );
#106 = CARTESIAN_POINT ( 'NONE',  ( 2.296212748401288034E-17, 0.000000000000000000, 0.1875000000000000555 ) ) ;
#107 = CARTESIAN_POINT ( 'NONE',  ( 0.000000000000000000, 0.000000000000000000, 0.000000000000000000 ) ) ;
#108 = ADVANCED_FACE ( 'NONE', ( #252 ), #101, .T. ) ;
#109 = CLOSED_SHELL ( 'NONE', ( #266, #241, #100, #26 ) ) ;
#110 = STYLED_ITEM ( 'NONE', ( #89 ), #130 ) ;
#111 = PRESENTATION_STYLE_ASSIGNMENT (( #27 ) ) ;
#112 = CARTESIAN_POINT ( 'NONE',  ( -0.1875000000000000555, 1.250000000000000000, 0.000000000000000000 ) ) ;
#113 = EDGE_CURVE ( 'NONE', #195, #2, #4, .T. ) ;
#114 = SURFACE_STYLE_FILL_AREA ( #193 ) ;
#115 = MECHANICAL_DESIGN_GEOMETRIC_PRESENTATION_REPRESENTATION (  '', ( #216 ), #139 ) ;
#116 = EDGE_CURVE ( 'NONE', #268, #2, #25, .T. ) ;
#117 = EDGE_LOOP ( 'NONE', ( #292, #287, #51, #225 ) ) ;
#118 = PRODUCT_DEFINITION_CONTEXT ( 'detailed design', #284, 'design' ) ;
#119 = FACE_OUTER_BOUND ( 'NONE', #173, .T. ) ;
#120 = EDGE_LOOP ( 'NONE', ( #143, #265, #273, #141 ) ) ;
#121 = DIRECTION ( 'NONE',  ( 0.000000000000000000, 0.000000000000000000, -1.000000000000000000 ) ) ;
#122 = ORIENTED_EDGE ( 'NONE', *, *, #282, .F. ) ;
#123 = EDGE_CURVE ( 'NONE', #174, #268, #49, .T. ) ;
#124 = CYLINDRICAL_SURFACE ( 'NONE', #5, 0.1875000000000001110 ) ;
#125 = VERTEX_POINT ( 'NONE', #48 ) ;
#126 = AXIS2_PLACEMENT_3D ( 'NONE', #214, #257, #28 ) ;
#127 = SURFACE_STYLE_USAGE ( .BOTH. , #42 ) ;
#128 = MANIFOLD_SOLID_BREP ( 'Revolve - Cutting Edge', #289 ) ;
#129 = DIRECTION ( 'NONE',  ( -6.997981709413449187E-17, 1.000000000000000000, -0.000000000000000000 ) ) ;
#130 = MANIFOLD_SOLID_BREP ( 'Revolve - Tool Body (Straight Shanked)', #109 ) ;
#131 = AXIS2_PLACEMENT_3D ( 'NONE', #20, #185, #205 ) ;
#132 = DIRECTION ( 'NONE',  ( -6.997981709413449187E-17, 1.000000000000000000, -0.000000000000000000 ) ) ;
#133 =( LENGTH_UNIT ( ) NAMED_UNIT ( * ) SI_UNIT ( $, .METRE. ) );
#134 = CARTESIAN_POINT ( 'NONE',  ( 0.1874999999999999722, 3.000000000000000444, 2.296212748401288650E-17 ) ) ;
#135 = COLOUR_RGB ( '',0.7921568627450980005, 0.8196078431372548767, 0.9333333333333333481 ) ;
#136 = FILL_AREA_STYLE_COLOUR ( '', #135 ) ;
#137 = DIRECTION ( 'NONE',  ( -1.000000000000000000, 0.000000000000000000, 0.000000000000000000 ) ) ;
#138 = LENGTH_MEASURE_WITH_UNIT ( LENGTH_MEASURE( 0.02539999999999999897 ), #246 );
#139 =( GEOMETRIC_REPRESENTATION_CONTEXT ( 3 ) GLOBAL_UNCERTAINTY_ASSIGNED_CONTEXT ( ( #52 ) ) GLOBAL_UNIT_ASSIGNED_CONTEXT ( ( #54, #144, #169 ) ) REPRESENTATION_CONTEXT ( 'NONE', 'WORKASPACE' ) );
#140 =( CONVERSION_BASED_UNIT ( 'INCH', #269 ) LENGTH_UNIT ( ) NAMED_UNIT ( #300 ) );
#141 = ORIENTED_EDGE ( 'NONE', *, *, #10, .F. ) ;
#142 = FILL_AREA_STYLE ('',( #65 ) ) ;
#143 = ORIENTED_EDGE ( 'NONE', *, *, #59, .F. ) ;
#144 =( NAMED_UNIT ( * ) PLANE_ANGLE_UNIT ( ) SI_UNIT ( $, .RADIAN. ) );
#145 = AXIS2_PLACEMENT_3D ( 'NONE', #283, #213, #190 ) ;
#146 = PRESENTATION_STYLE_ASSIGNMENT (( #219 ) ) ;
#147 = ORIENTED_EDGE ( 'NONE', *, *, #113, .F. ) ;
#148 = ORIENTED_EDGE ( 'NONE', *, *, #150, .T. ) ;
#149 = SURFACE_STYLE_USAGE ( .BOTH. , #102 ) ;
#150 = EDGE_CURVE ( 'NONE', #13, #270, #262, .T. ) ;
#151 = CIRCLE ( 'NONE', #197, 0.1875000000000000555 ) ;
#152 = SURFACE_STYLE_FILL_AREA ( #231 ) ;
#153 = DIRECTION ( 'NONE',  ( 0.000000000000000000, 0.000000000000000000, -1.000000000000000000 ) ) ;
#154 = UNCERTAINTY_MEASURE_WITH_UNIT (LENGTH_MEASURE( 1.000000000000000082E-05 ), #280, 'distance_accuracy_value', 'NONE');
#155 = SURFACE_STYLE_FILL_AREA ( #61 ) ;
#156 =( GEOMETRIC_REPRESENTATION_CONTEXT ( 3 ) GLOBAL_UNCERTAINTY_ASSIGNED_CONTEXT ( ( #240 ) ) GLOBAL_UNIT_ASSIGNED_CONTEXT ( ( #229, #24, #305 ) ) REPRESENTATION_CONTEXT ( 'NONE', 'WORKASPACE' ) );
#157 = FACE_OUTER_BOUND ( 'NONE', #117, .T. ) ;
#158 = DIRECTION ( 'NONE',  ( 0.000000000000000000, 0.000000000000000000, -1.000000000000000000 ) ) ;
#159 = FILL_AREA_STYLE ('',( #136 ) ) ;
#160 = CIRCLE ( 'NONE', #126, 0.1875000000000001943 ) ;
#161 = DIRECTION ( 'NONE',  ( 0.000000000000000000, 0.000000000000000000, -1.000000000000000000 ) ) ;
#162 =( NAMED_UNIT ( * ) PLANE_ANGLE_UNIT ( ) SI_UNIT ( $, .RADIAN. ) );
#163 = ADVANCED_BREP_SHAPE_REPRESENTATION ( '44242W', ( #128, #130, #62 ), #156 ) ;
#164 = SURFACE_SIDE_STYLE ('',( #95 ) ) ;
#165 = PRODUCT_CONTEXT ( 'NONE', #274, 'mechanical' ) ;
#166 = VECTOR ( 'NONE', #278, 39.37007874015748143 ) ;
#167 = EDGE_CURVE ( 'NONE', #2, #195, #160, .T. ) ;
#168 = UNCERTAINTY_MEASURE_WITH_UNIT (LENGTH_MEASURE( 1.000000000000000082E-05 ), #140, 'distance_accuracy_value', 'NONE');
#169 =( NAMED_UNIT ( * ) SI_UNIT ( $, .STERADIAN. ) SOLID_ANGLE_UNIT ( ) );
#170 = ORIENTED_EDGE ( 'NONE', *, *, #123, .F. ) ;
#171 = DIMENSIONAL_EXPONENTS ( 1.000000000000000000, 0.000000000000000000, 0.000000000000000000, 0.000000000000000000, 0.000000000000000000, 0.000000000000000000, 0.000000000000000000 ) ;
#172 = DIRECTION ( 'NONE',  ( 0.000000000000000000, -0.000000000000000000, 1.000000000000000000 ) ) ;
#173 = EDGE_LOOP ( 'NONE', ( #276, #57 ) ) ;
#174 = VERTEX_POINT ( 'NONE', #112 ) ;
#175 = AXIS2_PLACEMENT_3D ( 'NONE', #182, #176, #230 ) ;
#176 = DIRECTION ( 'NONE',  ( -6.997981709413449187E-17, 1.000000000000000000, -0.000000000000000000 ) ) ;
#177 = CYLINDRICAL_SURFACE ( 'NONE', #14, 0.1875000000000001110 ) ;
#178 = DIMENSIONAL_EXPONENTS ( 1.000000000000000000, 0.000000000000000000, 0.000000000000000000, 0.000000000000000000, 0.000000000000000000, 0.000000000000000000, 0.000000000000000000 ) ;
#179 =( GEOMETRIC_REPRESENTATION_CONTEXT ( 3 ) GLOBAL_UNCERTAINTY_ASSIGNED_CONTEXT ( ( #206 ) ) GLOBAL_UNIT_ASSIGNED_CONTEXT ( ( #40, #104, #43 ) ) REPRESENTATION_CONTEXT ( 'NONE', 'WORKASPACE' ) );
#180 = MECHANICAL_DESIGN_GEOMETRIC_PRESENTATION_REPRESENTATION (  '', ( #207 ), #82 ) ;
#181 = VECTOR ( 'NONE', #15, 39.37007874015748143 ) ;
#182 = CARTESIAN_POINT ( 'NONE',  ( 0.000000000000000000, 1.250000000000000000, 0.000000000000000000 ) ) ;
#183 = DIRECTION ( 'NONE',  ( 1.000000000000000000, 6.997981709413449187E-17, 0.000000000000000000 ) ) ;
#184 = DIRECTION ( 'NONE',  ( -1.000000000000000000, 0.000000000000000000, 0.000000000000000000 ) ) ;
#185 = DIRECTION ( 'NONE',  ( -0.000000000000000000, -1.000000000000000000, -0.000000000000000000 ) ) ;
#186 = ADVANCED_FACE ( 'NONE', ( #215 ), #86, .T. ) ;
#187 = DIRECTION ( 'NONE',  ( -1.000000000000000000, 0.000000000000000000, 0.000000000000000000 ) ) ;
#188 = COLOUR_RGB ( '',1.000000000000000000, 0.000000000000000000, 0.000000000000000000 ) ;
#189 = LENGTH_MEASURE_WITH_UNIT ( LENGTH_MEASURE( 0.02539999999999999897 ), #259 );
#190 = DIRECTION ( 'NONE',  ( -1.000000000000000000, 0.000000000000000000, 0.000000000000000000 ) ) ;
#191 =( NAMED_UNIT ( * ) PLANE_ANGLE_UNIT ( ) SI_UNIT ( $, .RADIAN. ) );
#192 = AXIS2_PLACEMENT_3D ( 'NONE', #77, #16, #153 ) ;
#193 = FILL_AREA_STYLE ('',( #211 ) ) ;
#194 = PLANE ( 'NONE',  #37 ) ;
#195 = VERTEX_POINT ( 'NONE', #56 ) ;
#196 = CARTESIAN_POINT ( 'NONE',  ( 0.000000000000000000, 0.000000000000000000, 0.000000000000000000 ) ) ;
#197 = AXIS2_PLACEMENT_3D ( 'NONE', #8, #97, #200 ) ;
#198 = PRODUCT ( '44242W', '44242W', '', ( #165 ) ) ;
#199 = EDGE_CURVE ( 'NONE', #125, #13, #238, .T. ) ;
#200 = DIRECTION ( 'NONE',  ( 0.000000000000000000, 0.000000000000000000, -1.000000000000000000 ) ) ;
#201 = PRESENTATION_STYLE_ASSIGNMENT (( #98 ) ) ;
#202 = EDGE_LOOP ( 'NONE', ( #34, #220, #147, #122 ) ) ;
#203 = VECTOR ( 'NONE', #22, 39.37007874015748143 ) ;
#204 = FILL_AREA_STYLE_COLOUR ( '', #188 ) ;
#205 = DIRECTION ( 'NONE',  ( 0.000000000000000000, 0.000000000000000000, -1.000000000000000000 ) ) ;
#206 = UNCERTAINTY_MEASURE_WITH_UNIT (LENGTH_MEASURE( 1.000000000000000082E-05 ), #40, 'distance_accuracy_value', 'NONE');
#207 = STYLED_ITEM ( 'NONE', ( #111 ), #128 ) ;
#208 =( CONVERSION_BASED_UNIT ( 'INCH', #60 ) LENGTH_UNIT ( ) NAMED_UNIT ( #171 ) );
#209 =( NAMED_UNIT ( * ) SI_UNIT ( $, .STERADIAN. ) SOLID_ANGLE_UNIT ( ) );
#210 = UNCERTAINTY_MEASURE_WITH_UNIT (LENGTH_MEASURE( 1.000000000000000082E-05 ), #67, 'distance_accuracy_value', 'NONE');
#211 = FILL_AREA_STYLE_COLOUR ( '', #64 ) ;
#212 =( GEOMETRIC_REPRESENTATION_CONTEXT ( 3 ) GLOBAL_UNCERTAINTY_ASSIGNED_CONTEXT ( ( #288 ) ) GLOBAL_UNIT_ASSIGNED_CONTEXT ( ( #208, #21, #209 ) ) REPRESENTATION_CONTEXT ( 'NONE', 'WORKASPACE' ) );
#213 = DIRECTION ( 'NONE',  ( -6.997981709413449187E-17, 1.000000000000000000, -0.000000000000000000 ) ) ;
#214 = CARTESIAN_POINT ( 'NONE',  ( -1.224646799147353700E-16, 3.000000000000000444, 0.000000000000000000 ) ) ;
#215 = FACE_OUTER_BOUND ( 'NONE', #120, .T. ) ;
#216 = STYLED_ITEM ( 'NONE', ( #146 ), #235 ) ;
#217 = APPLICATION_PROTOCOL_DEFINITION ( 'draft international standard', 'automotive_design', 1998, #284 ) ;
#218 = CARTESIAN_POINT ( 'NONE',  ( 2.296212748401288034E-17, 1.250000000000000000, 0.1875000000000000555 ) ) ;
#219 = SURFACE_STYLE_USAGE ( .BOTH. , #164 ) ;
#220 = ORIENTED_EDGE ( 'NONE', *, *, #116, .T. ) ;
#221 = MECHANICAL_DESIGN_GEOMETRIC_PRESENTATION_REPRESENTATION (  '', ( #110 ), #105 ) ;
#222 = CARTESIAN_POINT ( 'NONE',  ( 0.000000000000000000, 0.000000000000000000, 0.000000000000000000 ) ) ;
#223 = EDGE_LOOP ( 'NONE', ( #170, #243 ) ) ;
#224 = EDGE_LOOP ( 'NONE', ( #148, #9 ) ) ;
#225 = ORIENTED_EDGE ( 'NONE', *, *, #199, .F. ) ;
#226 = CARTESIAN_POINT ( 'NONE',  ( -0.1875000000000002498, 3.000000000000000444, 0.000000000000000000 ) ) ;
#227 = STYLED_ITEM ( 'NONE', ( #297 ), #45 ) ;
#228 = STYLED_ITEM ( 'NONE', ( #254 ), #108 ) ;
#229 =( CONVERSION_BASED_UNIT ( 'INCH', #250 ) LENGTH_UNIT ( ) NAMED_UNIT ( #178 ) );
#230 = DIRECTION ( 'NONE',  ( -1.000000000000000000, 0.000000000000000000, 0.000000000000000000 ) ) ;
#231 = FILL_AREA_STYLE ('',( #38 ) ) ;
#232 = LINE ( 'NONE', #226, #181 ) ;
#233 =( LENGTH_UNIT ( ) NAMED_UNIT ( * ) SI_UNIT ( $, .METRE. ) );
#234 =( NAMED_UNIT ( * ) SI_UNIT ( $, .STERADIAN. ) SOLID_ANGLE_UNIT ( ) );
#235 = ADVANCED_FACE ( 'NONE', ( #295 ), #194, .T. ) ;
#236 = COLOUR_RGB ( '',1.000000000000000000, 0.000000000000000000, 0.000000000000000000 ) ;
#237 = FILL_AREA_STYLE ('',( #267 ) ) ;
#238 = LINE ( 'NONE', #12, #87 ) ;
#239 = VERTEX_POINT ( 'NONE', #218 ) ;
#240 = UNCERTAINTY_MEASURE_WITH_UNIT (LENGTH_MEASURE( 1.000000000000000082E-05 ), #229, 'distance_accuracy_value', 'NONE');
#241 = ADVANCED_FACE ( 'NONE', ( #53 ), #1, .F. ) ;
#242 = SURFACE_STYLE_FILL_AREA ( #142 ) ;
#243 = ORIENTED_EDGE ( 'NONE', *, *, #285, .F. ) ;
#244 = COLOUR_RGB ( '',1.000000000000000000, 0.000000000000000000, 0.000000000000000000 ) ;
#245 = EDGE_LOOP ( 'NONE', ( #99, #248 ) ) ;
#246 =( LENGTH_UNIT ( ) NAMED_UNIT ( * ) SI_UNIT ( $, .METRE. ) );
#247 = EDGE_LOOP ( 'NONE', ( #76, #31, #69, #3 ) ) ;
#248 = ORIENTED_EDGE ( 'NONE', *, *, #93, .F. ) ;
#249 = PRODUCT_DEFINITION ( 'UNKNOWN', '', #291, #118 ) ;
#250 = LENGTH_MEASURE_WITH_UNIT ( LENGTH_MEASURE( 0.02539999999999999897 ), #275 );
#251 = LINE ( 'NONE', #106, #166 ) ;
#252 = FACE_OUTER_BOUND ( 'NONE', #224, .T. ) ;
#253 = EDGE_CURVE ( 'NONE', #125, #239, #151, .T. ) ;
#254 = PRESENTATION_STYLE_ASSIGNMENT (( #127 ) ) ;
#255 = PRESENTATION_LAYER_ASSIGNMENT (  '', '', ( #216 ) ) ;
#256 = DIRECTION ( 'NONE',  ( 0.000000000000000000, -1.000000000000000000, -0.000000000000000000 ) ) ;
#257 = DIRECTION ( 'NONE',  ( -6.997981709413449187E-17, 1.000000000000000000, -0.000000000000000000 ) ) ;
#258 = SURFACE_STYLE_FILL_AREA ( #159 ) ;
#259 =( LENGTH_UNIT ( ) NAMED_UNIT ( * ) SI_UNIT ( $, .METRE. ) );
#260 = PRODUCT_DEFINITION_SHAPE ( 'NONE', 'NONE',  #249 ) ;
#261 = MECHANICAL_DESIGN_GEOMETRIC_PRESENTATION_REPRESENTATION (  '', ( #227 ), #179 ) ;
#262 = CIRCLE ( 'NONE', #299, 0.1875000000000000278 ) ;
#263 = CIRCLE ( 'NONE', #175, 0.1875000000000000555 ) ;
#264 = DIRECTION ( 'NONE',  ( -6.997981709413449187E-17, 1.000000000000000000, 0.000000000000000000 ) ) ;
#265 = ORIENTED_EDGE ( 'NONE', *, *, #93, .T. ) ;
#266 = ADVANCED_FACE ( 'NONE', ( #80 ), #124, .T. ) ;
#267 = FILL_AREA_STYLE_COLOUR ( '', #236 ) ;
#268 = VERTEX_POINT ( 'NONE', #298 ) ;
#269 = LENGTH_MEASURE_WITH_UNIT ( LENGTH_MEASURE( 0.02539999999999999897 ), #35 );
#270 = VERTEX_POINT ( 'NONE', #58 ) ;
#271 = AXIS2_PLACEMENT_3D ( 'NONE', #17, #279, #183 ) ;
#272 = AXIS2_PLACEMENT_3D ( 'NONE', #222, #74, #121 ) ;
#273 = ORIENTED_EDGE ( 'NONE', *, *, #199, .T. ) ;
#274 = APPLICATION_CONTEXT ( 'automotive_design' ) ;
#275 =( LENGTH_UNIT ( ) NAMED_UNIT ( * ) SI_UNIT ( $, .METRE. ) );
#276 = ORIENTED_EDGE ( 'NONE', *, *, #113, .T. ) ;
#277 =( LENGTH_UNIT ( ) NAMED_UNIT ( * ) SI_UNIT ( $, .METRE. ) );
#278 = DIRECTION ( 'NONE',  ( -0.000000000000000000, -1.000000000000000000, -0.000000000000000000 ) ) ;
#279 = DIRECTION ( 'NONE',  ( 6.997981709413449187E-17, -1.000000000000000000, 0.000000000000000000 ) ) ;
#280 =( CONVERSION_BASED_UNIT ( 'INCH', #306 ) LENGTH_UNIT ( ) NAMED_UNIT ( #103 ) );
#281 =( GEOMETRIC_REPRESENTATION_CONTEXT ( 3 ) GLOBAL_UNCERTAINTY_ASSIGNED_CONTEXT ( ( #168 ) ) GLOBAL_UNIT_ASSIGNED_CONTEXT ( ( #140, #73, #71 ) ) REPRESENTATION_CONTEXT ( 'NONE', 'WORKASPACE' ) );
#282 = EDGE_CURVE ( 'NONE', #174, #195, #232, .T. ) ;
#283 = CARTESIAN_POINT ( 'NONE',  ( 0.000000000000000000, 1.250000000000000000, 0.000000000000000000 ) ) ;
#284 = APPLICATION_CONTEXT ( 'automotive_design' ) ;
#285 = EDGE_CURVE ( 'NONE', #268, #174, #263, .T. ) ;
#286 = DIRECTION ( 'NONE',  ( 0.000000000000000000, 1.000000000000000000, 0.000000000000000000 ) ) ;
#287 = ORIENTED_EDGE ( 'NONE', *, *, #59, .T. ) ;
#288 = UNCERTAINTY_MEASURE_WITH_UNIT (LENGTH_MEASURE( 1.000000000000000082E-05 ), #208, 'distance_accuracy_value', 'NONE');
#289 = CLOSED_SHELL ( 'NONE', ( #45, #235, #186, #108 ) ) ;
#290 = STYLED_ITEM ( 'NONE', ( #201 ), #186 ) ;
#291 = PRODUCT_DEFINITION_FORMATION_WITH_SPECIFIED_SOURCE ( 'ANY', '', #198, .NOT_KNOWN. ) ;
#292 = ORIENTED_EDGE ( 'NONE', *, *, #253, .T. ) ;
#293 = PRODUCT_RELATED_PRODUCT_CATEGORY ( 'part', '', ( #198 ) ) ;
#294 = AXIS2_PLACEMENT_3D ( 'NONE', #44, #84, #137 ) ;
#295 = FACE_OUTER_BOUND ( 'NONE', #245, .T. ) ;
#296 = FACE_OUTER_BOUND ( 'NONE', #247, .T. ) ;
#297 = PRESENTATION_STYLE_ASSIGNMENT (( #149 ) ) ;
#298 = CARTESIAN_POINT ( 'NONE',  ( 0.1875000000000000555, 1.250000000000000000, 2.296212748401289266E-17 ) ) ;
#299 = AXIS2_PLACEMENT_3D ( 'NONE', #107, #63, #158 ) ;
#300 = DIMENSIONAL_EXPONENTS ( 1.000000000000000000, 0.000000000000000000, 0.000000000000000000, 0.000000000000000000, 0.000000000000000000, 0.000000000000000000, 0.000000000000000000 ) ;
#301 = CYLINDRICAL_SURFACE ( 'NONE', #131, 0.1875000000000000555 ) ;
#302 = LENGTH_MEASURE_WITH_UNIT ( LENGTH_MEASURE( 0.02539999999999999897 ), #277 );
#303 = PRESENTATION_LAYER_ASSIGNMENT (  '', '', ( #290 ) ) ;
#304 =( NAMED_UNIT ( * ) SI_UNIT ( $, .STERADIAN. ) SOLID_ANGLE_UNIT ( ) );
#305 =( NAMED_UNIT ( * ) SI_UNIT ( $, .STERADIAN. ) SOLID_ANGLE_UNIT ( ) );
#306 = LENGTH_MEASURE_WITH_UNIT ( LENGTH_MEASURE( 0.02539999999999999897 ), #133 );
#307 = CIRCLE ( 'NONE', #192, 0.1875000000000000555 ) ;
#308 = CARTESIAN_POINT ( 'NONE',  ( 0.000000000000000000, 0.000000000000000000, 0.000000000000000000 ) ) ;
#309 = SURFACE_STYLE_USAGE ( .BOTH. , #83 ) ;
ENDSEC;
END-ISO-10303-21;
