ISO-10303-21;
HEADER;
FILE_DESCRIPTION (( 'STEP AP214' ),
    '1' );
FILE_NAME ('59746.STEP',
    '2023-07-24T15:32:35',
    ( '' ),
    ( '' ),
    'SwSTEP 2.0',
    'SolidWorks 2023',
    '' );
FILE_SCHEMA (( 'AUTOMOTIVE_DESIGN' ));
ENDSEC;

DATA;
#1 = DIRECTION ( 'NONE',  ( -1.000000000000000000, 0.000000000000000000, 0.000000000000000000 ) ) ;
#2 = LINE ( 'NONE', #180, #135 ) ;
#3 = FILL_AREA_STYLE_COLOUR ( '', #298 ) ;
#4 = EDGE_CURVE ( 'NONE', #168, #52, #5, .T. ) ;
#5 = CIRCLE ( 'NONE', #101, 6.000000000000000000 ) ;
#6 = DIRECTION ( 'NONE',  ( -0.000000000000000000, -1.000000000000000000, -0.000000000000000000 ) ) ;
#7 = STYLED_ITEM ( 'NONE', ( #17 ), #97 ) ;
#8 = AXIS2_PLACEMENT_3D ( 'NONE', #370, #156, #152 ) ;
#9 = COLOUR_RGB ( '',0.7921568627450980005, 0.8196078431372548767, 0.9333333333333333481 ) ;
#10 = CIRCLE ( 'NONE', #75, 6.000000000000000000 ) ;
#11 = FILL_AREA_STYLE ('',( #202 ) ) ;
#12 = PRODUCT_DEFINITION ( 'UNKNOWN', '', #326, #149 ) ;
#13 = DIRECTION ( 'NONE',  ( 0.000000000000000000, 0.000000000000000000, -1.000000000000000000 ) ) ;
#14 = ORIENTED_EDGE ( 'NONE', *, *, #348, .T. ) ;
#15 = MECHANICAL_DESIGN_GEOMETRIC_PRESENTATION_REPRESENTATION (  '', ( #343 ), #42 ) ;
#16 = DIRECTION ( 'NONE',  ( -1.223542297630008506E-16, 1.000000000000000000, -0.000000000000000000 ) ) ;
#17 = PRESENTATION_STYLE_ASSIGNMENT (( #356 ) ) ;
#18 = VERTEX_POINT ( 'NONE', #290 ) ;
#19 = PRESENTATION_LAYER_ASSIGNMENT (  '', '', ( #360 ) ) ;
#20 = CARTESIAN_POINT ( 'NONE',  ( 7.347880794884119736E-16, 24.00000000000000000, 6.000000000000000000 ) ) ;
#21 = DIRECTION ( 'NONE',  ( -1.223542297630008506E-16, 1.000000000000000000, -0.000000000000000000 ) ) ;
#22 = ORIENTED_EDGE ( 'NONE', *, *, #204, .T. ) ;
#23 = FILL_AREA_STYLE_COLOUR ( '', #141 ) ;
#24 = ORIENTED_EDGE ( 'NONE', *, *, #28, .T. ) ;
#25 = STYLED_ITEM ( 'NONE', ( #76 ), #216 ) ;
#26 = FILL_AREA_STYLE_COLOUR ( '', #34 ) ;
#27 = SURFACE_STYLE_FILL_AREA ( #56 ) ;
#28 = EDGE_CURVE ( 'NONE', #52, #168, #87, .T. ) ;
#29 = DIRECTION ( 'NONE',  ( 0.000000000000000000, 0.000000000000000000, -1.000000000000000000 ) ) ;
#30 = DIRECTION ( 'NONE',  ( -0.000000000000000000, -1.000000000000000000, -0.000000000000000000 ) ) ;
#31 = UNCERTAINTY_MEASURE_WITH_UNIT (LENGTH_MEASURE( 1.000000000000000082E-05 ), #214, 'distance_accuracy_value', 'NONE');
#32 = CIRCLE ( 'NONE', #158, 6.000000000000000000 ) ;
#33 = DIRECTION ( 'NONE',  ( -1.000000000000000000, 0.000000000000000000, 0.000000000000000000 ) ) ;
#34 = COLOUR_RGB ( '',1.000000000000000000, 0.000000000000000000, 0.000000000000000000 ) ;
#35 = DIRECTION ( 'NONE',  ( 0.000000000000000000, 1.000000000000000000, 0.000000000000000000 ) ) ;
#36 = APPLICATION_CONTEXT ( 'automotive_design' ) ;
#37 = DIRECTION ( 'NONE',  ( 0.000000000000000000, 0.000000000000000000, -1.000000000000000000 ) ) ;
#38 = STYLED_ITEM ( 'NONE', ( #228 ), #266 ) ;
#39 = FILL_AREA_STYLE_COLOUR ( '', #186 ) ;
#40 = SURFACE_STYLE_FILL_AREA ( #11 ) ;
#41 = CARTESIAN_POINT ( 'NONE',  ( 0.000000000000000000, 0.000000000000000000, 0.000000000000000000 ) ) ;
#42 =( GEOMETRIC_REPRESENTATION_CONTEXT ( 3 ) GLOBAL_UNCERTAINTY_ASSIGNED_CONTEXT ( ( #58 ) ) GLOBAL_UNIT_ASSIGNED_CONTEXT ( ( #251, #59, #292 ) ) REPRESENTATION_CONTEXT ( 'NONE', 'WORKASPACE' ) );
#43 = CYLINDRICAL_SURFACE ( 'NONE', #133, 6.000000000000000000 ) ;
#44 = SURFACE_STYLE_USAGE ( .BOTH. , #307 ) ;
#45 = DIRECTION ( 'NONE',  ( -1.223542297630008506E-16, 1.000000000000000000, -0.000000000000000000 ) ) ;
#46 = EDGE_LOOP ( 'NONE', ( #110, #131, #81, #68 ) ) ;
#47 = PRESENTATION_LAYER_ASSIGNMENT (  '', '', ( #25 ) ) ;
#48 = FILL_AREA_STYLE ('',( #112 ) ) ;
#49 = EDGE_CURVE ( 'NONE', #248, #220, #63, .T. ) ;
#50 = ORIENTED_EDGE ( 'NONE', *, *, #211, .F. ) ;
#51 = EDGE_CURVE ( 'NONE', #248, #314, #32, .T. ) ;
#52 = VERTEX_POINT ( 'NONE', #66 ) ;
#53 =( NAMED_UNIT ( * ) SI_UNIT ( $, .STERADIAN. ) SOLID_ANGLE_UNIT ( ) );
#54 = FACE_OUTER_BOUND ( 'NONE', #239, .T. ) ;
#55 = PRESENTATION_LAYER_ASSIGNMENT (  '', '', ( #167 ) ) ;
#56 = FILL_AREA_STYLE ('',( #23 ) ) ;
#57 = DIRECTION ( 'NONE',  ( -1.000000000000000000, 0.000000000000000000, 0.000000000000000000 ) ) ;
#58 = UNCERTAINTY_MEASURE_WITH_UNIT (LENGTH_MEASURE( 1.000000000000000082E-05 ), #251, 'distance_accuracy_value', 'NONE');
#59 =( NAMED_UNIT ( * ) PLANE_ANGLE_UNIT ( ) SI_UNIT ( $, .RADIAN. ) );
#60 = SURFACE_SIDE_STYLE ('',( #268 ) ) ;
#61 = DIRECTION ( 'NONE',  ( -1.223542297630008506E-16, 1.000000000000000000, -0.000000000000000000 ) ) ;
#62 = DIRECTION ( 'NONE',  ( -1.223542297630008506E-16, 1.000000000000000000, -0.000000000000000000 ) ) ;
#63 = CIRCLE ( 'NONE', #153, 0.5000000000000004441 ) ;
#64 = DIRECTION ( 'NONE',  ( -0.000000000000000000, -1.000000000000000000, -0.000000000000000000 ) ) ;
#65 = AXIS2_PLACEMENT_3D ( 'NONE', #41, #276, #327 ) ;
#66 = CARTESIAN_POINT ( 'NONE',  ( 0.000000000000000000, 24.00000000000000000, -6.000000000000000000 ) ) ;
#67 = ADVANCED_FACE ( 'NONE', ( #85 ), #159, .T. ) ;
#68 = ORIENTED_EDGE ( 'NONE', *, *, #49, .F. ) ;
#69 = FACE_OUTER_BOUND ( 'NONE', #172, .T. ) ;
#70 = DIRECTION ( 'NONE',  ( 0.000000000000000000, 0.000000000000000000, 1.000000000000000000 ) ) ;
#71 = MECHANICAL_DESIGN_GEOMETRIC_PRESENTATION_REPRESENTATION (  '', ( #7 ), #256 ) ;
#72 = PRODUCT_CONTEXT ( 'NONE', #36, 'mechanical' ) ;
#73 = CARTESIAN_POINT ( 'NONE',  ( 4.770489558936219510E-15, 24.00000000000000000, 0.000000000000000000 ) ) ;
#74 = DIRECTION ( 'NONE',  ( -1.224646799147353454E-16, 0.000000000000000000, -1.000000000000000000 ) ) ;
#75 = AXIS2_PLACEMENT_3D ( 'NONE', #187, #64, #13 ) ;
#76 = PRESENTATION_STYLE_ASSIGNMENT (( #162 ) ) ;
#77 = EDGE_LOOP ( 'NONE', ( #227, #84 ) ) ;
#78 = EDGE_CURVE ( 'NONE', #137, #362, #368, .T. ) ;
#79 = ORIENTED_EDGE ( 'NONE', *, *, #348, .F. ) ;
#80 = ADVANCED_FACE ( 'NONE', ( #90 ), #321, .T. ) ;
#81 = ORIENTED_EDGE ( 'NONE', *, *, #246, .F. ) ;
#82 = ADVANCED_FACE ( 'NONE', ( #54 ), #347, .T. ) ;
#83 = AXIS2_PLACEMENT_3D ( 'NONE', #94, #209, #325 ) ;
#84 = ORIENTED_EDGE ( 'NONE', *, *, #111, .F. ) ;
#85 = FACE_OUTER_BOUND ( 'NONE', #46, .T. ) ;
#86 = CARTESIAN_POINT ( 'NONE',  ( 0.000000000000000000, 24.00000000000000000, 0.000000000000000000 ) ) ;
#87 = CIRCLE ( 'NONE', #196, 6.000000000000000000 ) ;
#88 = MECHANICAL_DESIGN_GEOMETRIC_PRESENTATION_REPRESENTATION (  '', ( #38 ), #300 ) ;
#89 = CYLINDRICAL_SURFACE ( 'NONE', #264, 5.999999999999998224 ) ;
#90 = FACE_OUTER_BOUND ( 'NONE', #304, .T. ) ;
#91 = UNCERTAINTY_MEASURE_WITH_UNIT (LENGTH_MEASURE( 1.000000000000000082E-05 ), #349, 'distance_accuracy_value', 'NONE');
#92 = SURFACE_SIDE_STYLE ('',( #27 ) ) ;
#93 = DIRECTION ( 'NONE',  ( -0.000000000000000000, -1.000000000000000000, -0.000000000000000000 ) ) ;
#94 = CARTESIAN_POINT ( 'NONE',  ( -1.469576158976823750E-15, 75.00000000000000000, 0.000000000000000000 ) ) ;
#95 = PRODUCT_RELATED_PRODUCT_CATEGORY ( 'part', '', ( #315 ) ) ;
#96 =( NAMED_UNIT ( * ) SI_UNIT ( $, .STERADIAN. ) SOLID_ANGLE_UNIT ( ) );
#97 = MANIFOLD_SOLID_BREP ( 'Revolve - Tool Body (Straight Shanked)', #249 ) ;
#98 =( NAMED_UNIT ( * ) PLANE_ANGLE_UNIT ( ) SI_UNIT ( $, .RADIAN. ) );
#99 =( NAMED_UNIT ( * ) SI_UNIT ( $, .STERADIAN. ) SOLID_ANGLE_UNIT ( ) );
#100 = CARTESIAN_POINT ( 'NONE',  ( 6.000000000000000000, 75.00000000000000000, 7.347880794884119736E-16 ) ) ;
#101 = AXIS2_PLACEMENT_3D ( 'NONE', #306, #281, #181 ) ;
#102 = AXIS2_PLACEMENT_3D ( 'NONE', #179, #173, #293 ) ;
#103 = SURFACE_STYLE_USAGE ( .BOTH. , #301 ) ;
#104 = CARTESIAN_POINT ( 'NONE',  ( -5.999999999999991118, 24.00000000000000000, 0.000000000000000000 ) ) ;
#105 =( LENGTH_UNIT ( ) NAMED_UNIT ( * ) SI_UNIT ( .MILLI., .METRE. ) );
#106 = CIRCLE ( 'NONE', #212, 0.5000000000000004441 ) ;
#107 = ORIENTED_EDGE ( 'NONE', *, *, #146, .F. ) ;
#108 = AXIS2_PLACEMENT_3D ( 'NONE', #322, #61, #33 ) ;
#109 =( LENGTH_UNIT ( ) NAMED_UNIT ( * ) SI_UNIT ( .MILLI., .METRE. ) );
#110 = ORIENTED_EDGE ( 'NONE', *, *, #51, .T. ) ;
#111 = EDGE_CURVE ( 'NONE', #362, #137, #263, .T. ) ;
#112 = FILL_AREA_STYLE_COLOUR ( '', #299 ) ;
#113 = EDGE_LOOP ( 'NONE', ( #189, #163, #338, #257 ) ) ;
#114 = ORIENTED_EDGE ( 'NONE', *, *, #274, .F. ) ;
#115 =( GEOMETRIC_REPRESENTATION_CONTEXT ( 3 ) GLOBAL_UNCERTAINTY_ASSIGNED_CONTEXT ( ( #296 ) ) GLOBAL_UNIT_ASSIGNED_CONTEXT ( ( #289, #231, #96 ) ) REPRESENTATION_CONTEXT ( 'NONE', 'WORKASPACE' ) );
#116 = CARTESIAN_POINT ( 'NONE',  ( 0.000000000000000000, 0.5000000000000000000, -5.500000000000000000 ) ) ;
#117 = PRODUCT_DEFINITION_SHAPE ( 'NONE', 'NONE',  #12 ) ;
#118 = CARTESIAN_POINT ( 'NONE',  ( 0.000000000000000000, 0.000000000000000000, 0.000000000000000000 ) ) ;
#119 = SURFACE_STYLE_USAGE ( .BOTH. , #60 ) ;
#120 = UNCERTAINTY_MEASURE_WITH_UNIT (LENGTH_MEASURE( 1.000000000000000082E-05 ), #105, 'distance_accuracy_value', 'NONE');
#121 = CARTESIAN_POINT ( 'NONE',  ( -1.469576158976823750E-15, 75.00000000000000000, 0.000000000000000000 ) ) ;
#122 = PRESENTATION_LAYER_ASSIGNMENT (  '', '', ( #130 ) ) ;
#123 = UNCERTAINTY_MEASURE_WITH_UNIT (LENGTH_MEASURE( 1.000000000000000082E-05 ), #109, 'distance_accuracy_value', 'NONE');
#124 = CARTESIAN_POINT ( 'NONE',  ( -1.469576158976823750E-15, 75.00000000000000000, 0.000000000000000000 ) ) ;
#125 = SURFACE_STYLE_FILL_AREA ( #160 ) ;
#126 = CLOSED_SHELL ( 'NONE', ( #339, #67, #82, #266, #218, #80 ) ) ;
#127 =( LENGTH_UNIT ( ) NAMED_UNIT ( * ) SI_UNIT ( .MILLI., .METRE. ) );
#128 =( NAMED_UNIT ( * ) PLANE_ANGLE_UNIT ( ) SI_UNIT ( $, .RADIAN. ) );
#129 =( NAMED_UNIT ( * ) SI_UNIT ( $, .STERADIAN. ) SOLID_ANGLE_UNIT ( ) );
#130 = STYLED_ITEM ( 'NONE', ( #148 ), #80 ) ;
#131 = ORIENTED_EDGE ( 'NONE', *, *, #211, .T. ) ;
#132 = CARTESIAN_POINT ( 'NONE',  ( 6.735557395310442023E-16, 0.5000000000000000000, 5.500000000000000000 ) ) ;
#133 = AXIS2_PLACEMENT_3D ( 'NONE', #234, #205, #29 ) ;
#134 = EDGE_LOOP ( 'NONE', ( #193, #223, #225, #79 ) ) ;
#135 = VECTOR ( 'NONE', #6, 1000.000000000000000 ) ;
#136 = DIRECTION ( 'NONE',  ( -0.000000000000000000, -1.000000000000000000, -0.000000000000000000 ) ) ;
#137 = VERTEX_POINT ( 'NONE', #104 ) ;
#138 =( NAMED_UNIT ( * ) PLANE_ANGLE_UNIT ( ) SI_UNIT ( $, .RADIAN. ) );
#139 = ORIENTED_EDGE ( 'NONE', *, *, #78, .T. ) ;
#140 = CARTESIAN_POINT ( 'NONE',  ( 0.000000000000000000, 0.000000000000000000, -6.000000000000000000 ) ) ;
#141 = COLOUR_RGB ( '',1.000000000000000000, 0.000000000000000000, 0.000000000000000000 ) ;
#142 = SURFACE_STYLE_USAGE ( .BOTH. , #92 ) ;
#143 = SURFACE_STYLE_USAGE ( .BOTH. , #323 ) ;
#144 = SURFACE_STYLE_FILL_AREA ( #206 ) ;
#145 = CARTESIAN_POINT ( 'NONE',  ( 0.000000000000000000, 0.000000000000000000, -5.500000000000000000 ) ) ;
#146 = EDGE_CURVE ( 'NONE', #137, #328, #340, .T. ) ;
#147 =( GEOMETRIC_REPRESENTATION_CONTEXT ( 3 ) GLOBAL_UNCERTAINTY_ASSIGNED_CONTEXT ( ( #265 ) ) GLOBAL_UNIT_ASSIGNED_CONTEXT ( ( #259, #151, #354 ) ) REPRESENTATION_CONTEXT ( 'NONE', 'WORKASPACE' ) );
#148 = PRESENTATION_STYLE_ASSIGNMENT (( #119 ) ) ;
#149 = PRODUCT_DEFINITION_CONTEXT ( 'detailed design', #203, 'design' ) ;
#150 = CARTESIAN_POINT ( 'NONE',  ( 7.347880794884119736E-16, 0.5000000000000000000, 6.000000000000000000 ) ) ;
#151 =( NAMED_UNIT ( * ) PLANE_ANGLE_UNIT ( ) SI_UNIT ( $, .RADIAN. ) );
#152 = DIRECTION ( 'NONE',  ( 1.000000000000000000, 1.223542297630008506E-16, 0.000000000000000000 ) ) ;
#153 = AXIS2_PLACEMENT_3D ( 'NONE', #116, #57, #229 ) ;
#154 = COLOUR_RGB ( '',1.000000000000000000, 0.000000000000000000, 0.000000000000000000 ) ;
#155 = MECHANICAL_DESIGN_GEOMETRIC_PRESENTATION_REPRESENTATION (  '', ( #360 ), #364 ) ;
#156 = DIRECTION ( 'NONE',  ( 1.223542297630008506E-16, -1.000000000000000000, 0.000000000000000000 ) ) ;
#157 = SURFACE_SIDE_STYLE ('',( #40 ) ) ;
#158 = AXIS2_PLACEMENT_3D ( 'NONE', #345, #93, #175 ) ;
#159 = TOROIDAL_SURFACE ( 'NONE', #369, 5.500000000000000000, 0.5000000000000002220 ) ;
#160 = FILL_AREA_STYLE ('',( #188 ) ) ;
#161 = ADVANCED_FACE ( 'NONE', ( #247 ), #245, .F. ) ;
#162 = SURFACE_STYLE_USAGE ( .BOTH. , #367 ) ;
#163 = ORIENTED_EDGE ( 'NONE', *, *, #111, .T. ) ;
#164 = PRESENTATION_STYLE_ASSIGNMENT (( #44 ) ) ;
#165 = EDGE_CURVE ( 'NONE', #362, #341, #334, .T. ) ;
#166 = CARTESIAN_POINT ( 'NONE',  ( 0.000000000000000000, 0.000000000000000000, 0.000000000000000000 ) ) ;
#167 = STYLED_ITEM ( 'NONE', ( #333 ), #82 ) ;
#168 = VERTEX_POINT ( 'NONE', #20 ) ;
#169 = ADVANCED_BREP_SHAPE_REPRESENTATION ( '59746', ( #216, #97, #222 ), #238 ) ;
#170 = DIRECTION ( 'NONE',  ( -1.000000000000000000, 0.000000000000000000, 0.000000000000000000 ) ) ;
#171 = FACE_OUTER_BOUND ( 'NONE', #342, .T. ) ;
#172 = EDGE_LOOP ( 'NONE', ( #24, #280, #311, #114 ) ) ;
#173 = DIRECTION ( 'NONE',  ( -0.000000000000000000, -1.000000000000000000, -0.000000000000000000 ) ) ;
#174 = PRESENTATION_LAYER_ASSIGNMENT (  '', '', ( #184 ) ) ;
#175 = DIRECTION ( 'NONE',  ( 0.000000000000000000, 0.000000000000000000, -1.000000000000000000 ) ) ;
#176 = MECHANICAL_DESIGN_GEOMETRIC_PRESENTATION_REPRESENTATION (  '', ( #130 ), #147 ) ;
#177 = VECTOR ( 'NONE', #324, 1000.000000000000000 ) ;
#178 = PRESENTATION_STYLE_ASSIGNMENT (( #143 ) ) ;
#179 = CARTESIAN_POINT ( 'NONE',  ( 0.000000000000000000, 0.5000000000000000000, 0.000000000000000000 ) ) ;
#180 = CARTESIAN_POINT ( 'NONE',  ( 7.347880794884119736E-16, 0.000000000000000000, 6.000000000000000000 ) ) ;
#181 = DIRECTION ( 'NONE',  ( 0.000000000000000000, 0.000000000000000000, -1.000000000000000000 ) ) ;
#182 = PRESENTATION_LAYER_ASSIGNMENT (  '', '', ( #343 ) ) ;
#183 = SURFACE_STYLE_FILL_AREA ( #215 ) ;
#184 = STYLED_ITEM ( 'NONE', ( #178 ), #67 ) ;
#185 = APPLICATION_PROTOCOL_DEFINITION ( 'draft international standard', 'automotive_design', 1998, #36 ) ;
#186 = COLOUR_RGB ( '',1.000000000000000000, 0.000000000000000000, 0.000000000000000000 ) ;
#187 = CARTESIAN_POINT ( 'NONE',  ( 0.000000000000000000, 0.5000000000000000000, 0.000000000000000000 ) ) ;
#188 = FILL_AREA_STYLE_COLOUR ( '', #9 ) ;
#189 = ORIENTED_EDGE ( 'NONE', *, *, #165, .F. ) ;
#190 = AXIS2_PLACEMENT_3D ( 'NONE', #194, #309, #278 ) ;
#191 = FILL_AREA_STYLE_COLOUR ( '', #154 ) ;
#192 = SURFACE_STYLE_FILL_AREA ( #279 ) ;
#193 = ORIENTED_EDGE ( 'NONE', *, *, #269, .F. ) ;
#194 = CARTESIAN_POINT ( 'NONE',  ( 4.770489558936219510E-15, 24.00000000000000000, 0.000000000000000000 ) ) ;
#195 = ORIENTED_EDGE ( 'NONE', *, *, #49, .T. ) ;
#196 = AXIS2_PLACEMENT_3D ( 'NONE', #86, #30, #207 ) ;
#197 = CIRCLE ( 'NONE', #221, 5.500000000000000000 ) ;
#198 = ORIENTED_EDGE ( 'NONE', *, *, #246, .T. ) ;
#199 = ORIENTED_EDGE ( 'NONE', *, *, #302, .T. ) ;
#200 = CARTESIAN_POINT ( 'NONE',  ( 0.000000000000000000, 24.00000000000000000, 0.000000000000000000 ) ) ;
#201 = DIRECTION ( 'NONE',  ( -1.223542297630008506E-16, 1.000000000000000000, -0.000000000000000000 ) ) ;
#202 = FILL_AREA_STYLE_COLOUR ( '', #359 ) ;
#203 = APPLICATION_CONTEXT ( 'automotive_design' ) ;
#204 = EDGE_CURVE ( 'NONE', #18, #220, #197, .T. ) ;
#205 = DIRECTION ( 'NONE',  ( -0.000000000000000000, -1.000000000000000000, -0.000000000000000000 ) ) ;
#206 = FILL_AREA_STYLE ('',( #3 ) ) ;
#207 = DIRECTION ( 'NONE',  ( 0.000000000000000000, 0.000000000000000000, -1.000000000000000000 ) ) ;
#208 = UNCERTAINTY_MEASURE_WITH_UNIT (LENGTH_MEASURE( 1.000000000000000082E-05 ), #270, 'distance_accuracy_value', 'NONE');
#209 = DIRECTION ( 'NONE',  ( -1.223542297630008506E-16, 1.000000000000000000, -0.000000000000000000 ) ) ;
#210 = AXIS2_PLACEMENT_3D ( 'NONE', #351, #62, #294 ) ;
#211 = EDGE_CURVE ( 'NONE', #314, #18, #106, .T. ) ;
#212 = AXIS2_PLACEMENT_3D ( 'NONE', #132, #363, #74 ) ;
#213 = APPLICATION_PROTOCOL_DEFINITION ( 'draft international standard', 'automotive_design', 1998, #203 ) ;
#214 =( LENGTH_UNIT ( ) NAMED_UNIT ( * ) SI_UNIT ( .MILLI., .METRE. ) );
#215 = FILL_AREA_STYLE ('',( #39 ) ) ;
#216 = MANIFOLD_SOLID_BREP ( 'Revolve - Cutting Edge', #126 ) ;
#217 = CARTESIAN_POINT ( 'NONE',  ( 0.000000000000000000, 0.000000000000000000, 0.000000000000000000 ) ) ;
#218 = ADVANCED_FACE ( 'NONE', ( #361 ), #43, .T. ) ;
#219 = CARTESIAN_POINT ( 'NONE',  ( -6.000000000000000000, 75.00000000000000000, 0.000000000000000000 ) ) ;
#220 = VERTEX_POINT ( 'NONE', #145 ) ;
#221 = AXIS2_PLACEMENT_3D ( 'NONE', #166, #136, #252 ) ;
#222 = AXIS2_PLACEMENT_3D ( 'NONE', #217, #70, #357 ) ;
#223 = ORIENTED_EDGE ( 'NONE', *, *, #4, .T. ) ;
#224 =( NAMED_UNIT ( * ) SI_UNIT ( $, .STERADIAN. ) SOLID_ANGLE_UNIT ( ) );
#225 = ORIENTED_EDGE ( 'NONE', *, *, #274, .T. ) ;
#226 = SURFACE_STYLE_FILL_AREA ( #48 ) ;
#227 = ORIENTED_EDGE ( 'NONE', *, *, #78, .F. ) ;
#228 = PRESENTATION_STYLE_ASSIGNMENT (( #142 ) ) ;
#229 = DIRECTION ( 'NONE',  ( 0.000000000000000000, 0.000000000000000000, 1.000000000000000000 ) ) ;
#230 =( NAMED_UNIT ( * ) PLANE_ANGLE_UNIT ( ) SI_UNIT ( $, .RADIAN. ) );
#231 =( NAMED_UNIT ( * ) PLANE_ANGLE_UNIT ( ) SI_UNIT ( $, .RADIAN. ) );
#232 = DIRECTION ( 'NONE',  ( -1.000000000000000000, 0.000000000000000000, 0.000000000000000000 ) ) ;
#233 = CARTESIAN_POINT ( 'NONE',  ( 0.000000000000000000, 0.5000000000000000000, 0.000000000000000000 ) ) ;
#234 = CARTESIAN_POINT ( 'NONE',  ( 0.000000000000000000, 0.000000000000000000, 0.000000000000000000 ) ) ;
#235 = DIRECTION ( 'NONE',  ( 0.000000000000000000, 0.000000000000000000, -1.000000000000000000 ) ) ;
#236 = PRESENTATION_STYLE_ASSIGNMENT (( #103 ) ) ;
#237 = SURFACE_SIDE_STYLE ('',( #125 ) ) ;
#238 =( GEOMETRIC_REPRESENTATION_CONTEXT ( 3 ) GLOBAL_UNCERTAINTY_ASSIGNED_CONTEXT ( ( #291 ) ) GLOBAL_UNIT_ASSIGNED_CONTEXT ( ( #127, #98, #129 ) ) REPRESENTATION_CONTEXT ( 'NONE', 'WORKASPACE' ) );
#239 = EDGE_LOOP ( 'NONE', ( #198, #22 ) ) ;
#240 =( NAMED_UNIT ( * ) SI_UNIT ( $, .STERADIAN. ) SOLID_ANGLE_UNIT ( ) );
#241 = SURFACE_STYLE_USAGE ( .BOTH. , #157 ) ;
#242 = MECHANICAL_DESIGN_GEOMETRIC_PRESENTATION_REPRESENTATION (  '', ( #184 ), #115 ) ;
#243 = MECHANICAL_DESIGN_GEOMETRIC_PRESENTATION_REPRESENTATION (  '', ( #25 ), #319 ) ;
#244 = CIRCLE ( 'NONE', #83, 6.000000000000001776 ) ;
#245 = PLANE ( 'NONE',  #190 ) ;
#246 = EDGE_CURVE ( 'NONE', #220, #18, #305, .T. ) ;
#247 = FACE_OUTER_BOUND ( 'NONE', #77, .T. ) ;
#248 = VERTEX_POINT ( 'NONE', #267 ) ;
#249 = CLOSED_SHELL ( 'NONE', ( #282, #161, #253, #310 ) ) ;
#250 = PRESENTATION_LAYER_ASSIGNMENT (  '', '', ( #38 ) ) ;
#251 =( LENGTH_UNIT ( ) NAMED_UNIT ( * ) SI_UNIT ( .MILLI., .METRE. ) );
#252 = DIRECTION ( 'NONE',  ( 0.000000000000000000, 0.000000000000000000, -1.000000000000000000 ) ) ;
#253 = ADVANCED_FACE ( 'NONE', ( #346 ), #352, .T. ) ;
#254 = ORIENTED_EDGE ( 'NONE', *, *, #28, .F. ) ;
#255 = PLANE ( 'NONE',  #8 ) ;
#256 =( GEOMETRIC_REPRESENTATION_CONTEXT ( 3 ) GLOBAL_UNCERTAINTY_ASSIGNED_CONTEXT ( ( #123 ) ) GLOBAL_UNIT_ASSIGNED_CONTEXT ( ( #109, #365, #224 ) ) REPRESENTATION_CONTEXT ( 'NONE', 'WORKASPACE' ) );
#257 = ORIENTED_EDGE ( 'NONE', *, *, #302, .F. ) ;
#258 = LINE ( 'NONE', #140, #177 ) ;
#259 =( LENGTH_UNIT ( ) NAMED_UNIT ( * ) SI_UNIT ( .MILLI., .METRE. ) );
#260 = DIRECTION ( 'NONE',  ( -0.000000000000000000, -1.000000000000000000, -0.000000000000000000 ) ) ;
#261 = DIRECTION ( 'NONE',  ( 0.000000000000000000, 0.000000000000000000, -1.000000000000000000 ) ) ;
#262 = FILL_AREA_STYLE ('',( #26 ) ) ;
#263 = CIRCLE ( 'NONE', #287, 5.999999999999996447 ) ;
#264 = AXIS2_PLACEMENT_3D ( 'NONE', #121, #353, #1 ) ;
#265 = UNCERTAINTY_MEASURE_WITH_UNIT (LENGTH_MEASURE( 1.000000000000000082E-05 ), #259, 'distance_accuracy_value', 'NONE');
#266 = ADVANCED_FACE ( 'NONE', ( #318 ), #288, .T. ) ;
#267 = CARTESIAN_POINT ( 'NONE',  ( 0.000000000000000000, 0.5000000000000000000, -6.000000000000000000 ) ) ;
#268 = SURFACE_STYLE_FILL_AREA ( #262 ) ;
#269 = EDGE_CURVE ( 'NONE', #168, #314, #2, .T. ) ;
#270 =( LENGTH_UNIT ( ) NAMED_UNIT ( * ) SI_UNIT ( .MILLI., .METRE. ) );
#271 = ORIENTED_EDGE ( 'NONE', *, *, #308, .F. ) ;
#272 = VECTOR ( 'NONE', #16, 1000.000000000000000 ) ;
#273 =( NAMED_UNIT ( * ) PLANE_ANGLE_UNIT ( ) SI_UNIT ( $, .RADIAN. ) );
#274 = EDGE_CURVE ( 'NONE', #52, #248, #258, .T. ) ;
#275 = CARTESIAN_POINT ( 'NONE',  ( -6.000000000000003553, 75.00000000000000000, 0.000000000000000000 ) ) ;
#276 = DIRECTION ( 'NONE',  ( 0.000000000000000000, -1.000000000000000000, -0.000000000000000000 ) ) ;
#277 = VECTOR ( 'NONE', #45, 1000.000000000000000 ) ;
#278 = DIRECTION ( 'NONE',  ( -1.000000000000000000, -1.223542297630008506E-16, 0.000000000000000000 ) ) ;
#279 = FILL_AREA_STYLE ('',( #191 ) ) ;
#280 = ORIENTED_EDGE ( 'NONE', *, *, #269, .T. ) ;
#281 = DIRECTION ( 'NONE',  ( -0.000000000000000000, -1.000000000000000000, -0.000000000000000000 ) ) ;
#282 = ADVANCED_FACE ( 'NONE', ( #286 ), #89, .T. ) ;
#283 = ORIENTED_EDGE ( 'NONE', *, *, #308, .T. ) ;
#284 = DIRECTION ( 'NONE',  ( -0.000000000000000000, -1.000000000000000000, -0.000000000000000000 ) ) ;
#285 = ORIENTED_EDGE ( 'NONE', *, *, #204, .F. ) ;
#286 = FACE_OUTER_BOUND ( 'NONE', #344, .T. ) ;
#287 = AXIS2_PLACEMENT_3D ( 'NONE', #73, #21, #170 ) ;
#288 = TOROIDAL_SURFACE ( 'NONE', #102, 5.500000000000000000, 0.5000000000000002220 ) ;
#289 =( LENGTH_UNIT ( ) NAMED_UNIT ( * ) SI_UNIT ( .MILLI., .METRE. ) );
#290 = CARTESIAN_POINT ( 'NONE',  ( 7.041719095097280880E-16, 0.000000000000000000, 5.500000000000000000 ) ) ;
#291 = UNCERTAINTY_MEASURE_WITH_UNIT (LENGTH_MEASURE( 1.000000000000000082E-05 ), #127, 'distance_accuracy_value', 'NONE');
#292 =( NAMED_UNIT ( * ) SI_UNIT ( $, .STERADIAN. ) SOLID_ANGLE_UNIT ( ) );
#293 = DIRECTION ( 'NONE',  ( 0.000000000000000000, 0.000000000000000000, -1.000000000000000000 ) ) ;
#294 = DIRECTION ( 'NONE',  ( -1.000000000000000000, 0.000000000000000000, 0.000000000000000000 ) ) ;
#295 =( GEOMETRIC_REPRESENTATION_CONTEXT ( 3 ) GLOBAL_UNCERTAINTY_ASSIGNED_CONTEXT ( ( #31 ) ) GLOBAL_UNIT_ASSIGNED_CONTEXT ( ( #214, #128, #99 ) ) REPRESENTATION_CONTEXT ( 'NONE', 'WORKASPACE' ) );
#296 = UNCERTAINTY_MEASURE_WITH_UNIT (LENGTH_MEASURE( 1.000000000000000082E-05 ), #289, 'distance_accuracy_value', 'NONE');
#297 = DIRECTION ( 'NONE',  ( -0.000000000000000000, -1.000000000000000000, -0.000000000000000000 ) ) ;
#298 = COLOUR_RGB ( '',1.000000000000000000, 0.000000000000000000, 0.000000000000000000 ) ;
#299 = COLOUR_RGB ( '',0.7921568627450980005, 0.8196078431372548767, 0.9333333333333333481 ) ;
#300 =( GEOMETRIC_REPRESENTATION_CONTEXT ( 3 ) GLOBAL_UNCERTAINTY_ASSIGNED_CONTEXT ( ( #91 ) ) GLOBAL_UNIT_ASSIGNED_CONTEXT ( ( #349, #230, #53 ) ) REPRESENTATION_CONTEXT ( 'NONE', 'WORKASPACE' ) );
#301 = SURFACE_SIDE_STYLE ('',( #183 ) ) ;
#302 = EDGE_CURVE ( 'NONE', #341, #328, #320, .T. ) ;
#303 = SHAPE_DEFINITION_REPRESENTATION ( #117, #169 ) ;
#304 = EDGE_LOOP ( 'NONE', ( #254, #366 ) ) ;
#305 = CIRCLE ( 'NONE', #350, 5.500000000000000000 ) ;
#306 = CARTESIAN_POINT ( 'NONE',  ( 0.000000000000000000, 24.00000000000000000, 0.000000000000000000 ) ) ;
#307 = SURFACE_SIDE_STYLE ('',( #192 ) ) ;
#308 = EDGE_CURVE ( 'NONE', #328, #341, #244, .T. ) ;
#309 = DIRECTION ( 'NONE',  ( -1.223542297630008506E-16, 1.000000000000000000, 0.000000000000000000 ) ) ;
#310 = ADVANCED_FACE ( 'NONE', ( #171 ), #255, .F. ) ;
#311 = ORIENTED_EDGE ( 'NONE', *, *, #51, .F. ) ;
#312 = PRESENTATION_LAYER_ASSIGNMENT (  '', '', ( #7 ) ) ;
#313 = CARTESIAN_POINT ( 'NONE',  ( 5.999999999999996447, 75.00000000000000000, 7.347880794884117764E-16 ) ) ;
#314 = VERTEX_POINT ( 'NONE', #150 ) ;
#315 = PRODUCT ( '59746', '59746', '', ( #72 ) ) ;
#316 = ORIENTED_EDGE ( 'NONE', *, *, #165, .T. ) ;
#317 = DIRECTION ( 'NONE',  ( 0.000000000000000000, -0.000000000000000000, 1.000000000000000000 ) ) ;
#318 = FACE_OUTER_BOUND ( 'NONE', #335, .T. ) ;
#319 =( GEOMETRIC_REPRESENTATION_CONTEXT ( 3 ) GLOBAL_UNCERTAINTY_ASSIGNED_CONTEXT ( ( #120 ) ) GLOBAL_UNIT_ASSIGNED_CONTEXT ( ( #105, #138, #337 ) ) REPRESENTATION_CONTEXT ( 'NONE', 'WORKASPACE' ) );
#320 = CIRCLE ( 'NONE', #108, 6.000000000000001776 ) ;
#321 = PLANE ( 'NONE',  #331 ) ;
#322 = CARTESIAN_POINT ( 'NONE',  ( -1.469576158976823750E-15, 75.00000000000000000, 0.000000000000000000 ) ) ;
#323 = SURFACE_SIDE_STYLE ('',( #144 ) ) ;
#324 = DIRECTION ( 'NONE',  ( -0.000000000000000000, -1.000000000000000000, -0.000000000000000000 ) ) ;
#325 = DIRECTION ( 'NONE',  ( -1.000000000000000000, 0.000000000000000000, 0.000000000000000000 ) ) ;
#326 = PRODUCT_DEFINITION_FORMATION_WITH_SPECIFIED_SOURCE ( 'ANY', '', #315, .NOT_KNOWN. ) ;
#327 = DIRECTION ( 'NONE',  ( 0.000000000000000000, 0.000000000000000000, -1.000000000000000000 ) ) ;
#328 = VERTEX_POINT ( 'NONE', #275 ) ;
#329 = CARTESIAN_POINT ( 'NONE',  ( 0.000000000000000000, 0.000000000000000000, 0.000000000000000000 ) ) ;
#330 = CARTESIAN_POINT ( 'NONE',  ( 6.000000000000000000, 24.00000000000000000, 7.347880794884120722E-16 ) ) ;
#331 = AXIS2_PLACEMENT_3D ( 'NONE', #200, #35, #317 ) ;
#332 = AXIS2_PLACEMENT_3D ( 'NONE', #329, #297, #37 ) ;
#333 = PRESENTATION_STYLE_ASSIGNMENT (( #241 ) ) ;
#334 = LINE ( 'NONE', #313, #277 ) ;
#335 = EDGE_LOOP ( 'NONE', ( #50, #14, #195, #285 ) ) ;
#336 = MECHANICAL_DESIGN_GEOMETRIC_PRESENTATION_REPRESENTATION (  '', ( #167 ), #295 ) ;
#337 =( NAMED_UNIT ( * ) SI_UNIT ( $, .STERADIAN. ) SOLID_ANGLE_UNIT ( ) );
#338 = ORIENTED_EDGE ( 'NONE', *, *, #146, .T. ) ;
#339 = ADVANCED_FACE ( 'NONE', ( #69 ), #358, .T. ) ;
#340 = LINE ( 'NONE', #219, #272 ) ;
#341 = VERTEX_POINT ( 'NONE', #100 ) ;
#342 = EDGE_LOOP ( 'NONE', ( #283, #199 ) ) ;
#343 = STYLED_ITEM ( 'NONE', ( #164 ), #218 ) ;
#344 = EDGE_LOOP ( 'NONE', ( #139, #316, #271, #107 ) ) ;
#345 = CARTESIAN_POINT ( 'NONE',  ( 0.000000000000000000, 0.5000000000000000000, 0.000000000000000000 ) ) ;
#346 = FACE_OUTER_BOUND ( 'NONE', #113, .T. ) ;
#347 = PLANE ( 'NONE',  #65 ) ;
#348 = EDGE_CURVE ( 'NONE', #314, #248, #10, .T. ) ;
#349 =( LENGTH_UNIT ( ) NAMED_UNIT ( * ) SI_UNIT ( .MILLI., .METRE. ) );
#350 = AXIS2_PLACEMENT_3D ( 'NONE', #118, #284, #261 ) ;
#351 = CARTESIAN_POINT ( 'NONE',  ( 4.770489558936219510E-15, 24.00000000000000000, 0.000000000000000000 ) ) ;
#352 = CYLINDRICAL_SURFACE ( 'NONE', #355, 5.999999999999998224 ) ;
#353 = DIRECTION ( 'NONE',  ( -1.223542297630008506E-16, 1.000000000000000000, -0.000000000000000000 ) ) ;
#354 =( NAMED_UNIT ( * ) SI_UNIT ( $, .STERADIAN. ) SOLID_ANGLE_UNIT ( ) );
#355 = AXIS2_PLACEMENT_3D ( 'NONE', #124, #201, #232 ) ;
#356 = SURFACE_STYLE_USAGE ( .BOTH. , #237 ) ;
#357 = DIRECTION ( 'NONE',  ( 1.000000000000000000, 0.000000000000000000, 0.000000000000000000 ) ) ;
#358 = CYLINDRICAL_SURFACE ( 'NONE', #332, 6.000000000000000000 ) ;
#359 = COLOUR_RGB ( '',1.000000000000000000, 0.000000000000000000, 0.000000000000000000 ) ;
#360 = STYLED_ITEM ( 'NONE', ( #236 ), #339 ) ;
#361 = FACE_OUTER_BOUND ( 'NONE', #134, .T. ) ;
#362 = VERTEX_POINT ( 'NONE', #330 ) ;
#363 = DIRECTION ( 'NONE',  ( 1.000000000000000000, 0.000000000000000000, -1.224646799147353207E-16 ) ) ;
#364 =( GEOMETRIC_REPRESENTATION_CONTEXT ( 3 ) GLOBAL_UNCERTAINTY_ASSIGNED_CONTEXT ( ( #208 ) ) GLOBAL_UNIT_ASSIGNED_CONTEXT ( ( #270, #273, #240 ) ) REPRESENTATION_CONTEXT ( 'NONE', 'WORKASPACE' ) );
#365 =( NAMED_UNIT ( * ) PLANE_ANGLE_UNIT ( ) SI_UNIT ( $, .RADIAN. ) );
#366 = ORIENTED_EDGE ( 'NONE', *, *, #4, .F. ) ;
#367 = SURFACE_SIDE_STYLE ('',( #226 ) ) ;
#368 = CIRCLE ( 'NONE', #210, 5.999999999999996447 ) ;
#369 = AXIS2_PLACEMENT_3D ( 'NONE', #233, #260, #235 ) ;
#370 = CARTESIAN_POINT ( 'NONE',  ( 6.000000000000000000, 75.00000000000000000, 0.000000000000000000 ) ) ;
ENDSEC;
END-ISO-10303-21;
