ISO-10303-21;
HEADER;
FILE_DESCRIPTION (( 'STEP AP214' ),
    '1' );
FILE_NAME ('84413.STEP',
    '2023-06-30T23:28:45',
    ( '' ),
    ( '' ),
    'SwSTEP 2.0',
    'SolidWorks 2023',
    '' );
FILE_SCHEMA (( 'AUTOMOTIVE_DESIGN' ));
ENDSEC;

DATA;
#1 = UNCERTAINTY_MEASURE_WITH_UNIT (LENGTH_MEASURE( 1.000000000000000082E-05 ), #177, 'distance_accuracy_value', 'NONE');
#2 = EDGE_CURVE ( 'NONE', #221, #327, #211, .T. ) ;
#3 = DIRECTION ( 'NONE',  ( -0.000000000000000000, -1.000000000000000000, -0.000000000000000000 ) ) ;
#4 =( CONVERSION_BASED_UNIT ( 'INCH', #312 ) LENGTH_UNIT ( ) NAMED_UNIT ( #180 ) );
#5 = VERTEX_POINT ( 'NONE', #286 ) ;
#6 = SURFACE_STYLE_FILL_AREA ( #112 ) ;
#7 = LENGTH_MEASURE_WITH_UNIT ( LENGTH_MEASURE( 0.02539999999999999897 ), #108 );
#8 = CARTESIAN_POINT ( 'NONE',  ( -1.148106374200643401E-17, 0.09374999999999998612, 0.000000000000000000 ) ) ;
#9 = CARTESIAN_POINT ( 'NONE',  ( -1.148106374200643401E-17, 0.09374999999999998612, 0.000000000000000000 ) ) ;
#10 = PLANE ( 'NONE',  #335 ) ;
#11 = VECTOR ( 'NONE', #3, 39.37007874015748143 ) ;
#12 = PRESENTATION_LAYER_ASSIGNMENT (  '', '', ( #95 ) ) ;
#13 = CARTESIAN_POINT ( 'NONE',  ( 2.143131898507868297E-16, 0.7500000000000001110, 0.000000000000000000 ) ) ;
#14 =( CONVERSION_BASED_UNIT ( 'INCH', #7 ) LENGTH_UNIT ( ) NAMED_UNIT ( #295 ) );
#15 = DIMENSIONAL_EXPONENTS ( 1.000000000000000000, 0.000000000000000000, 0.000000000000000000, 0.000000000000000000, 0.000000000000000000, 0.000000000000000000, 0.000000000000000000 ) ;
#16 = ORIENTED_EDGE ( 'NONE', *, *, #245, .T. ) ;
#17 = PRODUCT_DEFINITION_FORMATION_WITH_SPECIFIED_SOURCE ( 'ANY', '', #250, .NOT_KNOWN. ) ;
#18 = PRESENTATION_STYLE_ASSIGNMENT (( #232 ) ) ;
#19 = EDGE_LOOP ( 'NONE', ( #96, #24 ) ) ;
#20 = ADVANCED_FACE ( 'NONE', ( #291 ), #257, .F. ) ;
#21 = SURFACE_STYLE_FILL_AREA ( #128 ) ;
#22 = ORIENTED_EDGE ( 'NONE', *, *, #243, .T. ) ;
#23 = VERTEX_POINT ( 'NONE', #339 ) ;
#24 = ORIENTED_EDGE ( 'NONE', *, *, #208, .F. ) ;
#25 =( NAMED_UNIT ( * ) SI_UNIT ( $, .STERADIAN. ) SOLID_ANGLE_UNIT ( ) );
#26 = CYLINDRICAL_SURFACE ( 'NONE', #48, 0.09374999999999984734 ) ;
#27 = EDGE_CURVE ( 'NONE', #362, #327, #354, .T. ) ;
#28 = SURFACE_STYLE_USAGE ( .BOTH. , #78 ) ;
#29 =( NAMED_UNIT ( * ) SI_UNIT ( $, .STERADIAN. ) SOLID_ANGLE_UNIT ( ) );
#30 = CARTESIAN_POINT ( 'NONE',  ( 0.000000000000000000, 0.7500000000000001110, -0.09374999999999991673 ) ) ;
#31 = CARTESIAN_POINT ( 'NONE',  ( -0.09374999999999991673, 2.500000000000000000, 0.000000000000000000 ) ) ;
#32 = MECHANICAL_DESIGN_GEOMETRIC_PRESENTATION_REPRESENTATION (  '', ( #189 ), #71 ) ;
#33 = LENGTH_MEASURE_WITH_UNIT ( LENGTH_MEASURE( 0.02539999999999999897 ), #318 );
#34 = SURFACE_STYLE_USAGE ( .BOTH. , #201 ) ;
#35 =( CONVERSION_BASED_UNIT ( 'INCH', #296 ) LENGTH_UNIT ( ) NAMED_UNIT ( #324 ) );
#36 = DIMENSIONAL_EXPONENTS ( 1.000000000000000000, 0.000000000000000000, 0.000000000000000000, 0.000000000000000000, 0.000000000000000000, 0.000000000000000000, 0.000000000000000000 ) ;
#37 = CARTESIAN_POINT ( 'NONE',  ( -6.123233995736766036E-17, 2.500000000000000000, 0.000000000000000000 ) ) ;
#38 = PRESENTATION_LAYER_ASSIGNMENT (  '', '', ( #193 ) ) ;
#39 = PRESENTATION_LAYER_ASSIGNMENT (  '', '', ( #189 ) ) ;
#40 = LENGTH_MEASURE_WITH_UNIT ( LENGTH_MEASURE( 0.02539999999999999897 ), #325 );
#41 = PRESENTATION_LAYER_ASSIGNMENT (  '', '', ( #253 ) ) ;
#42 = EDGE_CURVE ( 'NONE', #70, #156, #217, .T. ) ;
#43 = ORIENTED_EDGE ( 'NONE', *, *, #42, .T. ) ;
#44 = CYLINDRICAL_SURFACE ( 'NONE', #342, 0.09374999999999984734 ) ;
#45 = FACE_OUTER_BOUND ( 'NONE', #164, .T. ) ;
#46 = ORIENTED_EDGE ( 'NONE', *, *, #320, .F. ) ;
#47 = CYLINDRICAL_SURFACE ( 'NONE', #331, 0.09374999999999995837 ) ;
#48 = AXIS2_PLACEMENT_3D ( 'NONE', #84, #372, #76 ) ;
#49 = EDGE_LOOP ( 'NONE', ( #233, #278, #363, #135, #280 ) ) ;
#50 = VECTOR ( 'NONE', #87, 39.37007874015748143 ) ;
#51 = DIRECTION ( 'NONE',  ( 0.000000000000000000, 0.000000000000000000, -1.000000000000000000 ) ) ;
#52 = SURFACE_SIDE_STYLE ('',( #74 ) ) ;
#53 = SURFACE_STYLE_FILL_AREA ( #290 ) ;
#54 = EDGE_CURVE ( 'NONE', #327, #185, #302, .T. ) ;
#55 = PRODUCT_DEFINITION_CONTEXT ( 'detailed design', #281, 'design' ) ;
#56 = AXIS2_PLACEMENT_3D ( 'NONE', #166, #231, #289 ) ;
#57 =( GEOMETRIC_REPRESENTATION_CONTEXT ( 3 ) GLOBAL_UNCERTAINTY_ASSIGNED_CONTEXT ( ( #230 ) ) GLOBAL_UNIT_ASSIGNED_CONTEXT ( ( #102, #366, #25 ) ) REPRESENTATION_CONTEXT ( 'NONE', 'WORKASPACE' ) );
#58 = PRESENTATION_STYLE_ASSIGNMENT (( #209 ) ) ;
#59 = SURFACE_STYLE_FILL_AREA ( #107 ) ;
#60 = DIRECTION ( 'NONE',  ( -0.000000000000000000, -1.000000000000000000, -0.000000000000000000 ) ) ;
#61 =( NAMED_UNIT ( * ) SI_UNIT ( $, .STERADIAN. ) SOLID_ANGLE_UNIT ( ) );
#62 = CARTESIAN_POINT ( 'NONE',  ( 1.148106374200642938E-17, 0.7500000000000001110, 0.09374999999999991673 ) ) ;
#63 = CARTESIAN_POINT ( 'NONE',  ( 0.000000000000000000, 0.09375000000000001388, 0.000000000000000000 ) ) ;
#64 =( NAMED_UNIT ( * ) PLANE_ANGLE_UNIT ( ) SI_UNIT ( $, .RADIAN. ) );
#65 = CARTESIAN_POINT ( 'NONE',  ( 0.000000000000000000, 0.7500000000000001110, 0.000000000000000000 ) ) ;
#66 = DIRECTION ( 'NONE',  ( 1.000000000000000000, 0.000000000000000000, 0.000000000000000000 ) ) ;
#67 = FILL_AREA_STYLE_COLOUR ( '', #252 ) ;
#68 = ADVANCED_FACE ( 'NONE', ( #337 ), #26, .T. ) ;
#69 = PRODUCT_CONTEXT ( 'NONE', #268, 'mechanical' ) ;
#70 = VERTEX_POINT ( 'NONE', #192 ) ;
#71 =( GEOMETRIC_REPRESENTATION_CONTEXT ( 3 ) GLOBAL_UNCERTAINTY_ASSIGNED_CONTEXT ( ( #1 ) ) GLOBAL_UNIT_ASSIGNED_CONTEXT ( ( #177, #123, #99 ) ) REPRESENTATION_CONTEXT ( 'NONE', 'WORKASPACE' ) );
#72 = FILL_AREA_STYLE_COLOUR ( '', #298 ) ;
#73 = ORIENTED_EDGE ( 'NONE', *, *, #269, .T. ) ;
#74 = SURFACE_STYLE_FILL_AREA ( #285 ) ;
#75 =( GEOMETRIC_REPRESENTATION_CONTEXT ( 3 ) GLOBAL_UNCERTAINTY_ASSIGNED_CONTEXT ( ( #227 ) ) GLOBAL_UNIT_ASSIGNED_CONTEXT ( ( #113, #346, #206 ) ) REPRESENTATION_CONTEXT ( 'NONE', 'WORKASPACE' ) );
#76 = DIRECTION ( 'NONE',  ( -1.000000000000000000, 0.000000000000000000, 0.000000000000000000 ) ) ;
#77 = FILL_AREA_STYLE_COLOUR ( '', #293 ) ;
#78 = SURFACE_SIDE_STYLE ('',( #59 ) ) ;
#79 = CARTESIAN_POINT ( 'NONE',  ( 0.000000000000000000, 0.09375000000000001388, 0.000000000000000000 ) ) ;
#80 = STYLED_ITEM ( 'NONE', ( #147 ), #119 ) ;
#81 = UNCERTAINTY_MEASURE_WITH_UNIT (LENGTH_MEASURE( 1.000000000000000082E-05 ), #149, 'distance_accuracy_value', 'NONE');
#82 = SURFACE_SIDE_STYLE ('',( #139 ) ) ;
#83 = CYLINDRICAL_SURFACE ( 'NONE', #111, 0.09374999999999995837 ) ;
#84 = CARTESIAN_POINT ( 'NONE',  ( -6.123233995736766036E-17, 2.500000000000000000, 0.000000000000000000 ) ) ;
#85 = LINE ( 'NONE', #31, #225 ) ;
#86 = SURFACE_SIDE_STYLE ('',( #6 ) ) ;
#87 = DIRECTION ( 'NONE',  ( -0.000000000000000000, -1.000000000000000000, -0.000000000000000000 ) ) ;
#88 = CARTESIAN_POINT ( 'NONE',  ( 0.09374999999999979183, 2.500000000000000000, 1.148106374200641860E-17 ) ) ;
#89 = AXIS2_PLACEMENT_3D ( 'NONE', #63, #267, #297 ) ;
#90 = COLOUR_RGB ( '',1.000000000000000000, 0.000000000000000000, 0.000000000000000000 ) ;
#91 = EDGE_CURVE ( 'NONE', #276, #362, #264, .T. ) ;
#92 = DIRECTION ( 'NONE',  ( 1.000000000000000000, 0.000000000000000000, 0.000000000000000000 ) ) ;
#93 =( NAMED_UNIT ( * ) SI_UNIT ( $, .STERADIAN. ) SOLID_ANGLE_UNIT ( ) );
#94 = MECHANICAL_DESIGN_GEOMETRIC_PRESENTATION_REPRESENTATION (  '', ( #193 ), #308 ) ;
#95 = STYLED_ITEM ( 'NONE', ( #18 ), #351 ) ;
#96 = ORIENTED_EDGE ( 'NONE', *, *, #212, .F. ) ;
#97 = FACE_OUTER_BOUND ( 'NONE', #254, .T. ) ;
#98 = PRESENTATION_LAYER_ASSIGNMENT (  '', '', ( #172 ) ) ;
#99 =( NAMED_UNIT ( * ) SI_UNIT ( $, .STERADIAN. ) SOLID_ANGLE_UNIT ( ) );
#100 = AXIS2_PLACEMENT_3D ( 'NONE', #314, #368, #344 ) ;
#101 = MANIFOLD_SOLID_BREP ( 'Revolve - Cutting Edge', #141 ) ;
#102 =( CONVERSION_BASED_UNIT ( 'INCH', #361 ) LENGTH_UNIT ( ) NAMED_UNIT ( #182 ) );
#103 = ORIENTED_EDGE ( 'NONE', *, *, #196, .T. ) ;
#104 = EDGE_LOOP ( 'NONE', ( #304, #43, #332, #247 ) ) ;
#105 = AXIS2_PLACEMENT_3D ( 'NONE', #13, #155, #277 ) ;
#106 = ADVANCED_FACE ( 'NONE', ( #45 ), #311, .F. ) ;
#107 = FILL_AREA_STYLE ('',( #317 ) ) ;
#108 =( LENGTH_UNIT ( ) NAMED_UNIT ( * ) SI_UNIT ( $, .METRE. ) );
#109 = DIRECTION ( 'NONE',  ( 0.000000000000000000, 0.000000000000000000, 1.000000000000000000 ) ) ;
#110 = MECHANICAL_DESIGN_GEOMETRIC_PRESENTATION_REPRESENTATION (  '', ( #80 ), #75 ) ;
#111 = AXIS2_PLACEMENT_3D ( 'NONE', #333, #256, #369 ) ;
#112 = FILL_AREA_STYLE ('',( #240 ) ) ;
#113 =( CONVERSION_BASED_UNIT ( 'INCH', #299 ) LENGTH_UNIT ( ) NAMED_UNIT ( #151 ) );
#114 = DIRECTION ( 'NONE',  ( -1.574545884618025482E-16, 1.000000000000000000, -0.000000000000000000 ) ) ;
#115 = FILL_AREA_STYLE_COLOUR ( '', #125 ) ;
#116 = DIRECTION ( 'NONE',  ( -0.000000000000000000, -1.000000000000000000, -0.000000000000000000 ) ) ;
#117 = DIRECTION ( 'NONE',  ( 0.000000000000000000, 0.000000000000000000, 1.000000000000000000 ) ) ;
#118 = MECHANICAL_DESIGN_GEOMETRIC_PRESENTATION_REPRESENTATION (  '', ( #271 ), #179 ) ;
#119 = ADVANCED_FACE ( 'NONE', ( #210 ), #10, .T. ) ;
#120 = PRODUCT_RELATED_PRODUCT_CATEGORY ( 'part', '', ( #250 ) ) ;
#121 = DIRECTION ( 'NONE',  ( 0.000000000000000000, -0.000000000000000000, 1.000000000000000000 ) ) ;
#122 = ADVANCED_BREP_SHAPE_REPRESENTATION ( '84413', ( #101, #351, #360 ), #150 ) ;
#123 =( NAMED_UNIT ( * ) PLANE_ANGLE_UNIT ( ) SI_UNIT ( $, .RADIAN. ) );
#124 = CARTESIAN_POINT ( 'NONE',  ( -0.09374999999999998612, 0.09375000000000001388, 1.148106374200643247E-17 ) ) ;
#125 = COLOUR_RGB ( '',0.7921568627450980005, 0.8196078431372548767, 0.9333333333333333481 ) ;
#126 = ORIENTED_EDGE ( 'NONE', *, *, #262, .T. ) ;
#127 = DIRECTION ( 'NONE',  ( -1.574545884618025482E-16, 1.000000000000000000, -0.000000000000000000 ) ) ;
#128 = FILL_AREA_STYLE ('',( #72 ) ) ;
#129 = AXIS2_PLACEMENT_3D ( 'NONE', #215, #133, #191 ) ;
#130 = ORIENTED_EDGE ( 'NONE', *, *, #262, .F. ) ;
#131 = DIRECTION ( 'NONE',  ( -1.000000000000000000, 0.000000000000000000, 0.000000000000000000 ) ) ;
#132 = UNCERTAINTY_MEASURE_WITH_UNIT (LENGTH_MEASURE( 1.000000000000000082E-05 ), #353, 'distance_accuracy_value', 'NONE');
#133 = DIRECTION ( 'NONE',  ( 1.224646799147353207E-16, -0.000000000000000000, 1.000000000000000000 ) ) ;
#134 = CARTESIAN_POINT ( 'NONE',  ( 0.000000000000000000, 0.000000000000000000, -0.09374999999999995837 ) ) ;
#135 = ORIENTED_EDGE ( 'NONE', *, *, #54, .F. ) ;
#136 = PRODUCT_DEFINITION ( 'UNKNOWN', '', #17, #55 ) ;
#137 = UNCERTAINTY_MEASURE_WITH_UNIT (LENGTH_MEASURE( 1.000000000000000082E-05 ), #4, 'distance_accuracy_value', 'NONE');
#138 = SURFACE_SIDE_STYLE ('',( #53 ) ) ;
#139 = SURFACE_STYLE_FILL_AREA ( #239 ) ;
#140 = FACE_OUTER_BOUND ( 'NONE', #338, .T. ) ;
#141 = CLOSED_SHELL ( 'NONE', ( #301, #238, #119, #229, #175 ) ) ;
#142 = CIRCLE ( 'NONE', #194, 0.09374999999999991673 ) ;
#143 =( LENGTH_UNIT ( ) NAMED_UNIT ( * ) SI_UNIT ( $, .METRE. ) );
#144 = DIRECTION ( 'NONE',  ( -1.000000000000000000, 0.000000000000000000, 0.000000000000000000 ) ) ;
#145 = EDGE_CURVE ( 'NONE', #158, #5, #348, .T. ) ;
#146 = SURFACE_STYLE_USAGE ( .BOTH. , #138 ) ;
#147 = PRESENTATION_STYLE_ASSIGNMENT (( #34 ) ) ;
#148 = AXIS2_PLACEMENT_3D ( 'NONE', #190, #163, #261 ) ;
#149 =( CONVERSION_BASED_UNIT ( 'INCH', #40 ) LENGTH_UNIT ( ) NAMED_UNIT ( #36 ) );
#150 =( GEOMETRIC_REPRESENTATION_CONTEXT ( 3 ) GLOBAL_UNCERTAINTY_ASSIGNED_CONTEXT ( ( #81 ) ) GLOBAL_UNIT_ASSIGNED_CONTEXT ( ( #149, #244, #356 ) ) REPRESENTATION_CONTEXT ( 'NONE', 'WORKASPACE' ) );
#151 = DIMENSIONAL_EXPONENTS ( 1.000000000000000000, 0.000000000000000000, 0.000000000000000000, 0.000000000000000000, 0.000000000000000000, 0.000000000000000000, 0.000000000000000000 ) ;
#152 = AXIS2_PLACEMENT_3D ( 'NONE', #9, #109, #92 ) ;
#153 = AXIS2_PLACEMENT_3D ( 'NONE', #305, #364, #315 ) ;
#154 = ORIENTED_EDGE ( 'NONE', *, *, #284, .F. ) ;
#155 = DIRECTION ( 'NONE',  ( -1.574545884618025482E-16, 1.000000000000000000, 0.000000000000000000 ) ) ;
#156 = VERTEX_POINT ( 'NONE', #157 ) ;
#157 = CARTESIAN_POINT ( 'NONE',  ( -0.09374999999999950040, 0.7499999999999998890, 0.000000000000000000 ) ) ;
#158 = VERTEX_POINT ( 'NONE', #357 ) ;
#159 = PRESENTATION_LAYER_ASSIGNMENT (  '', '', ( #271 ) ) ;
#160 = FILL_AREA_STYLE_COLOUR ( '', #241 ) ;
#161 = ORIENTED_EDGE ( 'NONE', *, *, #54, .T. ) ;
#162 = DIRECTION ( 'NONE',  ( -1.000000000000000000, 0.000000000000000000, 0.000000000000000000 ) ) ;
#163 = DIRECTION ( 'NONE',  ( 1.574545884618025482E-16, -1.000000000000000000, 0.000000000000000000 ) ) ;
#164 = EDGE_LOOP ( 'NONE', ( #367, #283 ) ) ;
#165 = AXIS2_PLACEMENT_3D ( 'NONE', #8, #237, #347 ) ;
#166 = CARTESIAN_POINT ( 'NONE',  ( 2.143131898507868297E-16, 0.7499999999999998890, 0.000000000000000000 ) ) ;
#167 = FACE_OUTER_BOUND ( 'NONE', #187, .T. ) ;
#168 = SURFACE_STYLE_USAGE ( .BOTH. , #52 ) ;
#169 = DIRECTION ( 'NONE',  ( 0.000000000000000000, 0.000000000000000000, -1.000000000000000000 ) ) ;
#170 = PRESENTATION_STYLE_ASSIGNMENT (( #28 ) ) ;
#171 = DIMENSIONAL_EXPONENTS ( 1.000000000000000000, 0.000000000000000000, 0.000000000000000000, 0.000000000000000000, 0.000000000000000000, 0.000000000000000000, 0.000000000000000000 ) ;
#172 = STYLED_ITEM ( 'NONE', ( #306 ), #175 ) ;
#173 = CIRCLE ( 'NONE', #213, 0.09375000000000001388 ) ;
#174 = DIRECTION ( 'NONE',  ( -1.574545884618025482E-16, 1.000000000000000000, -0.000000000000000000 ) ) ;
#175 = ADVANCED_FACE ( 'NONE', ( #97 ), #316, .T. ) ;
#176 = DIRECTION ( 'NONE',  ( 0.000000000000000000, 1.000000000000000000, 0.000000000000000000 ) ) ;
#177 =( CONVERSION_BASED_UNIT ( 'INCH', #33 ) LENGTH_UNIT ( ) NAMED_UNIT ( #15 ) );
#178 =( LENGTH_UNIT ( ) NAMED_UNIT ( * ) SI_UNIT ( $, .METRE. ) );
#179 =( GEOMETRIC_REPRESENTATION_CONTEXT ( 3 ) GLOBAL_UNCERTAINTY_ASSIGNED_CONTEXT ( ( #137 ) ) GLOBAL_UNIT_ASSIGNED_CONTEXT ( ( #4, #340, #29 ) ) REPRESENTATION_CONTEXT ( 'NONE', 'WORKASPACE' ) );
#180 = DIMENSIONAL_EXPONENTS ( 1.000000000000000000, 0.000000000000000000, 0.000000000000000000, 0.000000000000000000, 0.000000000000000000, 0.000000000000000000, 0.000000000000000000 ) ;
#181 = SHAPE_DEFINITION_REPRESENTATION ( #220, #122 ) ;
#182 = DIMENSIONAL_EXPONENTS ( 1.000000000000000000, 0.000000000000000000, 0.000000000000000000, 0.000000000000000000, 0.000000000000000000, 0.000000000000000000, 0.000000000000000000 ) ;
#183 = UNCERTAINTY_MEASURE_WITH_UNIT (LENGTH_MEASURE( 1.000000000000000082E-05 ), #14, 'distance_accuracy_value', 'NONE');
#184 = CIRCLE ( 'NONE', #153, 0.09374999999999972244 ) ;
#185 = VERTEX_POINT ( 'NONE', #186 ) ;
#186 = CARTESIAN_POINT ( 'NONE',  ( 0.09374999999999998612, 0.09375000000000001388, 0.000000000000000000 ) ) ;
#187 = EDGE_LOOP ( 'NONE', ( #198, #22, #204, #103 ) ) ;
#188 = PRESENTATION_LAYER_ASSIGNMENT (  '', '', ( #80 ) ) ;
#189 = STYLED_ITEM ( 'NONE', ( #58 ), #229 ) ;
#190 = CARTESIAN_POINT ( 'NONE',  ( 0.09374999999999994449, 2.500000000000000000, 0.000000000000000000 ) ) ;
#191 = DIRECTION ( 'NONE',  ( 1.000000000000000000, 0.000000000000000000, -1.224646799147353207E-16 ) ) ;
#192 = CARTESIAN_POINT ( 'NONE',  ( 0.09374999999999994449, 0.7499999999999998890, 1.148106374200642938E-17 ) ) ;
#193 = STYLED_ITEM ( 'NONE', ( #170 ), #101 ) ;
#194 = AXIS2_PLACEMENT_3D ( 'NONE', #343, #116, #236 ) ;
#195 = DIRECTION ( 'NONE',  ( -0.000000000000000000, -1.000000000000000000, -0.000000000000000000 ) ) ;
#196 = EDGE_CURVE ( 'NONE', #185, #276, #260, .T. ) ;
#197 = CARTESIAN_POINT ( 'NONE',  ( 1.148106374200643555E-17, 0.09375000000000001388, 0.09374999999999998612 ) ) ;
#198 = ORIENTED_EDGE ( 'NONE', *, *, #91, .T. ) ;
#199 = CARTESIAN_POINT ( 'NONE',  ( 0.000000000000000000, 0.09375000000000001388, 0.000000000000000000 ) ) ;
#200 = LINE ( 'NONE', #88, #265 ) ;
#201 = SURFACE_SIDE_STYLE ('',( #234 ) ) ;
#202 = CARTESIAN_POINT ( 'NONE',  ( -6.123233995736766036E-17, 2.500000000000000000, 0.000000000000000000 ) ) ;
#203 = CARTESIAN_POINT ( 'NONE',  ( 0.000000000000000000, 0.09375000000000001388, -0.09374999999999998612 ) ) ;
#204 = ORIENTED_EDGE ( 'NONE', *, *, #245, .F. ) ;
#205 =( LENGTH_UNIT ( ) NAMED_UNIT ( * ) SI_UNIT ( $, .METRE. ) );
#206 =( NAMED_UNIT ( * ) SI_UNIT ( $, .STERADIAN. ) SOLID_ANGLE_UNIT ( ) );
#207 = SPHERICAL_SURFACE ( 'NONE', #165, 0.09374999999999998612 ) ;
#208 = EDGE_CURVE ( 'NONE', #329, #221, #142, .T. ) ;
#209 = SURFACE_STYLE_USAGE ( .BOTH. , #86 ) ;
#210 = FACE_OUTER_BOUND ( 'NONE', #19, .T. ) ;
#211 = LINE ( 'NONE', #134, #11 ) ;
#212 = EDGE_CURVE ( 'NONE', #221, #329, #355, .T. ) ;
#213 = AXIS2_PLACEMENT_3D ( 'NONE', #373, #127, #131 ) ;
#214 = APPLICATION_PROTOCOL_DEFINITION ( 'draft international standard', 'automotive_design', 1998, #268 ) ;
#215 = CARTESIAN_POINT ( 'NONE',  ( -1.148106374200643401E-17, 0.09374999999999998612, 0.000000000000000000 ) ) ;
#216 = ORIENTED_EDGE ( 'NONE', *, *, #310, .T. ) ;
#217 = CIRCLE ( 'NONE', #56, 0.09374999999999972244 ) ;
#218 =( GEOMETRIC_REPRESENTATION_CONTEXT ( 3 ) GLOBAL_UNCERTAINTY_ASSIGNED_CONTEXT ( ( #132 ) ) GLOBAL_UNIT_ASSIGNED_CONTEXT ( ( #353, #272, #93 ) ) REPRESENTATION_CONTEXT ( 'NONE', 'WORKASPACE' ) );
#219 = SURFACE_SIDE_STYLE ('',( #21 ) ) ;
#220 = PRODUCT_DEFINITION_SHAPE ( 'NONE', 'NONE',  #136 ) ;
#221 = VERTEX_POINT ( 'NONE', #30 ) ;
#222 = DIRECTION ( 'NONE',  ( 0.000000000000000000, 0.000000000000000000, -1.000000000000000000 ) ) ;
#223 = ORIENTED_EDGE ( 'NONE', *, *, #145, .T. ) ;
#224 = DIRECTION ( 'NONE',  ( -0.000000000000000000, -1.000000000000000000, -0.000000000000000000 ) ) ;
#225 = VECTOR ( 'NONE', #174, 39.37007874015748143 ) ;
#226 = DIRECTION ( 'NONE',  ( 0.000000000000000000, 0.000000000000000000, -1.000000000000000000 ) ) ;
#227 = UNCERTAINTY_MEASURE_WITH_UNIT (LENGTH_MEASURE( 1.000000000000000082E-05 ), #113, 'distance_accuracy_value', 'NONE');
#228 = ORIENTED_EDGE ( 'NONE', *, *, #27, .F. ) ;
#229 = ADVANCED_FACE ( 'NONE', ( #140 ), #83, .T. ) ;
#230 = UNCERTAINTY_MEASURE_WITH_UNIT (LENGTH_MEASURE( 1.000000000000000082E-05 ), #102, 'distance_accuracy_value', 'NONE');
#231 = DIRECTION ( 'NONE',  ( -1.574545884618025482E-16, 1.000000000000000000, -0.000000000000000000 ) ) ;
#232 = SURFACE_STYLE_USAGE ( .BOTH. , #82 ) ;
#233 = ORIENTED_EDGE ( 'NONE', *, *, #212, .T. ) ;
#234 = SURFACE_STYLE_FILL_AREA ( #294 ) ;
#235 = CARTESIAN_POINT ( 'NONE',  ( 1.148106374200643092E-17, 0.000000000000000000, 0.09374999999999995837 ) ) ;
#236 = DIRECTION ( 'NONE',  ( 0.000000000000000000, 0.000000000000000000, -1.000000000000000000 ) ) ;
#237 = DIRECTION ( 'NONE',  ( 0.000000000000000000, 0.000000000000000000, 1.000000000000000000 ) ) ;
#238 = ADVANCED_FACE ( 'NONE', ( #307 ), #47, .T. ) ;
#239 = FILL_AREA_STYLE ('',( #115 ) ) ;
#240 = FILL_AREA_STYLE_COLOUR ( '', #90 ) ;
#241 = COLOUR_RGB ( '',1.000000000000000000, 0.000000000000000000, 0.000000000000000000 ) ;
#242 = APPLICATION_PROTOCOL_DEFINITION ( 'draft international standard', 'automotive_design', 1998, #281 ) ;
#243 = EDGE_CURVE ( 'NONE', #362, #23, #300, .T. ) ;
#244 =( NAMED_UNIT ( * ) PLANE_ANGLE_UNIT ( ) SI_UNIT ( $, .RADIAN. ) );
#245 = EDGE_CURVE ( 'NONE', #185, #23, #349, .T. ) ;
#246 = ORIENTED_EDGE ( 'NONE', *, *, #27, .T. ) ;
#247 = ORIENTED_EDGE ( 'NONE', *, *, #145, .F. ) ;
#248 =( LENGTH_UNIT ( ) NAMED_UNIT ( * ) SI_UNIT ( $, .METRE. ) );
#249 = SURFACE_STYLE_USAGE ( .BOTH. , #219 ) ;
#250 = PRODUCT ( '84413', '84413', '', ( #69 ) ) ;
#251 = ORIENTED_EDGE ( 'NONE', *, *, #2, .T. ) ;
#252 = COLOUR_RGB ( '',1.000000000000000000, 0.000000000000000000, 0.000000000000000000 ) ;
#253 = STYLED_ITEM ( 'NONE', ( #279 ), #238 ) ;
#254 = EDGE_LOOP ( 'NONE', ( #330, #246, #161, #16 ) ) ;
#255 = EDGE_LOOP ( 'NONE', ( #73, #216, #130, #154 ) ) ;
#256 = DIRECTION ( 'NONE',  ( -0.000000000000000000, -1.000000000000000000, -0.000000000000000000 ) ) ;
#257 = PLANE ( 'NONE',  #148 ) ;
#258 = ADVANCED_FACE ( 'NONE', ( #328 ), #44, .T. ) ;
#259 = DIRECTION ( 'NONE',  ( -0.000000000000000000, -1.000000000000000000, -0.000000000000000000 ) ) ;
#260 = CIRCLE ( 'NONE', #89, 0.09374999999999998612 ) ;
#261 = DIRECTION ( 'NONE',  ( 1.000000000000000000, 1.574545884618025482E-16, 0.000000000000000000 ) ) ;
#262 = EDGE_CURVE ( 'NONE', #5, #158, #173, .T. ) ;
#263 = LINE ( 'NONE', #235, #50 ) ;
#264 = CIRCLE ( 'NONE', #341, 0.09374999999999998612 ) ;
#265 = VECTOR ( 'NONE', #114, 39.37007874015748143 ) ;
#266 = PRESENTATION_STYLE_ASSIGNMENT (( #146 ) ) ;
#267 = DIRECTION ( 'NONE',  ( -0.000000000000000000, -1.000000000000000000, -0.000000000000000000 ) ) ;
#268 = APPLICATION_CONTEXT ( 'automotive_design' ) ;
#269 = EDGE_CURVE ( 'NONE', #156, #70, #184, .T. ) ;
#270 = DIRECTION ( 'NONE',  ( -1.574545884618025482E-16, 1.000000000000000000, -0.000000000000000000 ) ) ;
#271 = STYLED_ITEM ( 'NONE', ( #266 ), #301 ) ;
#272 =( NAMED_UNIT ( * ) PLANE_ANGLE_UNIT ( ) SI_UNIT ( $, .RADIAN. ) );
#273 = LENGTH_MEASURE_WITH_UNIT ( LENGTH_MEASURE( 0.02539999999999999897 ), #352 );
#274 =( GEOMETRIC_REPRESENTATION_CONTEXT ( 3 ) GLOBAL_UNCERTAINTY_ASSIGNED_CONTEXT ( ( #365 ) ) GLOBAL_UNIT_ASSIGNED_CONTEXT ( ( #35, #350, #321 ) ) REPRESENTATION_CONTEXT ( 'NONE', 'WORKASPACE' ) );
#275 = AXIS2_PLACEMENT_3D ( 'NONE', #309, #51, #162 ) ;
#276 = VERTEX_POINT ( 'NONE', #197 ) ;
#277 = DIRECTION ( 'NONE',  ( -1.000000000000000000, -1.574545884618025482E-16, 0.000000000000000000 ) ) ;
#278 = ORIENTED_EDGE ( 'NONE', *, *, #320, .T. ) ;
#279 = PRESENTATION_STYLE_ASSIGNMENT (( #168 ) ) ;
#280 = ORIENTED_EDGE ( 'NONE', *, *, #2, .F. ) ;
#281 = APPLICATION_CONTEXT ( 'automotive_design' ) ;
#282 = EDGE_LOOP ( 'NONE', ( #126, #223 ) ) ;
#283 = ORIENTED_EDGE ( 'NONE', *, *, #42, .F. ) ;
#284 = EDGE_CURVE ( 'NONE', #156, #5, #85, .T. ) ;
#285 = FILL_AREA_STYLE ('',( #160 ) ) ;
#286 = CARTESIAN_POINT ( 'NONE',  ( -0.09375000000000006939, 2.500000000000000000, 0.000000000000000000 ) ) ;
#287 = AXIS2_PLACEMENT_3D ( 'NONE', #79, #224, #336 ) ;
#288 = ORIENTED_EDGE ( 'NONE', *, *, #91, .F. ) ;
#289 = DIRECTION ( 'NONE',  ( -1.000000000000000000, 0.000000000000000000, 0.000000000000000000 ) ) ;
#290 = FILL_AREA_STYLE ('',( #77 ) ) ;
#291 = FACE_OUTER_BOUND ( 'NONE', #282, .T. ) ;
#292 = AXIS2_PLACEMENT_3D ( 'NONE', #370, #60, #226 ) ;
#293 = COLOUR_RGB ( '',1.000000000000000000, 0.000000000000000000, 0.000000000000000000 ) ;
#294 = FILL_AREA_STYLE ('',( #67 ) ) ;
#295 = DIMENSIONAL_EXPONENTS ( 1.000000000000000000, 0.000000000000000000, 0.000000000000000000, 0.000000000000000000, 0.000000000000000000, 0.000000000000000000, 0.000000000000000000 ) ;
#296 = LENGTH_MEASURE_WITH_UNIT ( LENGTH_MEASURE( 0.02539999999999999897 ), #205 );
#297 = DIRECTION ( 'NONE',  ( 0.000000000000000000, 0.000000000000000000, -1.000000000000000000 ) ) ;
#298 = COLOUR_RGB ( '',1.000000000000000000, 0.000000000000000000, 0.000000000000000000 ) ;
#299 = LENGTH_MEASURE_WITH_UNIT ( LENGTH_MEASURE( 0.02539999999999999897 ), #178 );
#300 = CIRCLE ( 'NONE', #129, 0.09374999999999998612 ) ;
#301 = ADVANCED_FACE ( 'NONE', ( #167 ), #207, .T. ) ;
#302 = CIRCLE ( 'NONE', #287, 0.09374999999999998612 ) ;
#303 = MECHANICAL_DESIGN_GEOMETRIC_PRESENTATION_REPRESENTATION (  '', ( #95 ), #218 ) ;
#304 = ORIENTED_EDGE ( 'NONE', *, *, #310, .F. ) ;
#305 = CARTESIAN_POINT ( 'NONE',  ( 2.143131898507868297E-16, 0.7499999999999998890, 0.000000000000000000 ) ) ;
#306 = PRESENTATION_STYLE_ASSIGNMENT (( #249 ) ) ;
#307 = FACE_OUTER_BOUND ( 'NONE', #49, .T. ) ;
#308 =( GEOMETRIC_REPRESENTATION_CONTEXT ( 3 ) GLOBAL_UNCERTAINTY_ASSIGNED_CONTEXT ( ( #183 ) ) GLOBAL_UNIT_ASSIGNED_CONTEXT ( ( #14, #64, #61 ) ) REPRESENTATION_CONTEXT ( 'NONE', 'WORKASPACE' ) );
#309 = CARTESIAN_POINT ( 'NONE',  ( -1.148106374200643401E-17, 0.09374999999999998612, 0.000000000000000000 ) ) ;
#310 = EDGE_CURVE ( 'NONE', #70, #158, #200, .T. ) ;
#311 = PLANE ( 'NONE',  #105 ) ;
#312 = LENGTH_MEASURE_WITH_UNIT ( LENGTH_MEASURE( 0.02539999999999999897 ), #143 );
#313 = MECHANICAL_DESIGN_GEOMETRIC_PRESENTATION_REPRESENTATION (  '', ( #172 ), #274 ) ;
#314 = CARTESIAN_POINT ( 'NONE',  ( 0.000000000000000000, 0.7500000000000001110, 0.000000000000000000 ) ) ;
#315 = DIRECTION ( 'NONE',  ( -1.000000000000000000, 0.000000000000000000, 0.000000000000000000 ) ) ;
#316 = SPHERICAL_SURFACE ( 'NONE', #152, 0.09374999999999998612 ) ;
#317 = FILL_AREA_STYLE_COLOUR ( '', #371 ) ;
#318 =( LENGTH_UNIT ( ) NAMED_UNIT ( * ) SI_UNIT ( $, .METRE. ) );
#319 = AXIS2_PLACEMENT_3D ( 'NONE', #37, #270, #323 ) ;
#320 = EDGE_CURVE ( 'NONE', #329, #276, #263, .T. ) ;
#321 =( NAMED_UNIT ( * ) SI_UNIT ( $, .STERADIAN. ) SOLID_ANGLE_UNIT ( ) );
#322 = CARTESIAN_POINT ( 'NONE',  ( 0.000000000000000000, 0.000000000000000000, 0.000000000000000000 ) ) ;
#323 = DIRECTION ( 'NONE',  ( -1.000000000000000000, 0.000000000000000000, 0.000000000000000000 ) ) ;
#324 = DIMENSIONAL_EXPONENTS ( 1.000000000000000000, 0.000000000000000000, 0.000000000000000000, 0.000000000000000000, 0.000000000000000000, 0.000000000000000000, 0.000000000000000000 ) ;
#325 =( LENGTH_UNIT ( ) NAMED_UNIT ( * ) SI_UNIT ( $, .METRE. ) );
#326 = MECHANICAL_DESIGN_GEOMETRIC_PRESENTATION_REPRESENTATION (  '', ( #253 ), #57 ) ;
#327 = VERTEX_POINT ( 'NONE', #203 ) ;
#328 = FACE_OUTER_BOUND ( 'NONE', #104, .T. ) ;
#329 = VERTEX_POINT ( 'NONE', #62 ) ;
#330 = ORIENTED_EDGE ( 'NONE', *, *, #243, .F. ) ;
#331 = AXIS2_PLACEMENT_3D ( 'NONE', #334, #259, #222 ) ;
#332 = ORIENTED_EDGE ( 'NONE', *, *, #284, .T. ) ;
#333 = CARTESIAN_POINT ( 'NONE',  ( 0.000000000000000000, 0.000000000000000000, 0.000000000000000000 ) ) ;
#334 = CARTESIAN_POINT ( 'NONE',  ( 0.000000000000000000, 0.000000000000000000, 0.000000000000000000 ) ) ;
#335 = AXIS2_PLACEMENT_3D ( 'NONE', #65, #176, #121 ) ;
#336 = DIRECTION ( 'NONE',  ( 0.000000000000000000, 0.000000000000000000, -1.000000000000000000 ) ) ;
#337 = FACE_OUTER_BOUND ( 'NONE', #255, .T. ) ;
#338 = EDGE_LOOP ( 'NONE', ( #46, #359, #251, #228, #288 ) ) ;
#339 = CARTESIAN_POINT ( 'NONE',  ( -5.740531871003217003E-18, 0.000000000000000000, 0.000000000000000000 ) ) ;
#340 =( NAMED_UNIT ( * ) PLANE_ANGLE_UNIT ( ) SI_UNIT ( $, .RADIAN. ) );
#341 = AXIS2_PLACEMENT_3D ( 'NONE', #199, #195, #169 ) ;
#342 = AXIS2_PLACEMENT_3D ( 'NONE', #202, #345, #144 ) ;
#343 = CARTESIAN_POINT ( 'NONE',  ( 0.000000000000000000, 0.7500000000000001110, 0.000000000000000000 ) ) ;
#344 = DIRECTION ( 'NONE',  ( 0.000000000000000000, 0.000000000000000000, -1.000000000000000000 ) ) ;
#345 = DIRECTION ( 'NONE',  ( -1.574545884618025482E-16, 1.000000000000000000, -0.000000000000000000 ) ) ;
#346 =( NAMED_UNIT ( * ) PLANE_ANGLE_UNIT ( ) SI_UNIT ( $, .RADIAN. ) );
#347 = DIRECTION ( 'NONE',  ( 1.000000000000000000, 0.000000000000000000, 0.000000000000000000 ) ) ;
#348 = CIRCLE ( 'NONE', #319, 0.09375000000000001388 ) ;
#349 = CIRCLE ( 'NONE', #275, 0.09374999999999998612 ) ;
#350 =( NAMED_UNIT ( * ) PLANE_ANGLE_UNIT ( ) SI_UNIT ( $, .RADIAN. ) );
#351 = MANIFOLD_SOLID_BREP ( 'Revolve - Tool Body (Straight Shanked)', #358 ) ;
#352 =( LENGTH_UNIT ( ) NAMED_UNIT ( * ) SI_UNIT ( $, .METRE. ) );
#353 =( CONVERSION_BASED_UNIT ( 'INCH', #273 ) LENGTH_UNIT ( ) NAMED_UNIT ( #171 ) );
#354 = CIRCLE ( 'NONE', #292, 0.09374999999999998612 ) ;
#355 = CIRCLE ( 'NONE', #100, 0.09374999999999991673 ) ;
#356 =( NAMED_UNIT ( * ) SI_UNIT ( $, .STERADIAN. ) SOLID_ANGLE_UNIT ( ) );
#357 = CARTESIAN_POINT ( 'NONE',  ( 0.09374999999999994449, 2.500000000000000000, 1.148106374200642938E-17 ) ) ;
#358 = CLOSED_SHELL ( 'NONE', ( #68, #106, #258, #20 ) ) ;
#359 = ORIENTED_EDGE ( 'NONE', *, *, #208, .T. ) ;
#360 = AXIS2_PLACEMENT_3D ( 'NONE', #322, #117, #66 ) ;
#361 = LENGTH_MEASURE_WITH_UNIT ( LENGTH_MEASURE( 0.02539999999999999897 ), #248 );
#362 = VERTEX_POINT ( 'NONE', #124 ) ;
#363 = ORIENTED_EDGE ( 'NONE', *, *, #196, .F. ) ;
#364 = DIRECTION ( 'NONE',  ( -1.574545884618025482E-16, 1.000000000000000000, -0.000000000000000000 ) ) ;
#365 = UNCERTAINTY_MEASURE_WITH_UNIT (LENGTH_MEASURE( 1.000000000000000082E-05 ), #35, 'distance_accuracy_value', 'NONE');
#366 =( NAMED_UNIT ( * ) PLANE_ANGLE_UNIT ( ) SI_UNIT ( $, .RADIAN. ) );
#367 = ORIENTED_EDGE ( 'NONE', *, *, #269, .F. ) ;
#368 = DIRECTION ( 'NONE',  ( -0.000000000000000000, -1.000000000000000000, -0.000000000000000000 ) ) ;
#369 = DIRECTION ( 'NONE',  ( 0.000000000000000000, 0.000000000000000000, -1.000000000000000000 ) ) ;
#370 = CARTESIAN_POINT ( 'NONE',  ( 0.000000000000000000, 0.09375000000000001388, 0.000000000000000000 ) ) ;
#371 = COLOUR_RGB ( '',0.7921568627450980005, 0.8196078431372548767, 0.9333333333333333481 ) ;
#372 = DIRECTION ( 'NONE',  ( -1.574545884618025482E-16, 1.000000000000000000, -0.000000000000000000 ) ) ;
#373 = CARTESIAN_POINT ( 'NONE',  ( -6.123233995736766036E-17, 2.500000000000000000, 0.000000000000000000 ) ) ;
ENDSEC;
END-ISO-10303-21;
