ISO-10303-21;
HEADER;
FILE_DESCRIPTION (( 'STEP AP214' ),
    '1' );
FILE_NAME ('81897.STEP',
    '2023-06-23T03:51:36',
    ( '' ),
    ( '' ),
    'SwSTEP 2.0',
    'SolidWorks 2023',
    '' );
FILE_SCHEMA (( 'AUTOMOTIVE_DESIGN' ));
ENDSEC;

DATA;
#1 = FILL_AREA_STYLE_COLOUR ( '', #200 ) ;
#2 =( NAMED_UNIT ( * ) SI_UNIT ( $, .STERADIAN. ) SOLID_ANGLE_UNIT ( ) );
#3 = AXIS2_PLACEMENT_3D ( 'NONE', #49, #216, #195 ) ;
#4 =( LENGTH_UNIT ( ) NAMED_UNIT ( * ) SI_UNIT ( $, .METRE. ) );
#5 = PRESENTATION_STYLE_ASSIGNMENT (( #265 ) ) ;
#6 = CARTESIAN_POINT ( 'NONE',  ( -6.123233995736766036E-17, 4.000000000000000000, 0.000000000000000000 ) ) ;
#7 = DIMENSIONAL_EXPONENTS ( 1.000000000000000000, 0.000000000000000000, 0.000000000000000000, 0.000000000000000000, 0.000000000000000000, 0.000000000000000000, 0.000000000000000000 ) ;
#8 = AXIS2_PLACEMENT_3D ( 'NONE', #293, #263, #146 ) ;
#9 = DIRECTION ( 'NONE',  ( 1.000000000000000000, 2.578203787678638882E-17, 0.000000000000000000 ) ) ;
#10 = DIMENSIONAL_EXPONENTS ( 1.000000000000000000, 0.000000000000000000, 0.000000000000000000, 0.000000000000000000, 0.000000000000000000, 0.000000000000000000, 0.000000000000000000 ) ;
#11 = DIRECTION ( 'NONE',  ( -2.578203787678638882E-17, 1.000000000000000000, -0.000000000000000000 ) ) ;
#12 = VECTOR ( 'NONE', #150, 39.37007874015748143 ) ;
#13 =( LENGTH_UNIT ( ) NAMED_UNIT ( * ) SI_UNIT ( $, .METRE. ) );
#14 = EDGE_CURVE ( 'NONE', #284, #211, #17, .T. ) ;
#15 =( LENGTH_UNIT ( ) NAMED_UNIT ( * ) SI_UNIT ( $, .METRE. ) );
#16 = ORIENTED_EDGE ( 'NONE', *, *, #246, .F. ) ;
#17 = CIRCLE ( 'NONE', #248, 0.3750000000000000555 ) ;
#18 = VECTOR ( 'NONE', #272, 39.37007874015748143 ) ;
#19 = ORIENTED_EDGE ( 'NONE', *, *, #14, .F. ) ;
#20 = DIRECTION ( 'NONE',  ( -1.000000000000000000, 0.000000000000000000, 0.000000000000000000 ) ) ;
#21 = APPLICATION_CONTEXT ( 'automotive_design' ) ;
#22 = DIRECTION ( 'NONE',  ( 0.000000000000000000, 0.000000000000000000, -1.000000000000000000 ) ) ;
#23 = FILL_AREA_STYLE ('',( #1 ) ) ;
#24 = AXIS2_PLACEMENT_3D ( 'NONE', #140, #145, #237 ) ;
#25 = ORIENTED_EDGE ( 'NONE', *, *, #160, .T. ) ;
#26 =( NAMED_UNIT ( * ) PLANE_ANGLE_UNIT ( ) SI_UNIT ( $, .RADIAN. ) );
#27 = ADVANCED_FACE ( 'NONE', ( #210 ), #258, .T. ) ;
#28 = CARTESIAN_POINT ( 'NONE',  ( 1.516480271171051896E-32, 1.625000000000000000, 0.000000000000000000 ) ) ;
#29 = LINE ( 'NONE', #129, #18 ) ;
#30 = DIRECTION ( 'NONE',  ( -0.000000000000000000, -1.000000000000000000, -0.000000000000000000 ) ) ;
#31 = COLOUR_RGB ( '',0.7921568627450980005, 0.8196078431372548767, 0.9333333333333333481 ) ;
#32 =( GEOMETRIC_REPRESENTATION_CONTEXT ( 3 ) GLOBAL_UNCERTAINTY_ASSIGNED_CONTEXT ( ( #91 ) ) GLOBAL_UNIT_ASSIGNED_CONTEXT ( ( #83, #86, #277 ) ) REPRESENTATION_CONTEXT ( 'NONE', 'WORKASPACE' ) );
#33 =( NAMED_UNIT ( * ) PLANE_ANGLE_UNIT ( ) SI_UNIT ( $, .RADIAN. ) );
#34 = CARTESIAN_POINT ( 'NONE',  ( 0.3750000000000000555, 4.000000000000000000, 4.592425496802576068E-17 ) ) ;
#35 = CIRCLE ( 'NONE', #3, 0.3750000000000001110 ) ;
#36 = APPLICATION_PROTOCOL_DEFINITION ( 'draft international standard', 'automotive_design', 1998, #21 ) ;
#37 = CARTESIAN_POINT ( 'NONE',  ( -0.3750000000000001665, 4.000000000000000000, 0.000000000000000000 ) ) ;
#38 =( NAMED_UNIT ( * ) PLANE_ANGLE_UNIT ( ) SI_UNIT ( $, .RADIAN. ) );
#39 = DIRECTION ( 'NONE',  ( 0.000000000000000000, 0.000000000000000000, -1.000000000000000000 ) ) ;
#40 = EDGE_CURVE ( 'NONE', #141, #303, #118, .T. ) ;
#41 = AXIS2_PLACEMENT_3D ( 'NONE', #171, #164, #261 ) ;
#42 = PRESENTATION_STYLE_ASSIGNMENT (( #136 ) ) ;
#43 = ORIENTED_EDGE ( 'NONE', *, *, #40, .F. ) ;
#44 = ORIENTED_EDGE ( 'NONE', *, *, #175, .F. ) ;
#45 = CARTESIAN_POINT ( 'NONE',  ( -6.123233995736766036E-17, 4.000000000000000000, 0.000000000000000000 ) ) ;
#46 = EDGE_CURVE ( 'NONE', #211, #284, #256, .T. ) ;
#47 = ORIENTED_EDGE ( 'NONE', *, *, #189, .F. ) ;
#48 = ORIENTED_EDGE ( 'NONE', *, *, #246, .T. ) ;
#49 = CARTESIAN_POINT ( 'NONE',  ( -6.123233995736766036E-17, 4.000000000000000000, 0.000000000000000000 ) ) ;
#50 = MECHANICAL_DESIGN_GEOMETRIC_PRESENTATION_REPRESENTATION (  '', ( #93 ), #278 ) ;
#51 = CARTESIAN_POINT ( 'NONE',  ( 0.3750000000000000555, 4.000000000000000000, 0.000000000000000000 ) ) ;
#52 = DIRECTION ( 'NONE',  ( 0.000000000000000000, 0.000000000000000000, -1.000000000000000000 ) ) ;
#53 = SURFACE_SIDE_STYLE ('',( #165 ) ) ;
#54 = UNCERTAINTY_MEASURE_WITH_UNIT (LENGTH_MEASURE( 1.000000000000000082E-05 ), #149, 'distance_accuracy_value', 'NONE');
#55 = DIRECTION ( 'NONE',  ( 1.000000000000000000, 0.000000000000000000, 0.000000000000000000 ) ) ;
#56 = PRESENTATION_STYLE_ASSIGNMENT (( #308 ) ) ;
#57 = CYLINDRICAL_SURFACE ( 'NONE', #138, 0.3750000000000001110 ) ;
#58 = PLANE ( 'NONE',  #24 ) ;
#59 = MANIFOLD_SOLID_BREP ( 'Revolve - Cutting Edge', #299 ) ;
#60 = EDGE_CURVE ( 'NONE', #211, #285, #29, .T. ) ;
#61 = LENGTH_MEASURE_WITH_UNIT ( LENGTH_MEASURE( 0.02539999999999999897 ), #13 );
#62 = MECHANICAL_DESIGN_GEOMETRIC_PRESENTATION_REPRESENTATION (  '', ( #179 ), #32 ) ;
#63 = FACE_OUTER_BOUND ( 'NONE', #71, .T. ) ;
#64 = DIRECTION ( 'NONE',  ( -1.000000000000000000, 0.000000000000000000, 0.000000000000000000 ) ) ;
#65 = DIRECTION ( 'NONE',  ( 2.578203787678638882E-17, -1.000000000000000000, 0.000000000000000000 ) ) ;
#66 = ORIENTED_EDGE ( 'NONE', *, *, #40, .T. ) ;
#67 = ADVANCED_FACE ( 'NONE', ( #187 ), #57, .T. ) ;
#68 = ORIENTED_EDGE ( 'NONE', *, *, #254, .F. ) ;
#69 = PRODUCT_DEFINITION_FORMATION_WITH_SPECIFIED_SOURCE ( 'ANY', '', #181, .NOT_KNOWN. ) ;
#70 = LENGTH_MEASURE_WITH_UNIT ( LENGTH_MEASURE( 0.02539999999999999897 ), #15 );
#71 = EDGE_LOOP ( 'NONE', ( #194, #192, #170, #68 ) ) ;
#72 = EDGE_LOOP ( 'NONE', ( #97, #44 ) ) ;
#73 = LINE ( 'NONE', #174, #12 ) ;
#74 = DIRECTION ( 'NONE',  ( -2.578203787678638882E-17, 1.000000000000000000, -0.000000000000000000 ) ) ;
#75 = UNCERTAINTY_MEASURE_WITH_UNIT (LENGTH_MEASURE( 1.000000000000000082E-05 ), #122, 'distance_accuracy_value', 'NONE');
#76 = FILL_AREA_STYLE_COLOUR ( '', #249 ) ;
#77 = EDGE_CURVE ( 'NONE', #284, #259, #268, .T. ) ;
#78 =( LENGTH_UNIT ( ) NAMED_UNIT ( * ) SI_UNIT ( $, .METRE. ) );
#79 =( GEOMETRIC_REPRESENTATION_CONTEXT ( 3 ) GLOBAL_UNCERTAINTY_ASSIGNED_CONTEXT ( ( #54 ) ) GLOBAL_UNIT_ASSIGNED_CONTEXT ( ( #149, #33, #289 ) ) REPRESENTATION_CONTEXT ( 'NONE', 'WORKASPACE' ) );
#80 = DIMENSIONAL_EXPONENTS ( 1.000000000000000000, 0.000000000000000000, 0.000000000000000000, 0.000000000000000000, 0.000000000000000000, 0.000000000000000000, 0.000000000000000000 ) ;
#81 =( LENGTH_UNIT ( ) NAMED_UNIT ( * ) SI_UNIT ( $, .METRE. ) );
#82 = AXIS2_PLACEMENT_3D ( 'NONE', #45, #168, #20 ) ;
#83 =( CONVERSION_BASED_UNIT ( 'INCH', #61 ) LENGTH_UNIT ( ) NAMED_UNIT ( #80 ) );
#84 = CIRCLE ( 'NONE', #191, 0.3750000000000001110 ) ;
#85 =( LENGTH_UNIT ( ) NAMED_UNIT ( * ) SI_UNIT ( $, .METRE. ) );
#86 =( NAMED_UNIT ( * ) PLANE_ANGLE_UNIT ( ) SI_UNIT ( $, .RADIAN. ) );
#87 = CARTESIAN_POINT ( 'NONE',  ( 4.592425496802575451E-17, 1.625000000000000000, 0.3750000000000000555 ) ) ;
#88 = MECHANICAL_DESIGN_GEOMETRIC_PRESENTATION_REPRESENTATION (  '', ( #238 ), #300 ) ;
#89 = EDGE_LOOP ( 'NONE', ( #25, #66, #16, #117 ) ) ;
#90 = ADVANCED_FACE ( 'NONE', ( #269 ), #225, .T. ) ;
#91 = UNCERTAINTY_MEASURE_WITH_UNIT (LENGTH_MEASURE( 1.000000000000000082E-05 ), #83, 'distance_accuracy_value', 'NONE');
#92 = ORIENTED_EDGE ( 'NONE', *, *, #46, .F. ) ;
#93 = STYLED_ITEM ( 'NONE', ( #56 ), #90 ) ;
#94 = SURFACE_SIDE_STYLE ('',( #99 ) ) ;
#95 = ORIENTED_EDGE ( 'NONE', *, *, #309, .F. ) ;
#96 = CYLINDRICAL_SURFACE ( 'NONE', #41, 0.3750000000000000555 ) ;
#97 = ORIENTED_EDGE ( 'NONE', *, *, #160, .F. ) ;
#98 = DIRECTION ( 'NONE',  ( -2.578203787678638882E-17, 1.000000000000000000, -0.000000000000000000 ) ) ;
#99 = SURFACE_STYLE_FILL_AREA ( #23 ) ;
#100 = COLOUR_RGB ( '',0.7921568627450980005, 0.8196078431372548767, 0.9333333333333333481 ) ;
#101 = ADVANCED_FACE ( 'NONE', ( #105 ), #201, .F. ) ;
#102 =( CONVERSION_BASED_UNIT ( 'INCH', #177 ) LENGTH_UNIT ( ) NAMED_UNIT ( #291 ) );
#103 = SHAPE_DEFINITION_REPRESENTATION ( #147, #130 ) ;
#104 = PRESENTATION_LAYER_ASSIGNMENT (  '', '', ( #238 ) ) ;
#105 = FACE_OUTER_BOUND ( 'NONE', #72, .T. ) ;
#106 = DIRECTION ( 'NONE',  ( 0.000000000000000000, 0.000000000000000000, 1.000000000000000000 ) ) ;
#107 = APPLICATION_CONTEXT ( 'automotive_design' ) ;
#108 = DIRECTION ( 'NONE',  ( 0.000000000000000000, 0.000000000000000000, -1.000000000000000000 ) ) ;
#109 = CARTESIAN_POINT ( 'NONE',  ( -6.123233995736766036E-17, 4.000000000000000000, 0.000000000000000000 ) ) ;
#110 = SURFACE_STYLE_USAGE ( .BOTH. , #206 ) ;
#111 =( NAMED_UNIT ( * ) SI_UNIT ( $, .STERADIAN. ) SOLID_ANGLE_UNIT ( ) );
#112 = COLOUR_RGB ( '',1.000000000000000000, 0.000000000000000000, 0.000000000000000000 ) ;
#113 = SURFACE_STYLE_FILL_AREA ( #227 ) ;
#114 = DIRECTION ( 'NONE',  ( 0.000000000000000000, 0.000000000000000000, -1.000000000000000000 ) ) ;
#115 = AXIS2_PLACEMENT_3D ( 'NONE', #137, #161, #108 ) ;
#116 = AXIS2_PLACEMENT_3D ( 'NONE', #51, #65, #9 ) ;
#117 = ORIENTED_EDGE ( 'NONE', *, *, #267, .F. ) ;
#118 = LINE ( 'NONE', #212, #218 ) ;
#119 = FILL_AREA_STYLE_COLOUR ( '', #31 ) ;
#120 = COLOUR_RGB ( '',1.000000000000000000, 0.000000000000000000, 0.000000000000000000 ) ;
#121 = UNCERTAINTY_MEASURE_WITH_UNIT (LENGTH_MEASURE( 1.000000000000000082E-05 ), #193, 'distance_accuracy_value', 'NONE');
#122 =( CONVERSION_BASED_UNIT ( 'INCH', #304 ) LENGTH_UNIT ( ) NAMED_UNIT ( #10 ) );
#123 = EDGE_LOOP ( 'NONE', ( #19, #92 ) ) ;
#124 =( NAMED_UNIT ( * ) PLANE_ANGLE_UNIT ( ) SI_UNIT ( $, .RADIAN. ) );
#125 = FACE_OUTER_BOUND ( 'NONE', #280, .T. ) ;
#126 = DIRECTION ( 'NONE',  ( -0.000000000000000000, -1.000000000000000000, -0.000000000000000000 ) ) ;
#127 = AXIS2_PLACEMENT_3D ( 'NONE', #306, #236, #22 ) ;
#128 = PLANE ( 'NONE',  #116 ) ;
#129 = CARTESIAN_POINT ( 'NONE',  ( 4.592425496802575451E-17, 0.000000000000000000, 0.3750000000000000555 ) ) ;
#130 = ADVANCED_BREP_SHAPE_REPRESENTATION ( '81897', ( #59, #172, #257 ), #287 ) ;
#131 = DIRECTION ( 'NONE',  ( 0.000000000000000000, -1.000000000000000000, -0.000000000000000000 ) ) ;
#132 = CARTESIAN_POINT ( 'NONE',  ( 0.000000000000000000, 0.000000000000000000, 0.000000000000000000 ) ) ;
#133 = CARTESIAN_POINT ( 'NONE',  ( 0.000000000000000000, 0.000000000000000000, 0.000000000000000000 ) ) ;
#134 = DIRECTION ( 'NONE',  ( -1.000000000000000000, 0.000000000000000000, 0.000000000000000000 ) ) ;
#135 = PRODUCT_CONTEXT ( 'NONE', #21, 'mechanical' ) ;
#136 = SURFACE_STYLE_USAGE ( .BOTH. , #252 ) ;
#137 = CARTESIAN_POINT ( 'NONE',  ( 0.000000000000000000, 0.000000000000000000, 0.000000000000000000 ) ) ;
#138 = AXIS2_PLACEMENT_3D ( 'NONE', #6, #98, #155 ) ;
#139 = FILL_AREA_STYLE_COLOUR ( '', #120 ) ;
#140 = CARTESIAN_POINT ( 'NONE',  ( 0.000000000000000000, 1.625000000000000000, 0.000000000000000000 ) ) ;
#141 = VERTEX_POINT ( 'NONE', #239 ) ;
#142 = PRESENTATION_LAYER_ASSIGNMENT (  '', '', ( #93 ) ) ;
#143 = ORIENTED_EDGE ( 'NONE', *, *, #189, .T. ) ;
#144 = DIRECTION ( 'NONE',  ( -2.578203787678638882E-17, 1.000000000000000000, -0.000000000000000000 ) ) ;
#145 = DIRECTION ( 'NONE',  ( 0.000000000000000000, 1.000000000000000000, 0.000000000000000000 ) ) ;
#146 = DIRECTION ( 'NONE',  ( -1.000000000000000000, -2.578203787678638882E-17, 0.000000000000000000 ) ) ;
#147 = PRODUCT_DEFINITION_SHAPE ( 'NONE', 'NONE',  #296 ) ;
#148 = SURFACE_STYLE_USAGE ( .BOTH. , #94 ) ;
#149 =( CONVERSION_BASED_UNIT ( 'INCH', #176 ) LENGTH_UNIT ( ) NAMED_UNIT ( #275 ) );
#150 = DIRECTION ( 'NONE',  ( -2.578203787678638882E-17, 1.000000000000000000, -0.000000000000000000 ) ) ;
#151 = CARTESIAN_POINT ( 'NONE',  ( -0.3750000000000000555, 1.625000000000000000, 0.000000000000000000 ) ) ;
#152 = MECHANICAL_DESIGN_GEOMETRIC_PRESENTATION_REPRESENTATION (  '', ( #292 ), #162 ) ;
#153 =( CONVERSION_BASED_UNIT ( 'INCH', #199 ) LENGTH_UNIT ( ) NAMED_UNIT ( #7 ) );
#154 =( NAMED_UNIT ( * ) PLANE_ANGLE_UNIT ( ) SI_UNIT ( $, .RADIAN. ) );
#155 = DIRECTION ( 'NONE',  ( -1.000000000000000000, 0.000000000000000000, 0.000000000000000000 ) ) ;
#156 =( NAMED_UNIT ( * ) SI_UNIT ( $, .STERADIAN. ) SOLID_ANGLE_UNIT ( ) );
#157 = SURFACE_SIDE_STYLE ('',( #273 ) ) ;
#158 = PRESENTATION_STYLE_ASSIGNMENT (( #110 ) ) ;
#159 = CYLINDRICAL_SURFACE ( 'NONE', #115, 0.3750000000000000555 ) ;
#160 = EDGE_CURVE ( 'NONE', #301, #141, #219, .T. ) ;
#161 = DIRECTION ( 'NONE',  ( -0.000000000000000000, -1.000000000000000000, -0.000000000000000000 ) ) ;
#162 =( GEOMETRIC_REPRESENTATION_CONTEXT ( 3 ) GLOBAL_UNCERTAINTY_ASSIGNED_CONTEXT ( ( #75 ) ) GLOBAL_UNIT_ASSIGNED_CONTEXT ( ( #122, #26, #197 ) ) REPRESENTATION_CONTEXT ( 'NONE', 'WORKASPACE' ) );
#163 = SURFACE_STYLE_FILL_AREA ( #294 ) ;
#164 = DIRECTION ( 'NONE',  ( -0.000000000000000000, -1.000000000000000000, -0.000000000000000000 ) ) ;
#165 = SURFACE_STYLE_FILL_AREA ( #213 ) ;
#166 = UNCERTAINTY_MEASURE_WITH_UNIT (LENGTH_MEASURE( 1.000000000000000082E-05 ), #297, 'distance_accuracy_value', 'NONE');
#167 = ORIENTED_EDGE ( 'NONE', *, *, #309, .T. ) ;
#168 = DIRECTION ( 'NONE',  ( -2.578203787678638882E-17, 1.000000000000000000, -0.000000000000000000 ) ) ;
#169 = FACE_OUTER_BOUND ( 'NONE', #307, .T. ) ;
#170 = ORIENTED_EDGE ( 'NONE', *, *, #77, .T. ) ;
#171 = CARTESIAN_POINT ( 'NONE',  ( 0.000000000000000000, 0.000000000000000000, 0.000000000000000000 ) ) ;
#172 = MANIFOLD_SOLID_BREP ( 'Revolve - Tool Body (Straight Shanked)', #208 ) ;
#173 = VERTEX_POINT ( 'NONE', #37 ) ;
#174 = CARTESIAN_POINT ( 'NONE',  ( -0.3750000000000001665, 4.000000000000000000, 0.000000000000000000 ) ) ;
#175 = EDGE_CURVE ( 'NONE', #141, #301, #274, .T. ) ;
#176 = LENGTH_MEASURE_WITH_UNIT ( LENGTH_MEASURE( 0.02539999999999999897 ), #81 );
#177 = LENGTH_MEASURE_WITH_UNIT ( LENGTH_MEASURE( 0.02539999999999999897 ), #4 );
#178 = SURFACE_STYLE_FILL_AREA ( #242 ) ;
#179 = STYLED_ITEM ( 'NONE', ( #158 ), #172 ) ;
#180 = FILL_AREA_STYLE ('',( #298 ) ) ;
#181 = PRODUCT ( '81897', '81897', '', ( #135 ) ) ;
#182 = ADVANCED_FACE ( 'NONE', ( #63 ), #159, .T. ) ;
#183 = VECTOR ( 'NONE', #126, 39.37007874015748143 ) ;
#184 = CARTESIAN_POINT ( 'NONE',  ( 1.516480271171051896E-32, 1.625000000000000000, 0.000000000000000000 ) ) ;
#185 = STYLED_ITEM ( 'NONE', ( #42 ), #182 ) ;
#186 = PRESENTATION_STYLE_ASSIGNMENT (( #148 ) ) ;
#187 = FACE_OUTER_BOUND ( 'NONE', #89, .T. ) ;
#188 = EDGE_LOOP ( 'NONE', ( #43, #190, #281, #95 ) ) ;
#189 = EDGE_CURVE ( 'NONE', #259, #285, #214, .T. ) ;
#190 = ORIENTED_EDGE ( 'NONE', *, *, #175, .T. ) ;
#191 = AXIS2_PLACEMENT_3D ( 'NONE', #109, #222, #134 ) ;
#192 = ORIENTED_EDGE ( 'NONE', *, *, #46, .T. ) ;
#193 =( CONVERSION_BASED_UNIT ( 'INCH', #70 ) LENGTH_UNIT ( ) NAMED_UNIT ( #271 ) );
#194 = ORIENTED_EDGE ( 'NONE', *, *, #60, .F. ) ;
#195 = DIRECTION ( 'NONE',  ( -1.000000000000000000, 0.000000000000000000, 0.000000000000000000 ) ) ;
#196 = MECHANICAL_DESIGN_GEOMETRIC_PRESENTATION_REPRESENTATION (  '', ( #185 ), #262 ) ;
#197 =( NAMED_UNIT ( * ) SI_UNIT ( $, .STERADIAN. ) SOLID_ANGLE_UNIT ( ) );
#198 = ADVANCED_FACE ( 'NONE', ( #207 ), #58, .T. ) ;
#199 = LENGTH_MEASURE_WITH_UNIT ( LENGTH_MEASURE( 0.02539999999999999897 ), #78 );
#200 = COLOUR_RGB ( '',1.000000000000000000, 0.000000000000000000, 0.000000000000000000 ) ;
#201 = PLANE ( 'NONE',  #8 ) ;
#202 = APPLICATION_PROTOCOL_DEFINITION ( 'draft international standard', 'automotive_design', 1998, #107 ) ;
#203 = SURFACE_STYLE_USAGE ( .BOTH. , #157 ) ;
#204 = PRESENTATION_LAYER_ASSIGNMENT (  '', '', ( #185 ) ) ;
#205 = AXIS2_PLACEMENT_3D ( 'NONE', #266, #30, #52 ) ;
#206 = SURFACE_SIDE_STYLE ('',( #113 ) ) ;
#207 = FACE_OUTER_BOUND ( 'NONE', #123, .T. ) ;
#208 = CLOSED_SHELL ( 'NONE', ( #67, #101, #27, #290 ) ) ;
#209 = STYLED_ITEM ( 'NONE', ( #5 ), #59 ) ;
#210 = FACE_OUTER_BOUND ( 'NONE', #188, .T. ) ;
#211 = VERTEX_POINT ( 'NONE', #87 ) ;
#212 = CARTESIAN_POINT ( 'NONE',  ( 0.3750000000000000555, 4.000000000000000000, 4.592425496802576068E-17 ) ) ;
#213 = FILL_AREA_STYLE ('',( #119 ) ) ;
#214 = CIRCLE ( 'NONE', #244, 0.3750000000000000555 ) ;
#215 = ORIENTED_EDGE ( 'NONE', *, *, #254, .T. ) ;
#216 = DIRECTION ( 'NONE',  ( -2.578203787678638882E-17, 1.000000000000000000, -0.000000000000000000 ) ) ;
#217 = CARTESIAN_POINT ( 'NONE',  ( 0.000000000000000000, 0.000000000000000000, -0.3750000000000000555 ) ) ;
#218 = VECTOR ( 'NONE', #144, 39.37007874015748143 ) ;
#219 = CIRCLE ( 'NONE', #305, 0.3750000000000000555 ) ;
#220 = CIRCLE ( 'NONE', #205, 0.3750000000000000555 ) ;
#221 = PRESENTATION_STYLE_ASSIGNMENT (( #203 ) ) ;
#222 = DIRECTION ( 'NONE',  ( -2.578203787678638882E-17, 1.000000000000000000, -0.000000000000000000 ) ) ;
#223 = DIRECTION ( 'NONE',  ( 0.000000000000000000, 0.000000000000000000, -1.000000000000000000 ) ) ;
#224 = UNCERTAINTY_MEASURE_WITH_UNIT (LENGTH_MEASURE( 1.000000000000000082E-05 ), #102, 'distance_accuracy_value', 'NONE');
#225 = PLANE ( 'NONE',  #270 ) ;
#226 = DIMENSIONAL_EXPONENTS ( 1.000000000000000000, 0.000000000000000000, 0.000000000000000000, 0.000000000000000000, 0.000000000000000000, 0.000000000000000000, 0.000000000000000000 ) ;
#227 = FILL_AREA_STYLE ('',( #228 ) ) ;
#228 = FILL_AREA_STYLE_COLOUR ( '', #100 ) ;
#229 = MECHANICAL_DESIGN_GEOMETRIC_PRESENTATION_REPRESENTATION (  '', ( #209 ), #79 ) ;
#230 = LENGTH_MEASURE_WITH_UNIT ( LENGTH_MEASURE( 0.02539999999999999897 ), #85 );
#231 = ORIENTED_EDGE ( 'NONE', *, *, #14, .T. ) ;
#232 = PRESENTATION_LAYER_ASSIGNMENT (  '', '', ( #292 ) ) ;
#233 = EDGE_LOOP ( 'NONE', ( #143, #215 ) ) ;
#234 = ADVANCED_FACE ( 'NONE', ( #169 ), #96, .T. ) ;
#235 = DIRECTION ( 'NONE',  ( -0.000000000000000000, -1.000000000000000000, -0.000000000000000000 ) ) ;
#236 = DIRECTION ( 'NONE',  ( -0.000000000000000000, -1.000000000000000000, -0.000000000000000000 ) ) ;
#237 = DIRECTION ( 'NONE',  ( 0.000000000000000000, -0.000000000000000000, 1.000000000000000000 ) ) ;
#238 = STYLED_ITEM ( 'NONE', ( #186 ), #234 ) ;
#239 = CARTESIAN_POINT ( 'NONE',  ( 0.3750000000000000555, 1.625000000000000000, 4.592425496802576068E-17 ) ) ;
#240 =( NAMED_UNIT ( * ) SI_UNIT ( $, .STERADIAN. ) SOLID_ANGLE_UNIT ( ) );
#241 =( LENGTH_UNIT ( ) NAMED_UNIT ( * ) SI_UNIT ( $, .METRE. ) );
#242 = FILL_AREA_STYLE ('',( #76 ) ) ;
#243 = PRODUCT_RELATED_PRODUCT_CATEGORY ( 'part', '', ( #181 ) ) ;
#244 = AXIS2_PLACEMENT_3D ( 'NONE', #247, #250, #39 ) ;
#245 =( NAMED_UNIT ( * ) PLANE_ANGLE_UNIT ( ) SI_UNIT ( $, .RADIAN. ) );
#246 = EDGE_CURVE ( 'NONE', #173, #303, #35, .T. ) ;
#247 = CARTESIAN_POINT ( 'NONE',  ( 0.000000000000000000, 0.000000000000000000, 0.000000000000000000 ) ) ;
#248 = AXIS2_PLACEMENT_3D ( 'NONE', #283, #235, #114 ) ;
#249 = COLOUR_RGB ( '',1.000000000000000000, 0.000000000000000000, 0.000000000000000000 ) ;
#250 = DIRECTION ( 'NONE',  ( -0.000000000000000000, -1.000000000000000000, -0.000000000000000000 ) ) ;
#251 = PRESENTATION_LAYER_ASSIGNMENT (  '', '', ( #209 ) ) ;
#252 = SURFACE_SIDE_STYLE ('',( #163 ) ) ;
#253 = UNCERTAINTY_MEASURE_WITH_UNIT (LENGTH_MEASURE( 1.000000000000000082E-05 ), #153, 'distance_accuracy_value', 'NONE');
#254 = EDGE_CURVE ( 'NONE', #285, #259, #220, .T. ) ;
#255 = ORIENTED_EDGE ( 'NONE', *, *, #60, .T. ) ;
#256 = CIRCLE ( 'NONE', #127, 0.3750000000000000555 ) ;
#257 = AXIS2_PLACEMENT_3D ( 'NONE', #132, #106, #55 ) ;
#258 = CYLINDRICAL_SURFACE ( 'NONE', #82, 0.3750000000000001110 ) ;
#259 = VERTEX_POINT ( 'NONE', #286 ) ;
#260 = ORIENTED_EDGE ( 'NONE', *, *, #77, .F. ) ;
#261 = DIRECTION ( 'NONE',  ( 0.000000000000000000, 0.000000000000000000, -1.000000000000000000 ) ) ;
#262 =( GEOMETRIC_REPRESENTATION_CONTEXT ( 3 ) GLOBAL_UNCERTAINTY_ASSIGNED_CONTEXT ( ( #166 ) ) GLOBAL_UNIT_ASSIGNED_CONTEXT ( ( #297, #38, #111 ) ) REPRESENTATION_CONTEXT ( 'NONE', 'WORKASPACE' ) );
#263 = DIRECTION ( 'NONE',  ( -2.578203787678638882E-17, 1.000000000000000000, 0.000000000000000000 ) ) ;
#264 = CARTESIAN_POINT ( 'NONE',  ( 0.000000000000000000, 1.625000000000000000, -0.3750000000000000555 ) ) ;
#265 = SURFACE_STYLE_USAGE ( .BOTH. , #53 ) ;
#266 = CARTESIAN_POINT ( 'NONE',  ( 0.000000000000000000, 0.000000000000000000, 0.000000000000000000 ) ) ;
#267 = EDGE_CURVE ( 'NONE', #301, #173, #73, .T. ) ;
#268 = LINE ( 'NONE', #217, #183 ) ;
#269 = FACE_OUTER_BOUND ( 'NONE', #233, .T. ) ;
#270 = AXIS2_PLACEMENT_3D ( 'NONE', #133, #131, #223 ) ;
#271 = DIMENSIONAL_EXPONENTS ( 1.000000000000000000, 0.000000000000000000, 0.000000000000000000, 0.000000000000000000, 0.000000000000000000, 0.000000000000000000, 0.000000000000000000 ) ;
#272 = DIRECTION ( 'NONE',  ( -0.000000000000000000, -1.000000000000000000, -0.000000000000000000 ) ) ;
#273 = SURFACE_STYLE_FILL_AREA ( #180 ) ;
#274 = CIRCLE ( 'NONE', #295, 0.3750000000000000555 ) ;
#275 = DIMENSIONAL_EXPONENTS ( 1.000000000000000000, 0.000000000000000000, 0.000000000000000000, 0.000000000000000000, 0.000000000000000000, 0.000000000000000000, 0.000000000000000000 ) ;
#276 = DIRECTION ( 'NONE',  ( -1.000000000000000000, 0.000000000000000000, 0.000000000000000000 ) ) ;
#277 =( NAMED_UNIT ( * ) SI_UNIT ( $, .STERADIAN. ) SOLID_ANGLE_UNIT ( ) );
#278 =( GEOMETRIC_REPRESENTATION_CONTEXT ( 3 ) GLOBAL_UNCERTAINTY_ASSIGNED_CONTEXT ( ( #253 ) ) GLOBAL_UNIT_ASSIGNED_CONTEXT ( ( #153, #245, #2 ) ) REPRESENTATION_CONTEXT ( 'NONE', 'WORKASPACE' ) );
#279 = CARTESIAN_POINT ( 'NONE',  ( 4.592425496802575451E-17, 0.000000000000000000, 0.3750000000000000555 ) ) ;
#280 = EDGE_LOOP ( 'NONE', ( #48, #167 ) ) ;
#281 = ORIENTED_EDGE ( 'NONE', *, *, #267, .T. ) ;
#282 = PRESENTATION_LAYER_ASSIGNMENT (  '', '', ( #179 ) ) ;
#283 = CARTESIAN_POINT ( 'NONE',  ( 0.000000000000000000, 1.625000000000000000, 0.000000000000000000 ) ) ;
#284 = VERTEX_POINT ( 'NONE', #264 ) ;
#285 = VERTEX_POINT ( 'NONE', #279 ) ;
#286 = CARTESIAN_POINT ( 'NONE',  ( 0.000000000000000000, 0.000000000000000000, -0.3750000000000000555 ) ) ;
#287 =( GEOMETRIC_REPRESENTATION_CONTEXT ( 3 ) GLOBAL_UNCERTAINTY_ASSIGNED_CONTEXT ( ( #224 ) ) GLOBAL_UNIT_ASSIGNED_CONTEXT ( ( #102, #154, #156 ) ) REPRESENTATION_CONTEXT ( 'NONE', 'WORKASPACE' ) );
#288 = SURFACE_SIDE_STYLE ('',( #178 ) ) ;
#289 =( NAMED_UNIT ( * ) SI_UNIT ( $, .STERADIAN. ) SOLID_ANGLE_UNIT ( ) );
#290 = ADVANCED_FACE ( 'NONE', ( #125 ), #128, .F. ) ;
#291 = DIMENSIONAL_EXPONENTS ( 1.000000000000000000, 0.000000000000000000, 0.000000000000000000, 0.000000000000000000, 0.000000000000000000, 0.000000000000000000, 0.000000000000000000 ) ;
#292 = STYLED_ITEM ( 'NONE', ( #221 ), #198 ) ;
#293 = CARTESIAN_POINT ( 'NONE',  ( 1.246337769525090092E-34, 1.625000000000000000, 0.000000000000000000 ) ) ;
#294 = FILL_AREA_STYLE ('',( #139 ) ) ;
#295 = AXIS2_PLACEMENT_3D ( 'NONE', #184, #11, #276 ) ;
#296 = PRODUCT_DEFINITION ( 'UNKNOWN', '', #69, #302 ) ;
#297 =( CONVERSION_BASED_UNIT ( 'INCH', #230 ) LENGTH_UNIT ( ) NAMED_UNIT ( #226 ) );
#298 = FILL_AREA_STYLE_COLOUR ( '', #112 ) ;
#299 = CLOSED_SHELL ( 'NONE', ( #234, #198, #182, #90 ) ) ;
#300 =( GEOMETRIC_REPRESENTATION_CONTEXT ( 3 ) GLOBAL_UNCERTAINTY_ASSIGNED_CONTEXT ( ( #121 ) ) GLOBAL_UNIT_ASSIGNED_CONTEXT ( ( #193, #124, #240 ) ) REPRESENTATION_CONTEXT ( 'NONE', 'WORKASPACE' ) );
#301 = VERTEX_POINT ( 'NONE', #151 ) ;
#302 = PRODUCT_DEFINITION_CONTEXT ( 'detailed design', #107, 'design' ) ;
#303 = VERTEX_POINT ( 'NONE', #34 ) ;
#304 = LENGTH_MEASURE_WITH_UNIT ( LENGTH_MEASURE( 0.02539999999999999897 ), #241 );
#305 = AXIS2_PLACEMENT_3D ( 'NONE', #28, #74, #64 ) ;
#306 = CARTESIAN_POINT ( 'NONE',  ( 0.000000000000000000, 1.625000000000000000, 0.000000000000000000 ) ) ;
#307 = EDGE_LOOP ( 'NONE', ( #231, #255, #47, #260 ) ) ;
#308 = SURFACE_STYLE_USAGE ( .BOTH. , #288 ) ;
#309 = EDGE_CURVE ( 'NONE', #303, #173, #84, .T. ) ;
ENDSEC;
END-ISO-10303-21;
