ISO-10303-21;
HEADER;
FILE_DESCRIPTION (( 'STEP AP214' ),
    '1' );
FILE_NAME ('Micro_BMRM-007-2.STEP',
    '2021-09-03T14:17:28',
    ( '' ),
    ( '' ),
    'SwSTEP 2.0',
    'SolidWorks 2020',
    '' );
FILE_SCHEMA (( 'AUTOMOTIVE_DESIGN' ));
ENDSEC;

DATA;
#1 = DIRECTION ( 'NONE',  ( -1.224646799147353207E-16, -0.0000000000000000000, -1.000000000000000000 ) ) ;
#2 = EDGE_LOOP ( 'NONE', ( #132, #73, #46 ) ) ;
#3 = ORIENTED_EDGE ( 'NONE', *, *, #125, .F. ) ;
#4 = AXIS2_PLACEMENT_3D ( 'NONE', #93, #270, #168 ) ;
#5 = CARTESIAN_POINT ( 'NONE',  ( 0.0000000000000000000, 0.0000000000000000000, 1.953504000000000129 ) ) ;
#6 = CARTESIAN_POINT ( 'NONE',  ( 1.685814554828210248E-18, 0.0000000000000000000, 0.01376572050000000012 ) ) ;
#7 = AXIS2_PLACEMENT_3D ( 'NONE', #228, #1, #100 ) ;
#8 = DIRECTION ( 'NONE',  ( 0.7071067811865502373, 8.659560562354966138E-17, -0.7071067811865446862 ) ) ;
#9 = DIRECTION ( 'NONE',  ( 1.000000000000000000, 0.0000000000000000000, 0.0000000000000000000 ) ) ;
#10 =( NAMED_UNIT ( * ) SI_UNIT ( $, .STERADIAN. ) SOLID_ANGLE_UNIT ( ) );
#11 = AXIS2_PLACEMENT_3D ( 'NONE', #136, #163, #238 ) ;
#12 = AXIS2_PLACEMENT_3D ( 'NONE', #218, #215, #13 ) ;
#13 = DIRECTION ( 'NONE',  ( -1.000000000000000000, 0.0000000000000000000, 0.0000000000000000000 ) ) ;
#14 = CARTESIAN_POINT ( 'NONE',  ( -0.01376572049999999145, 1.685814554828210440E-18, 0.08267699999999998661 ) ) ;
#15 = CIRCLE ( 'NONE', #7, 0.01376572050000000186 ) ;
#16 = CARTESIAN_POINT ( 'NONE',  ( 0.06374000000000018540, 8.724383797125754882E-18, 1.968503999999999809 ) ) ;
#17 = ADVANCED_FACE ( 'NONE', ( #277 ), #201, .T. ) ;
#18 = SHAPE_DEFINITION_REPRESENTATION ( #231, #259 ) ;
#19 = DIRECTION ( 'NONE',  ( -1.224646799147353207E-16, -0.0000000000000000000, -1.000000000000000000 ) ) ;
#20 = FILL_AREA_STYLE_COLOUR ( '', #269 ) ;
#21 = ORIENTED_EDGE ( 'NONE', *, *, #144, .F. ) ;
#22 = VERTEX_POINT ( 'NONE', #126 ) ;
#23 = AXIS2_PLACEMENT_3D ( 'NONE', #27, #188, #240 ) ;
#24 = EDGE_LOOP ( 'NONE', ( #107, #180, #275, #89 ) ) ;
#25 = EDGE_CURVE ( 'NONE', #153, #112, #15, .T. ) ;
#26 = DIRECTION ( 'NONE',  ( -1.000000000000000000, 0.0000000000000000000, 0.0000000000000000000 ) ) ;
#27 = CARTESIAN_POINT ( 'NONE',  ( 0.0000000000000000000, 0.0000000000000000000, 0.0000000000000000000 ) ) ;
#28 = ADVANCED_FACE ( 'NONE', ( #61 ), #47, .T. ) ;
#29 = AXIS2_PLACEMENT_3D ( 'NONE', #305, #120, #26 ) ;
#30 = DIRECTION ( 'NONE',  ( 0.0000000000000000000, 0.0000000000000000000, -1.000000000000000000 ) ) ;
#31 = CARTESIAN_POINT ( 'NONE',  ( 1.685814554828210248E-18, 0.0000000000000000000, 0.01376572050000000012 ) ) ;
#32 = PLANE ( 'NONE',  #11 ) ;
#33 = ORIENTED_EDGE ( 'NONE', *, *, #323, .T. ) ;
#34 = CIRCLE ( 'NONE', #140, 0.07874000000000000443 ) ;
#35 = DIRECTION ( 'NONE',  ( -1.000000000000000000, 0.0000000000000000000, 1.550413757892443654E-16 ) ) ;
#36 = FACE_OUTER_BOUND ( 'NONE', #280, .T. ) ;
#37 = CARTESIAN_POINT ( 'NONE',  ( 5.525170996686576948E-17, 0.0000000000000000000, 0.4511644500711076144 ) ) ;
#38 = DIRECTION ( 'NONE',  ( 1.224646799147353207E-16, 1.000000000000000000, -0.0000000000000000000 ) ) ;
#39 = CARTESIAN_POINT ( 'NONE',  ( 0.0000000000000000000, 0.0000000000000000000, 1.968503999999999809 ) ) ;
#40 = EDGE_CURVE ( 'NONE', #112, #175, #248, .T. ) ;
#41 = ORIENTED_EDGE ( 'NONE', *, *, #198, .T. ) ;
#42 = STYLED_ITEM ( 'NONE', ( #94 ), #259 ) ;
#43 =( LENGTH_UNIT ( ) NAMED_UNIT ( * ) SI_UNIT ( $, .METRE. ) );
#44 = ORIENTED_EDGE ( 'NONE', *, *, #160, .F. ) ;
#45 = ORIENTED_EDGE ( 'NONE', *, *, #198, .F. ) ;
#46 = ORIENTED_EDGE ( 'NONE', *, *, #116, .F. ) ;
#47 = CONICAL_SURFACE ( 'NONE', #217, 0.01376572050000000186, 0.1745329251994338915 ) ;
#48 =( CONVERSION_BASED_UNIT ( 'INCH', #199 ) LENGTH_UNIT ( ) NAMED_UNIT ( #317 ) );
#49 = ORIENTED_EDGE ( 'NONE', *, *, #164, .T. ) ;
#50 = DIRECTION ( 'NONE',  ( -1.224646799147353207E-16, -0.0000000000000000000, -1.000000000000000000 ) ) ;
#51 = DIRECTION ( 'NONE',  ( 1.000000000000000000, 0.0000000000000000000, 0.0000000000000000000 ) ) ;
#52 = CIRCLE ( 'NONE', #285, 0.07874000000000000443 ) ;
#53 = CARTESIAN_POINT ( 'NONE',  ( 1.685814554828210248E-18, 0.0000000000000000000, 0.01376572050000000012 ) ) ;
#54 = DIRECTION ( 'NONE',  ( 1.000000000000000000, 0.0000000000000000000, 0.0000000000000000000 ) ) ;
#55 = ADVANCED_FACE ( 'NONE', ( #118 ), #290, .T. ) ;
#56 = FACE_OUTER_BOUND ( 'NONE', #150, .T. ) ;
#57 = CIRCLE ( 'NONE', #263, 0.01376572050000000533 ) ;
#58 = CARTESIAN_POINT ( 'NONE',  ( 0.01376572050000001400, 0.0000000000000000000, 0.08267699999999998661 ) ) ;
#59 = EDGE_CURVE ( 'NONE', #294, #155, #76, .T. ) ;
#60 = DIRECTION ( 'NONE',  ( 1.000000000000000000, 0.0000000000000000000, 0.0000000000000000000 ) ) ;
#61 = FACE_OUTER_BOUND ( 'NONE', #253, .T. ) ;
#62 = AXIS2_PLACEMENT_3D ( 'NONE', #156, #256, #51 ) ;
#63 = CARTESIAN_POINT ( 'NONE',  ( 0.01376572050000000533, 1.685814554828210826E-18, -1.685814554828210826E-18 ) ) ;
#64 = EDGE_CURVE ( 'NONE', #230, #325, #184, .T. ) ;
#65 = CARTESIAN_POINT ( 'NONE',  ( 0.07874000000000000443, 9.642868896486258509E-18, 1.968503999999999809 ) ) ;
#66 = FILL_AREA_STYLE ('',( #20 ) ) ;
#67 = AXIS2_PLACEMENT_3D ( 'NONE', #53, #308, #234 ) ;
#68 = VERTEX_POINT ( 'NONE', #309 ) ;
#69 = EDGE_LOOP ( 'NONE', ( #314, #49, #41, #229 ) ) ;
#70 = EDGE_CURVE ( 'NONE', #68, #242, #237, .T. ) ;
#71 = LENGTH_MEASURE_WITH_UNIT ( LENGTH_MEASURE( 0.02539999999999999897 ), #178 );
#72 = ORIENTED_EDGE ( 'NONE', *, *, #292, .T. ) ;
#73 = ORIENTED_EDGE ( 'NONE', *, *, #70, .T. ) ;
#74 = COLOUR_RGB ( '',0.7921568627450980005, 0.8196078431372548767, 0.9333333333333333481 ) ;
#75 = ADVANCED_FACE ( 'NONE', ( #77 ), #131, .T. ) ;
#76 = LINE ( 'NONE', #264, #128 ) ;
#77 = FACE_OUTER_BOUND ( 'NONE', #226, .T. ) ;
#78 = DIMENSIONAL_EXPONENTS ( 1.000000000000000000, 0.0000000000000000000, 0.0000000000000000000, 0.0000000000000000000, 0.0000000000000000000, 0.0000000000000000000, 0.0000000000000000000 ) ;
#79 = DIRECTION ( 'NONE',  ( 0.0000000000000000000, 0.0000000000000000000, 1.000000000000000000 ) ) ;
#80 = AXIS2_PLACEMENT_3D ( 'NONE', #267, #84, #297 ) ;
#81 = CARTESIAN_POINT ( 'NONE',  ( 0.0000000000000000000, 0.0000000000000000000, 1.968503999999999809 ) ) ;
#82 = ADVANCED_FACE ( 'NONE', ( #281 ), #260, .T. ) ;
#83 = DIRECTION ( 'NONE',  ( 0.0000000000000000000, 1.000000000000000000, 0.0000000000000000000 ) ) ;
#84 = DIRECTION ( 'NONE',  ( 1.224646799147353207E-16, 0.0000000000000000000, 1.000000000000000000 ) ) ;
#85 = VECTOR ( 'NONE', #19, 39.37007874015748143 ) ;
#86 = ADVANCED_FACE ( 'NONE', ( #286 ), #283, .T. ) ;
#87 = CARTESIAN_POINT ( 'NONE',  ( -0.07874000000000000443, 0.0000000000000000000, 1.953504000000000129 ) ) ;
#88 = CARTESIAN_POINT ( 'NONE',  ( 0.0000000000000000000, 0.0000000000000000000, 1.968503999999999809 ) ) ;
#89 = ORIENTED_EDGE ( 'NONE', *, *, #116, .T. ) ;
#90 = LINE ( 'NONE', #65, #187 ) ;
#91 = UNCERTAINTY_MEASURE_WITH_UNIT (LENGTH_MEASURE( 1.000000000000000082E-05 ), #149, 'distance_accuracy_value', 'NONE');
#92 = AXIS2_PLACEMENT_3D ( 'NONE', #81, #313, #186 ) ;
#93 = CARTESIAN_POINT ( 'NONE',  ( 1.685814554828210248E-18, 0.0000000000000000000, 0.01376572050000000012 ) ) ;
#94 = PRESENTATION_STYLE_ASSIGNMENT (( #123 ) ) ;
#95 = DIRECTION ( 'NONE',  ( 1.000000000000000000, 0.0000000000000000000, 0.0000000000000000000 ) ) ;
#96 = ORIENTED_EDGE ( 'NONE', *, *, #300, .F. ) ;
#97 = CARTESIAN_POINT ( 'NONE',  ( -0.07873999999999994892, 0.0000000000000000000, 0.4511644500711076144 ) ) ;
#98 = ORIENTED_EDGE ( 'NONE', *, *, #250, .T. ) ;
#99 = EDGE_LOOP ( 'NONE', ( #205, #33, #45 ) ) ;
#100 = DIRECTION ( 'NONE',  ( -1.000000000000000000, 0.0000000000000000000, 0.0000000000000000000 ) ) ;
#101 = DIRECTION ( 'NONE',  ( -0.0000000000000000000, -0.0000000000000000000, -1.000000000000000000 ) ) ;
#102 = FACE_OUTER_BOUND ( 'NONE', #303, .T. ) ;
#103 = APPLICATION_CONTEXT ( 'automotive_design' ) ;
#104 = CARTESIAN_POINT ( 'NONE',  ( 0.0000000000000000000, 0.0000000000000000000, 1.968503999999999809 ) ) ;
#105 = VECTOR ( 'NONE', #195, 39.37007874015748143 ) ;
#106 = DIRECTION ( 'NONE',  ( 1.000000000000000000, 0.0000000000000000000, 0.0000000000000000000 ) ) ;
#107 = ORIENTED_EDGE ( 'NONE', *, *, #164, .F. ) ;
#108 = DIRECTION ( 'NONE',  ( 0.0000000000000000000, 0.0000000000000000000, -1.000000000000000000 ) ) ;
#109 = ORIENTED_EDGE ( 'NONE', *, *, #176, .F. ) ;
#110 = ADVANCED_FACE ( 'NONE', ( #56 ), #202, .T. ) ;
#111 = DIRECTION ( 'NONE',  ( 0.1736481776669313859, 0.0000000000000000000, 0.9848077530122077983 ) ) ;
#112 = VERTEX_POINT ( 'NONE', #190 ) ;
#113 = PRESENTATION_STYLE_ASSIGNMENT (( #315 ) ) ;
#114 = DIRECTION ( 'NONE',  ( -1.000000000000000000, 1.224646799147353207E-16, 0.0000000000000000000 ) ) ;
#115 = CARTESIAN_POINT ( 'NONE',  ( -0.06374000000000018540, 0.0000000000000000000, 1.968503999999999809 ) ) ;
#116 = EDGE_CURVE ( 'NONE', #175, #242, #57, .T. ) ;
#117 = PRODUCT_DEFINITION_FORMATION_WITH_SPECIFIED_SOURCE ( 'ANY', '', #243, .NOT_KNOWN. ) ;
#118 = FACE_OUTER_BOUND ( 'NONE', #2, .T. ) ;
#119 =( NAMED_UNIT ( * ) PLANE_ANGLE_UNIT ( ) SI_UNIT ( $, .RADIAN. ) );
#120 = DIRECTION ( 'NONE',  ( 0.0000000000000000000, 0.0000000000000000000, -1.000000000000000000 ) ) ;
#121 = CIRCLE ( 'NONE', #307, 0.07874000000000000443 ) ;
#122 = VERTEX_POINT ( 'NONE', #129 ) ;
#123 = SURFACE_STYLE_USAGE ( .BOTH. , #151 ) ;
#124 = ORIENTED_EDGE ( 'NONE', *, *, #176, .T. ) ;
#125 = EDGE_CURVE ( 'NONE', #325, #22, #158, .T. ) ;
#126 = CARTESIAN_POINT ( 'NONE',  ( 0.07874000000000004607, 9.642868896486264672E-18, 0.4511644500711076144 ) ) ;
#127 = CARTESIAN_POINT ( 'NONE',  ( 0.0000000000000000000, 0.0000000000000000000, 1.968503999999999809 ) ) ;
#128 = VECTOR ( 'NONE', #8, 39.37007874015748854 ) ;
#129 = CARTESIAN_POINT ( 'NONE',  ( -0.06374000000000018540, 0.0000000000000000000, 1.968503999999999809 ) ) ;
#130 = ADVANCED_FACE ( 'NONE', ( #102 ), #32, .T. ) ;
#131 = CYLINDRICAL_SURFACE ( 'NONE', #92, 0.07874000000000000443 ) ;
#132 = ORIENTED_EDGE ( 'NONE', *, *, #323, .F. ) ;
#133 = DIRECTION ( 'NONE',  ( 1.224646799147353207E-16, 0.0000000000000000000, 1.000000000000000000 ) ) ;
#134 = CIRCLE ( 'NONE', #278, 0.06374000000000018540 ) ;
#135 = AXIS2_PLACEMENT_3D ( 'NONE', #304, #146, #324 ) ;
#136 = CARTESIAN_POINT ( 'NONE',  ( 0.0000000000000000000, 0.0000000000000000000, 1.968503999999999809 ) ) ;
#137 = ADVANCED_FACE ( 'NONE', ( #258 ), #210, .T. ) ;
#138 =( NAMED_UNIT ( * ) PLANE_ANGLE_UNIT ( ) SI_UNIT ( $, .RADIAN. ) );
#139 = DIRECTION ( 'NONE',  ( 1.000000000000000000, 0.0000000000000000000, 0.0000000000000000000 ) ) ;
#140 = AXIS2_PLACEMENT_3D ( 'NONE', #310, #288, #106 ) ;
#141 = LINE ( 'NONE', #115, #306 ) ;
#142 = UNCERTAINTY_MEASURE_WITH_UNIT (LENGTH_MEASURE( 1.000000000000000082E-05 ), #197, 'distance_accuracy_value', 'NONE');
#143 = FILL_AREA_STYLE ('',( #319 ) ) ;
#144 = EDGE_CURVE ( 'NONE', #230, #155, #34, .T. ) ;
#145 = STYLED_ITEM ( 'NONE', ( #113 ), #220 ) ;
#146 = DIRECTION ( 'NONE',  ( 0.0000000000000000000, 0.0000000000000000000, 1.000000000000000000 ) ) ;
#147 = DIRECTION ( 'NONE',  ( 1.224646799147353207E-16, 0.0000000000000000000, 1.000000000000000000 ) ) ;
#148 = EDGE_CURVE ( 'NONE', #122, #294, #134, .T. ) ;
#149 =( CONVERSION_BASED_UNIT ( 'INCH', #71 ) LENGTH_UNIT ( ) NAMED_UNIT ( #289 ) );
#150 = EDGE_LOOP ( 'NONE', ( #214, #152, #124, #44 ) ) ;
#151 = SURFACE_SIDE_STYLE ('',( #251 ) ) ;
#152 = ORIENTED_EDGE ( 'NONE', *, *, #148, .F. ) ;
#153 = VERTEX_POINT ( 'NONE', #213 ) ;
#154 = APPLICATION_CONTEXT ( 'automotive_design' ) ;
#155 = VERTEX_POINT ( 'NONE', #233 ) ;
#156 = CARTESIAN_POINT ( 'NONE',  ( 5.525170996686576948E-17, 0.0000000000000000000, 0.4511644500711076144 ) ) ;
#157 = DIRECTION ( 'NONE',  ( -1.000000000000000000, 0.0000000000000000000, 1.224646799147353207E-16 ) ) ;
#158 = CIRCLE ( 'NONE', #62, 0.07874000000000000443 ) ;
#159 = PRESENTATION_LAYER_ASSIGNMENT (  '', '', ( #42 ) ) ;
#160 = EDGE_CURVE ( 'NONE', #155, #230, #52, .T. ) ;
#161 = DIRECTION ( 'NONE',  ( 1.000000000000000000, 0.0000000000000000000, 0.0000000000000000000 ) ) ;
#162 = LINE ( 'NONE', #63, #105 ) ;
#163 = DIRECTION ( 'NONE',  ( 0.0000000000000000000, 0.0000000000000000000, 1.000000000000000000 ) ) ;
#164 = EDGE_CURVE ( 'NONE', #153, #242, #162, .T. ) ;
#165 = PRESENTATION_LAYER_ASSIGNMENT (  '', '', ( #145 ) ) ;
#166 = VECTOR ( 'NONE', #111, 39.37007874015748143 ) ;
#167 = LENGTH_MEASURE_WITH_UNIT ( LENGTH_MEASURE( 0.02539999999999999897 ), #241 );
#168 = DIRECTION ( 'NONE',  ( -1.000000000000000000, 0.0000000000000000000, 1.550413757892443654E-16 ) ) ;
#169 = DIRECTION ( 'NONE',  ( -0.0000000000000000000, -0.0000000000000000000, -1.000000000000000000 ) ) ;
#170 = AXIS2_PLACEMENT_3D ( 'NONE', #39, #169, #266 ) ;
#171 = PRODUCT_DEFINITION ( 'UNKNOWN', '', #117, #282 ) ;
#172 = LINE ( 'NONE', #14, #181 ) ;
#173 = UNCERTAINTY_MEASURE_WITH_UNIT (LENGTH_MEASURE( 1.000000000000000082E-05 ), #48, 'distance_accuracy_value', 'NONE');
#174 = DIRECTION ( 'NONE',  ( -0.0000000000000000000, -0.0000000000000000000, -1.000000000000000000 ) ) ;
#175 = VERTEX_POINT ( 'NONE', #221 ) ;
#176 = EDGE_CURVE ( 'NONE', #122, #230, #141, .T. ) ;
#177 = ORIENTED_EDGE ( 'NONE', *, *, #125, .T. ) ;
#178 =( LENGTH_UNIT ( ) NAMED_UNIT ( * ) SI_UNIT ( $, .METRE. ) );
#179 = ORIENTED_EDGE ( 'NONE', *, *, #298, .T. ) ;
#180 = ORIENTED_EDGE ( 'NONE', *, *, #25, .T. ) ;
#181 = VECTOR ( 'NONE', #320, 39.37007874015747433 ) ;
#182 = APPLICATION_PROTOCOL_DEFINITION ( 'draft international standard', 'automotive_design', 1998, #103 ) ;
#183 = ORIENTED_EDGE ( 'NONE', *, *, #25, .F. ) ;
#184 = LINE ( 'NONE', #262, #244 ) ;
#185 = EDGE_CURVE ( 'NONE', #112, #325, #172, .T. ) ;
#186 = DIRECTION ( 'NONE',  ( -1.000000000000000000, 0.0000000000000000000, 0.0000000000000000000 ) ) ;
#187 = VECTOR ( 'NONE', #174, 39.37007874015748143 ) ;
#188 = DIRECTION ( 'NONE',  ( -1.224646799147353207E-16, -0.0000000000000000000, -1.000000000000000000 ) ) ;
#189 =( GEOMETRIC_REPRESENTATION_CONTEXT ( 3 ) GLOBAL_UNCERTAINTY_ASSIGNED_CONTEXT ( ( #91 ) ) GLOBAL_UNIT_ASSIGNED_CONTEXT ( ( #149, #204, #274 ) ) REPRESENTATION_CONTEXT ( 'NONE', 'WORKASPACE' ) );
#190 = CARTESIAN_POINT ( 'NONE',  ( -0.01376572049999999145, 5.664341725657234667E-18, 0.08267699999999998661 ) ) ;
#191 = CARTESIAN_POINT ( 'NONE',  ( 0.0000000000000000000, 0.0000000000000000000, 0.0000000000000000000 ) ) ;
#192 = LINE ( 'NONE', #58, #166 ) ;
#193 = AXIS2_PLACEMENT_3D ( 'NONE', #88, #194, #60 ) ;
#194 = DIRECTION ( 'NONE',  ( 0.0000000000000000000, 0.0000000000000000000, 1.000000000000000000 ) ) ;
#195 = DIRECTION ( 'NONE',  ( -1.224646799147353207E-16, -0.0000000000000000000, -1.000000000000000000 ) ) ;
#196 = CIRCLE ( 'NONE', #193, 0.06374000000000018540 ) ;
#197 =( CONVERSION_BASED_UNIT ( 'INCH', #167 ) LENGTH_UNIT ( ) NAMED_UNIT ( #78 ) );
#198 = EDGE_CURVE ( 'NONE', #242, #175, #222, .T. ) ;
#199 = LENGTH_MEASURE_WITH_UNIT ( LENGTH_MEASURE( 0.02539999999999999897 ), #43 );
#200 = ORIENTED_EDGE ( 'NONE', *, *, #296, .F. ) ;
#201 = CONICAL_SURFACE ( 'NONE', #29, 0.06374000000000018540, 0.7853981633974522758 ) ;
#202 = CONICAL_SURFACE ( 'NONE', #301, 0.06374000000000018540, 0.7853981633974522758 ) ;
#203 = ORIENTED_EDGE ( 'NONE', *, *, #300, .T. ) ;
#204 =( NAMED_UNIT ( * ) PLANE_ANGLE_UNIT ( ) SI_UNIT ( $, .RADIAN. ) );
#205 = ORIENTED_EDGE ( 'NONE', *, *, #70, .F. ) ;
#206 = CLOSED_SHELL ( 'NONE', ( #82, #86, #28, #17, #255, #75, #130, #110, #223, #137, #55 ) ) ;
#207 = ORIENTED_EDGE ( 'NONE', *, *, #250, .F. ) ;
#208 = ORIENTED_EDGE ( 'NONE', *, *, #292, .F. ) ;
#209 = DIRECTION ( 'NONE',  ( 0.0000000000000000000, 1.000000000000000000, 0.0000000000000000000 ) ) ;
#210 = CYLINDRICAL_SURFACE ( 'NONE', #23, 0.01376572050000000533 ) ;
#211 = DIRECTION ( 'NONE',  ( -1.000000000000000000, 0.0000000000000000000, 0.0000000000000000000 ) ) ;
#212 = CIRCLE ( 'NONE', #245, 0.01376572050000000012 ) ;
#213 = CARTESIAN_POINT ( 'NONE',  ( 0.01376572050000001400, 0.0000000000000000000, 0.08267699999999998661 ) ) ;
#214 = ORIENTED_EDGE ( 'NONE', *, *, #59, .F. ) ;
#215 = DIRECTION ( 'NONE',  ( -1.224646799147353207E-16, -0.0000000000000000000, -1.000000000000000000 ) ) ;
#216 = EDGE_LOOP ( 'NONE', ( #96, #316, #21, #109 ) ) ;
#217 = AXIS2_PLACEMENT_3D ( 'NONE', #272, #147, #95 ) ;
#218 = CARTESIAN_POINT ( 'NONE',  ( 1.012501234131057143E-17, 0.0000000000000000000, 0.08267699999999998661 ) ) ;
#219 = FACE_OUTER_BOUND ( 'NONE', #299, .T. ) ;
#220 = MANIFOLD_SOLID_BREP ( 'Fillet1', #206 ) ;
#221 = CARTESIAN_POINT ( 'NONE',  ( -0.01376572050000000186, 0.0000000000000000000, 0.01376572050000000186 ) ) ;
#222 = CIRCLE ( 'NONE', #4, 0.01376572050000000533 ) ;
#223 = ADVANCED_FACE ( 'NONE', ( #219 ), #227, .T. ) ;
#224 =( NAMED_UNIT ( * ) SI_UNIT ( $, .STERADIAN. ) SOLID_ANGLE_UNIT ( ) );
#225 = CARTESIAN_POINT ( 'NONE',  ( -0.01376572050000000533, 0.0000000000000000000, 1.685814554828210826E-18 ) ) ;
#226 = EDGE_LOOP ( 'NONE', ( #207, #276, #302, #208 ) ) ;
#227 = CONICAL_SURFACE ( 'NONE', #80, 0.01376572050000000186, 0.1745329251994338915 ) ;
#228 = CARTESIAN_POINT ( 'NONE',  ( 1.012501234131057143E-17, 0.0000000000000000000, 0.08267699999999998661 ) ) ;
#229 = ORIENTED_EDGE ( 'NONE', *, *, #40, .F. ) ;
#230 = VERTEX_POINT ( 'NONE', #87 ) ;
#231 = PRODUCT_DEFINITION_SHAPE ( 'NONE', 'NONE',  #171 ) ;
#232 = CIRCLE ( 'NONE', #12, 0.01376572050000000186 ) ;
#233 = CARTESIAN_POINT ( 'NONE',  ( 0.07874000000000000443, 9.642868896486258509E-18, 1.953504000000000129 ) ) ;
#234 = DIRECTION ( 'NONE',  ( 0.0000000000000000000, 0.0000000000000000000, -1.000000000000000000 ) ) ;
#235 = CARTESIAN_POINT ( 'NONE',  ( 1.685814554828210248E-18, 0.0000000000000000000, 0.01376572050000000012 ) ) ;
#236 = ORIENTED_EDGE ( 'NONE', *, *, #144, .T. ) ;
#237 = CIRCLE ( 'NONE', #67, 0.01376572050000000012 ) ;
#238 = DIRECTION ( 'NONE',  ( 1.000000000000000000, 0.0000000000000000000, -0.0000000000000000000 ) ) ;
#239 = MECHANICAL_DESIGN_GEOMETRIC_PRESENTATION_REPRESENTATION (  '', ( #42 ), #321 ) ;
#240 = DIRECTION ( 'NONE',  ( -1.000000000000000000, 0.0000000000000000000, 1.224646799147353207E-16 ) ) ;
#241 =( LENGTH_UNIT ( ) NAMED_UNIT ( * ) SI_UNIT ( $, .METRE. ) );
#242 = VERTEX_POINT ( 'NONE', #291 ) ;
#243 = PRODUCT ( 'Micro_BMRM-007-2', 'Micro_BMRM-007-2', '', ( #279 ) ) ;
#244 = VECTOR ( 'NONE', #101, 39.37007874015748143 ) ;
#245 = AXIS2_PLACEMENT_3D ( 'NONE', #293, #38, #114 ) ;
#246 = DIRECTION ( 'NONE',  ( -1.224646799147353207E-16, -0.0000000000000000000, -1.000000000000000000 ) ) ;
#247 = MECHANICAL_DESIGN_GEOMETRIC_PRESENTATION_REPRESENTATION (  '', ( #145 ), #284 ) ;
#248 = LINE ( 'NONE', #225, #85 ) ;
#249 = ORIENTED_EDGE ( 'NONE', *, *, #185, .F. ) ;
#250 = EDGE_CURVE ( 'NONE', #155, #22, #90, .T. ) ;
#251 = SURFACE_STYLE_FILL_AREA ( #66 ) ;
#252 = ORIENTED_EDGE ( 'NONE', *, *, #185, .T. ) ;
#253 = EDGE_LOOP ( 'NONE', ( #200, #252, #177, #265 ) ) ;
#254 = ORIENTED_EDGE ( 'NONE', *, *, #148, .T. ) ;
#255 = ADVANCED_FACE ( 'NONE', ( #36 ), #271, .T. ) ;
#256 = DIRECTION ( 'NONE',  ( -1.224646799147353207E-16, -0.0000000000000000000, -1.000000000000000000 ) ) ;
#257 = AXIS2_PLACEMENT_3D ( 'NONE', #6, #83, #161 ) ;
#258 = FACE_OUTER_BOUND ( 'NONE', #24, .T. ) ;
#259 = ADVANCED_BREP_SHAPE_REPRESENTATION ( 'Micro_BMRM-007-2', ( #220, #135 ), #189 ) ;
#260 = SPHERICAL_SURFACE ( 'NONE', #257, 0.01376572050000000012 ) ;
#261 = ORIENTED_EDGE ( 'NONE', *, *, #64, .F. ) ;
#262 = CARTESIAN_POINT ( 'NONE',  ( -0.07874000000000000443, 0.0000000000000000000, 1.968503999999999809 ) ) ;
#263 = AXIS2_PLACEMENT_3D ( 'NONE', #31, #133, #35 ) ;
#264 = CARTESIAN_POINT ( 'NONE',  ( 0.06374000000000018540, 7.805898697765251255E-18, 1.968503999999999809 ) ) ;
#265 = ORIENTED_EDGE ( 'NONE', *, *, #298, .F. ) ;
#266 = DIRECTION ( 'NONE',  ( -1.000000000000000000, 0.0000000000000000000, 0.0000000000000000000 ) ) ;
#267 = CARTESIAN_POINT ( 'NONE',  ( 1.012501234131057143E-17, 0.0000000000000000000, 0.08267699999999998661 ) ) ;
#268 = DIRECTION ( 'NONE',  ( -0.7071067811865502373, 0.0000000000000000000, -0.7071067811865446862 ) ) ;
#269 = COLOUR_RGB ( '',0.7921568627450980005, 0.8196078431372548767, 0.9333333333333333481 ) ;
#270 = DIRECTION ( 'NONE',  ( 1.224646799147353207E-16, 0.0000000000000000000, 1.000000000000000000 ) ) ;
#271 = CYLINDRICAL_SURFACE ( 'NONE', #170, 0.07874000000000000443 ) ;
#272 = CARTESIAN_POINT ( 'NONE',  ( 1.012501234131057143E-17, 0.0000000000000000000, 0.08267699999999998661 ) ) ;
#273 = AXIS2_PLACEMENT_3D ( 'NONE', #235, #209, #312 ) ;
#274 =( NAMED_UNIT ( * ) SI_UNIT ( $, .STERADIAN. ) SOLID_ANGLE_UNIT ( ) );
#275 = ORIENTED_EDGE ( 'NONE', *, *, #40, .T. ) ;
#276 = ORIENTED_EDGE ( 'NONE', *, *, #160, .T. ) ;
#277 = FACE_OUTER_BOUND ( 'NONE', #216, .T. ) ;
#278 = AXIS2_PLACEMENT_3D ( 'NONE', #127, #79, #9 ) ;
#279 = PRODUCT_CONTEXT ( 'NONE', #103, 'mechanical' ) ;
#280 = EDGE_LOOP ( 'NONE', ( #236, #98, #3, #261 ) ) ;
#281 = FACE_OUTER_BOUND ( 'NONE', #99, .T. ) ;
#282 = PRODUCT_DEFINITION_CONTEXT ( 'detailed design', #154, 'design' ) ;
#283 = CYLINDRICAL_SURFACE ( 'NONE', #311, 0.01376572050000000533 ) ;
#284 =( GEOMETRIC_REPRESENTATION_CONTEXT ( 3 ) GLOBAL_UNCERTAINTY_ASSIGNED_CONTEXT ( ( #142 ) ) GLOBAL_UNIT_ASSIGNED_CONTEXT ( ( #197, #138, #10 ) ) REPRESENTATION_CONTEXT ( 'NONE', 'WORKASPACE' ) );
#285 = AXIS2_PLACEMENT_3D ( 'NONE', #5, #30, #54 ) ;
#286 = FACE_OUTER_BOUND ( 'NONE', #69, .T. ) ;
#287 = PRODUCT_RELATED_PRODUCT_CATEGORY ( 'part', '', ( #243 ) ) ;
#288 = DIRECTION ( 'NONE',  ( 0.0000000000000000000, 0.0000000000000000000, -1.000000000000000000 ) ) ;
#289 = DIMENSIONAL_EXPONENTS ( 1.000000000000000000, 0.0000000000000000000, 0.0000000000000000000, 0.0000000000000000000, 0.0000000000000000000, 0.0000000000000000000, 0.0000000000000000000 ) ;
#290 = SPHERICAL_SURFACE ( 'NONE', #273, 0.01376572050000000012 ) ;
#291 = CARTESIAN_POINT ( 'NONE',  ( 0.01376572050000000706, 1.685814554828210826E-18, 0.01376572049999999839 ) ) ;
#292 = EDGE_CURVE ( 'NONE', #22, #325, #121, .T. ) ;
#293 = CARTESIAN_POINT ( 'NONE',  ( 1.685814554828210248E-18, 0.0000000000000000000, 0.01376572050000000012 ) ) ;
#294 = VERTEX_POINT ( 'NONE', #16 ) ;
#295 = SURFACE_STYLE_FILL_AREA ( #143 ) ;
#296 = EDGE_CURVE ( 'NONE', #112, #153, #232, .T. ) ;
#297 = DIRECTION ( 'NONE',  ( 1.000000000000000000, 0.0000000000000000000, 0.0000000000000000000 ) ) ;
#298 = EDGE_CURVE ( 'NONE', #153, #22, #192, .T. ) ;
#299 = EDGE_LOOP ( 'NONE', ( #249, #183, #179, #72 ) ) ;
#300 = EDGE_CURVE ( 'NONE', #294, #122, #196, .T. ) ;
#301 = AXIS2_PLACEMENT_3D ( 'NONE', #104, #108, #211 ) ;
#302 = ORIENTED_EDGE ( 'NONE', *, *, #64, .T. ) ;
#303 = EDGE_LOOP ( 'NONE', ( #254, #203 ) ) ;
#304 = CARTESIAN_POINT ( 'NONE',  ( 0.0000000000000000000, 0.0000000000000000000, 0.0000000000000000000 ) ) ;
#305 = CARTESIAN_POINT ( 'NONE',  ( 0.0000000000000000000, 0.0000000000000000000, 1.968503999999999809 ) ) ;
#306 = VECTOR ( 'NONE', #268, 39.37007874015748854 ) ;
#307 = AXIS2_PLACEMENT_3D ( 'NONE', #37, #246, #139 ) ;
#308 = DIRECTION ( 'NONE',  ( 0.0000000000000000000, -1.000000000000000000, 0.0000000000000000000 ) ) ;
#309 = CARTESIAN_POINT ( 'NONE',  ( 2.528721832242315468E-18, 0.0000000000000000000, 0.0000000000000000000 ) ) ;
#310 = CARTESIAN_POINT ( 'NONE',  ( 0.0000000000000000000, 0.0000000000000000000, 1.953504000000000129 ) ) ;
#311 = AXIS2_PLACEMENT_3D ( 'NONE', #191, #50, #157 ) ;
#312 = DIRECTION ( 'NONE',  ( 1.000000000000000000, 0.0000000000000000000, 0.0000000000000000000 ) ) ;
#313 = DIRECTION ( 'NONE',  ( -0.0000000000000000000, -0.0000000000000000000, -1.000000000000000000 ) ) ;
#314 = ORIENTED_EDGE ( 'NONE', *, *, #296, .T. ) ;
#315 = SURFACE_STYLE_USAGE ( .BOTH. , #318 ) ;
#316 = ORIENTED_EDGE ( 'NONE', *, *, #59, .T. ) ;
#317 = DIMENSIONAL_EXPONENTS ( 1.000000000000000000, 0.0000000000000000000, 0.0000000000000000000, 0.0000000000000000000, 0.0000000000000000000, 0.0000000000000000000, 0.0000000000000000000 ) ;
#318 = SURFACE_SIDE_STYLE ('',( #295 ) ) ;
#319 = FILL_AREA_STYLE_COLOUR ( '', #74 ) ;
#320 = DIRECTION ( 'NONE',  ( -0.1736481776669311916, 2.126576849575783316E-17, 0.9848077530122080203 ) ) ;
#321 =( GEOMETRIC_REPRESENTATION_CONTEXT ( 3 ) GLOBAL_UNCERTAINTY_ASSIGNED_CONTEXT ( ( #173 ) ) GLOBAL_UNIT_ASSIGNED_CONTEXT ( ( #48, #119, #224 ) ) REPRESENTATION_CONTEXT ( 'NONE', 'WORKASPACE' ) );
#322 = APPLICATION_PROTOCOL_DEFINITION ( 'draft international standard', 'automotive_design', 1998, #154 ) ;
#323 = EDGE_CURVE ( 'NONE', #68, #175, #212, .T. ) ;
#324 = DIRECTION ( 'NONE',  ( 1.000000000000000000, 0.0000000000000000000, 0.0000000000000000000 ) ) ;
#325 = VERTEX_POINT ( 'NONE', #97 ) ;
ENDSEC;
END-ISO-10303-21;
