ISO-10303-21;
HEADER;
FILE_DESCRIPTION (( 'STEP AP214' ),
    '1' );
FILE_NAME ('84584.STEP',
    '2023-07-12T13:08:29',
    ( '' ),
    ( '' ),
    'SwSTEP 2.0',
    'SolidWorks 2023',
    '' );
FILE_SCHEMA (( 'AUTOMOTIVE_DESIGN' ));
ENDSEC;

DATA;
#1 = EDGE_CURVE ( 'NONE', #117, #48, #150, .T. ) ;
#2 = AXIS2_PLACEMENT_3D ( 'NONE', #201, #163, #114 ) ;
#3 = MECHANICAL_DESIGN_GEOMETRIC_PRESENTATION_REPRESENTATION (  '', ( #145 ), #245 ) ;
#4 = UNCERTAINTY_MEASURE_WITH_UNIT (LENGTH_MEASURE( 1.000000000000000082E-05 ), #269, 'distance_accuracy_value', 'NONE');
#5 = PRESENTATION_STYLE_ASSIGNMENT (( #175 ) ) ;
#6 = SURFACE_STYLE_USAGE ( .BOTH. , #62 ) ;
#7 = COLOUR_RGB ( '',0.7921568627450980005, 0.8196078431372548767, 0.9333333333333333481 ) ;
#8 = CIRCLE ( 'NONE', #306, 0.06250000000000000000 ) ;
#9 = FILL_AREA_STYLE ('',( #125 ) ) ;
#10 = FILL_AREA_STYLE_COLOUR ( '', #7 ) ;
#11 =( NAMED_UNIT ( * ) SI_UNIT ( $, .STERADIAN. ) SOLID_ANGLE_UNIT ( ) );
#12 = AXIS2_PLACEMENT_3D ( 'NONE', #101, #289, #158 ) ;
#13 = ORIENTED_EDGE ( 'NONE', *, *, #28, .T. ) ;
#14 = PRESENTATION_LAYER_ASSIGNMENT (  '', '', ( #156 ) ) ;
#15 = SURFACE_STYLE_FILL_AREA ( #296 ) ;
#16 = ORIENTED_EDGE ( 'NONE', *, *, #28, .F. ) ;
#17 = ADVANCED_FACE ( 'NONE', ( #91 ), #26, .F. ) ;
#18 = DIRECTION ( 'NONE',  ( -4.846530102532920424E-33, 1.000000000000000000, 0.000000000000000000 ) ) ;
#19 = ORIENTED_EDGE ( 'NONE', *, *, #65, .T. ) ;
#20 =( CONVERSION_BASED_UNIT ( 'INCH', #47 ) LENGTH_UNIT ( ) NAMED_UNIT ( #184 ) );
#21 = DIRECTION ( 'NONE',  ( -1.000000000000000000, 0.000000000000000000, 0.000000000000000000 ) ) ;
#22 = DIRECTION ( 'NONE',  ( -1.000000000000000000, -8.026776328285230384E-17, 0.000000000000000000 ) ) ;
#23 = EDGE_LOOP ( 'NONE', ( #90, #213, #192, #226 ) ) ;
#24 = DIRECTION ( 'NONE',  ( 4.846530102532920424E-33, -1.000000000000000000, -0.000000000000000000 ) ) ;
#25 = STYLED_ITEM ( 'NONE', ( #5 ), #102 ) ;
#26 = PLANE ( 'NONE',  #295 ) ;
#27 = FILL_AREA_STYLE_COLOUR ( '', #267 ) ;
#28 = EDGE_CURVE ( 'NONE', #209, #112, #8, .T. ) ;
#29 =( LENGTH_UNIT ( ) NAMED_UNIT ( * ) SI_UNIT ( $, .METRE. ) );
#30 = PRESENTATION_STYLE_ASSIGNMENT (( #6 ) ) ;
#31 = CIRCLE ( 'NONE', #64, 0.06249999999999981959 ) ;
#32 = AXIS2_PLACEMENT_3D ( 'NONE', #98, #24, #193 ) ;
#33 = COLOUR_RGB ( '',1.000000000000000000, 0.000000000000000000, 0.000000000000000000 ) ;
#34 = CARTESIAN_POINT ( 'NONE',  ( -0.06249999999999999306, 0.04889065730689275829, 0.000000000000000000 ) ) ;
#35 = FACE_OUTER_BOUND ( 'NONE', #297, .T. ) ;
#36 = SURFACE_STYLE_USAGE ( .BOTH. , #255 ) ;
#37 = FILL_AREA_STYLE ('',( #232 ) ) ;
#38 = PRESENTATION_LAYER_ASSIGNMENT (  '', '', ( #25 ) ) ;
#39 = PRODUCT_DEFINITION_FORMATION_WITH_SPECIFIED_SOURCE ( 'ANY', '', #247, .NOT_KNOWN. ) ;
#40 =( LENGTH_UNIT ( ) NAMED_UNIT ( * ) SI_UNIT ( $, .METRE. ) );
#41 = UNCERTAINTY_MEASURE_WITH_UNIT (LENGTH_MEASURE( 1.000000000000000082E-05 ), #115, 'distance_accuracy_value', 'NONE');
#42 = ORIENTED_EDGE ( 'NONE', *, *, #111, .T. ) ;
#43 = CARTESIAN_POINT ( 'NONE',  ( 1.777096411741933493E-16, 0.04889065730689275829, 0.000000000000000000 ) ) ;
#44 = PLANE ( 'NONE',  #272 ) ;
#45 = AXIS2_PLACEMENT_3D ( 'NONE', #280, #284, #77 ) ;
#46 = SURFACE_STYLE_FILL_AREA ( #197 ) ;
#47 = LENGTH_MEASURE_WITH_UNIT ( LENGTH_MEASURE( 0.02539999999999999897 ), #208 );
#48 = VERTEX_POINT ( 'NONE', #116 ) ;
#49 = CARTESIAN_POINT ( 'NONE',  ( -0.06249999999999986816, 1.500000000000000222, 0.000000000000000000 ) ) ;
#50 = CARTESIAN_POINT ( 'NONE',  ( 4.697770806951551639E-67, -9.693060205065840677E-35, 0.000000000000000000 ) ) ;
#51 = AXIS2_PLACEMENT_3D ( 'NONE', #251, #160, #252 ) ;
#52 = DIRECTION ( 'NONE',  ( -8.026776328285230384E-17, 1.000000000000000000, -0.000000000000000000 ) ) ;
#53 = EDGE_CURVE ( 'NONE', #278, #195, #93, .T. ) ;
#54 = SURFACE_SIDE_STYLE ('',( #105 ) ) ;
#55 = VECTOR ( 'NONE', #298, 39.37007874015748143 ) ;
#56 = CIRCLE ( 'NONE', #229, 0.06249999999999981959 ) ;
#57 = PRESENTATION_STYLE_ASSIGNMENT (( #103 ) ) ;
#58 = ADVANCED_FACE ( 'NONE', ( #265 ), #212, .T. ) ;
#59 =( NAMED_UNIT ( * ) SI_UNIT ( $, .STERADIAN. ) SOLID_ANGLE_UNIT ( ) );
#60 = MANIFOLD_SOLID_BREP ( 'Revolve - Tool Body (Tipped Off)', #261 ) ;
#61 =( LENGTH_UNIT ( ) NAMED_UNIT ( * ) SI_UNIT ( $, .METRE. ) );
#62 = SURFACE_SIDE_STYLE ('',( #286 ) ) ;
#63 = CARTESIAN_POINT ( 'NONE',  ( -0.06249999999999963918, 0.04889065730689283462, 0.000000000000000000 ) ) ;
#64 = AXIS2_PLACEMENT_3D ( 'NONE', #70, #222, #203 ) ;
#65 = EDGE_CURVE ( 'NONE', #112, #209, #81, .T. ) ;
#66 = ORIENTED_EDGE ( 'NONE', *, *, #236, .F. ) ;
#67 = DIMENSIONAL_EXPONENTS ( 1.000000000000000000, 0.000000000000000000, 0.000000000000000000, 0.000000000000000000, 0.000000000000000000, 0.000000000000000000, 0.000000000000000000 ) ;
#68 = MECHANICAL_DESIGN_GEOMETRIC_PRESENTATION_REPRESENTATION (  '', ( #254 ), #227 ) ;
#69 = VERTEX_POINT ( 'NONE', #63 ) ;
#70 = CARTESIAN_POINT ( 'NONE',  ( 1.777096411741933493E-16, 0.04889065730689284156, 0.000000000000000000 ) ) ;
#71 = ORIENTED_EDGE ( 'NONE', *, *, #291, .F. ) ;
#72 = EDGE_CURVE ( 'NONE', #69, #278, #56, .T. ) ;
#73 = COLOUR_RGB ( '',1.000000000000000000, 0.000000000000000000, 0.000000000000000000 ) ;
#74 = ORIENTED_EDGE ( 'NONE', *, *, #291, .T. ) ;
#75 = CARTESIAN_POINT ( 'NONE',  ( 0.06249999999999999306, 0.04889065730689275829, 7.654042494670957545E-18 ) ) ;
#76 = SURFACE_SIDE_STYLE ('',( #46 ) ) ;
#77 = DIRECTION ( 'NONE',  ( 1.000000000000000000, 4.846530102532920424E-33, 0.000000000000000000 ) ) ;
#78 =( NAMED_UNIT ( * ) SI_UNIT ( $, .STERADIAN. ) SOLID_ANGLE_UNIT ( ) );
#79 = FILL_AREA_STYLE ('',( #243 ) ) ;
#80 = CIRCLE ( 'NONE', #51, 0.06249999999999993061 ) ;
#81 = CIRCLE ( 'NONE', #154, 0.06250000000000000000 ) ;
#82 = ADVANCED_FACE ( 'NONE', ( #199 ), #120, .T. ) ;
#83 =( NAMED_UNIT ( * ) SI_UNIT ( $, .STERADIAN. ) SOLID_ANGLE_UNIT ( ) );
#84 = DIMENSIONAL_EXPONENTS ( 1.000000000000000000, 0.000000000000000000, 0.000000000000000000, 0.000000000000000000, 0.000000000000000000, 0.000000000000000000, 0.000000000000000000 ) ;
#85 = UNCERTAINTY_MEASURE_WITH_UNIT (LENGTH_MEASURE( 1.000000000000000082E-05 ), #20, 'distance_accuracy_value', 'NONE');
#86 = LENGTH_MEASURE_WITH_UNIT ( LENGTH_MEASURE( 0.02539999999999999897 ), #40 );
#87 = CARTESIAN_POINT ( 'NONE',  ( 0.06249999999999999306, 0.04889065730689284850, 7.654042494670946760E-18 ) ) ;
#88 = AXIS2_PLACEMENT_3D ( 'NONE', #97, #166, #308 ) ;
#89 =( LENGTH_UNIT ( ) NAMED_UNIT ( * ) SI_UNIT ( $, .METRE. ) );
#90 = ORIENTED_EDGE ( 'NONE', *, *, #72, .T. ) ;
#91 = FACE_OUTER_BOUND ( 'NONE', #141, .T. ) ;
#92 = APPLICATION_PROTOCOL_DEFINITION ( 'draft international standard', 'automotive_design', 1998, #224 ) ;
#93 = LINE ( 'NONE', #309, #218 ) ;
#94 = MECHANICAL_DESIGN_GEOMETRIC_PRESENTATION_REPRESENTATION (  '', ( #25 ), #133 ) ;
#95 = COLOUR_RGB ( '',1.000000000000000000, 0.000000000000000000, 0.000000000000000000 ) ;
#96 = DIRECTION ( 'NONE',  ( 4.846530102532920424E-33, -1.000000000000000000, -0.000000000000000000 ) ) ;
#97 = CARTESIAN_POINT ( 'NONE',  ( 6.123233995736763571E-17, 1.500000000000000222, 0.000000000000000000 ) ) ;
#98 = CARTESIAN_POINT ( 'NONE',  ( 4.697770806951551639E-67, -9.693060205065840677E-35, 0.000000000000000000 ) ) ;
#99 =( NAMED_UNIT ( * ) PLANE_ANGLE_UNIT ( ) SI_UNIT ( $, .RADIAN. ) );
#100 = CONICAL_SURFACE ( 'NONE', #167, 0.02000000000000000042, 0.7155849933176765543 ) ;
#101 = CARTESIAN_POINT ( 'NONE',  ( 2.348885403475775820E-67, -4.846530102532920338E-35, 0.000000000000000000 ) ) ;
#102 = ADVANCED_FACE ( 'NONE', ( #157 ), #152, .T. ) ;
#103 = SURFACE_STYLE_USAGE ( .BOTH. , #153 ) ;
#104 = LENGTH_MEASURE_WITH_UNIT ( LENGTH_MEASURE( 0.02539999999999999897 ), #29 );
#105 = SURFACE_STYLE_FILL_AREA ( #9 ) ;
#106 =( NAMED_UNIT ( * ) PLANE_ANGLE_UNIT ( ) SI_UNIT ( $, .RADIAN. ) );
#107 =( GEOMETRIC_REPRESENTATION_CONTEXT ( 3 ) GLOBAL_UNCERTAINTY_ASSIGNED_CONTEXT ( ( #4 ) ) GLOBAL_UNIT_ASSIGNED_CONTEXT ( ( #269, #132, #59 ) ) REPRESENTATION_CONTEXT ( 'NONE', 'WORKASPACE' ) );
#108 = PRESENTATION_LAYER_ASSIGNMENT (  '', '', ( #187 ) ) ;
#109 = CARTESIAN_POINT ( 'NONE',  ( 0.02000000000000000042, 0.000000000000000000, 5.051668046482830809E-18 ) ) ;
#110 = ADVANCED_BREP_SHAPE_REPRESENTATION ( '84584', ( #170, #60, #2 ), #282 ) ;
#111 = EDGE_CURVE ( 'NONE', #69, #253, #176, .T. ) ;
#112 = VERTEX_POINT ( 'NONE', #34 ) ;
#113 = DIRECTION ( 'NONE',  ( -8.026776328285230384E-17, 1.000000000000000000, -0.000000000000000000 ) ) ;
#114 = DIRECTION ( 'NONE',  ( 1.000000000000000000, 0.000000000000000000, 0.000000000000000000 ) ) ;
#115 =( CONVERSION_BASED_UNIT ( 'INCH', #86 ) LENGTH_UNIT ( ) NAMED_UNIT ( #67 ) );
#116 = CARTESIAN_POINT ( 'NONE',  ( -0.02000000000000000042, -1.938612041013168135E-34, 0.000000000000000000 ) ) ;
#117 = VERTEX_POINT ( 'NONE', #109 ) ;
#118 = DIRECTION ( 'NONE',  ( 8.026776328285230384E-17, -1.000000000000000000, 0.000000000000000000 ) ) ;
#119 = EDGE_CURVE ( 'NONE', #48, #112, #136, .T. ) ;
#120 = CONICAL_SURFACE ( 'NONE', #241, 0.02000000000000000042, 0.7155849933176765543 ) ;
#121 = FACE_OUTER_BOUND ( 'NONE', #275, .T. ) ;
#122 = UNCERTAINTY_MEASURE_WITH_UNIT (LENGTH_MEASURE( 1.000000000000000082E-05 ), #273, 'distance_accuracy_value', 'NONE');
#123 = FILL_AREA_STYLE ('',( #27 ) ) ;
#124 = FILL_AREA_STYLE_COLOUR ( '', #302 ) ;
#125 = FILL_AREA_STYLE_COLOUR ( '', #73 ) ;
#126 =( GEOMETRIC_REPRESENTATION_CONTEXT ( 3 ) GLOBAL_UNCERTAINTY_ASSIGNED_CONTEXT ( ( #122 ) ) GLOBAL_UNIT_ASSIGNED_CONTEXT ( ( #273, #189, #191 ) ) REPRESENTATION_CONTEXT ( 'NONE', 'WORKASPACE' ) );
#127 = ADVANCED_FACE ( 'NONE', ( #137 ), #161, .T. ) ;
#128 = DIRECTION ( 'NONE',  ( -1.000000000000000000, -1.365923996832135554E-16, 0.000000000000000000 ) ) ;
#129 =( CONVERSION_BASED_UNIT ( 'INCH', #244 ) LENGTH_UNIT ( ) NAMED_UNIT ( #304 ) );
#130 = ADVANCED_FACE ( 'NONE', ( #159 ), #258, .T. ) ;
#131 = LENGTH_MEASURE_WITH_UNIT ( LENGTH_MEASURE( 0.02539999999999999897 ), #61 );
#132 =( NAMED_UNIT ( * ) PLANE_ANGLE_UNIT ( ) SI_UNIT ( $, .RADIAN. ) );
#133 =( GEOMETRIC_REPRESENTATION_CONTEXT ( 3 ) GLOBAL_UNCERTAINTY_ASSIGNED_CONTEXT ( ( #230 ) ) GLOBAL_UNIT_ASSIGNED_CONTEXT ( ( #129, #181, #198 ) ) REPRESENTATION_CONTEXT ( 'NONE', 'WORKASPACE' ) );
#134 = PRODUCT_CONTEXT ( 'NONE', #224, 'mechanical' ) ;
#135 = LENGTH_MEASURE_WITH_UNIT ( LENGTH_MEASURE( 0.02539999999999999897 ), #89 );
#136 = LINE ( 'NONE', #204, #55 ) ;
#137 = FACE_OUTER_BOUND ( 'NONE', #300, .T. ) ;
#138 = PRESENTATION_LAYER_ASSIGNMENT (  '', '', ( #254 ) ) ;
#139 = ORIENTED_EDGE ( 'NONE', *, *, #1, .F. ) ;
#140 = CARTESIAN_POINT ( 'NONE',  ( -2.369500423704768160E-34, 0.04889065730689275829, 0.000000000000000000 ) ) ;
#141 = EDGE_LOOP ( 'NONE', ( #144, #303 ) ) ;
#142 = SURFACE_SIDE_STYLE ('',( #15 ) ) ;
#143 = DIRECTION ( 'NONE',  ( -8.026776328285230384E-17, 1.000000000000000000, 0.000000000000000000 ) ) ;
#144 = ORIENTED_EDGE ( 'NONE', *, *, #219, .T. ) ;
#145 = STYLED_ITEM ( 'NONE', ( #285 ), #60 ) ;
#146 = CARTESIAN_POINT ( 'NONE',  ( -2.369500423704768160E-34, 0.04889065730689275829, 0.000000000000000000 ) ) ;
#147 = EDGE_LOOP ( 'NONE', ( #259, #16 ) ) ;
#148 = DIRECTION ( 'NONE',  ( 1.000000000000000000, 8.026776328285230384E-17, 0.000000000000000000 ) ) ;
#149 = VECTOR ( 'NONE', #248, 39.37007874015748143 ) ;
#150 = CIRCLE ( 'NONE', #32, 0.02000000000000000042 ) ;
#151 = DIRECTION ( 'NONE',  ( 1.000000000000000000, 0.000000000000000000, 0.000000000000000000 ) ) ;
#152 = PLANE ( 'NONE',  #12 ) ;
#153 = SURFACE_SIDE_STYLE ('',( #217 ) ) ;
#154 = AXIS2_PLACEMENT_3D ( 'NONE', #146, #96, #178 ) ;
#155 = CARTESIAN_POINT ( 'NONE',  ( -0.06249999999999981959, 1.500000000000000222, 0.000000000000000000 ) ) ;
#156 = STYLED_ITEM ( 'NONE', ( #57 ), #260 ) ;
#157 = FACE_OUTER_BOUND ( 'NONE', #256, .T. ) ;
#158 = DIRECTION ( 'NONE',  ( 1.000000000000000000, 4.846530102532920424E-33, 0.000000000000000000 ) ) ;
#159 = FACE_OUTER_BOUND ( 'NONE', #147, .T. ) ;
#160 = DIRECTION ( 'NONE',  ( -8.026776328285230384E-17, 1.000000000000000000, -0.000000000000000000 ) ) ;
#161 = CYLINDRICAL_SURFACE ( 'NONE', #271, 0.06249999999999988204 ) ;
#162 = DIRECTION ( 'NONE',  ( -1.000000000000000000, 0.000000000000000000, 0.000000000000000000 ) ) ;
#163 = DIRECTION ( 'NONE',  ( 0.000000000000000000, 0.000000000000000000, 1.000000000000000000 ) ) ;
#164 = ORIENTED_EDGE ( 'NONE', *, *, #119, .F. ) ;
#165 = DIRECTION ( 'NONE',  ( -4.846530102532920424E-33, 1.000000000000000000, 0.000000000000000000 ) ) ;
#166 = DIRECTION ( 'NONE',  ( -8.026776328285230384E-17, 1.000000000000000000, -0.000000000000000000 ) ) ;
#167 = AXIS2_PLACEMENT_3D ( 'NONE', #50, #165, #237 ) ;
#168 =( GEOMETRIC_REPRESENTATION_CONTEXT ( 3 ) GLOBAL_UNCERTAINTY_ASSIGNED_CONTEXT ( ( #292 ) ) GLOBAL_UNIT_ASSIGNED_CONTEXT ( ( #223, #106, #293 ) ) REPRESENTATION_CONTEXT ( 'NONE', 'WORKASPACE' ) );
#169 = DIRECTION ( 'NONE',  ( 0.6560590289905083861, 0.7547095802227710148, 8.034405899049467357E-17 ) ) ;
#170 = MANIFOLD_SOLID_BREP ( 'Revolve - Cutting Edge', #277 ) ;
#171 = EDGE_CURVE ( 'NONE', #195, #253, #80, .T. ) ;
#172 =( LENGTH_UNIT ( ) NAMED_UNIT ( * ) SI_UNIT ( $, .METRE. ) );
#173 = LINE ( 'NONE', #239, #246 ) ;
#174 = ORIENTED_EDGE ( 'NONE', *, *, #53, .F. ) ;
#175 = SURFACE_STYLE_USAGE ( .BOTH. , #54 ) ;
#176 = LINE ( 'NONE', #155, #149 ) ;
#177 = MECHANICAL_DESIGN_GEOMETRIC_PRESENTATION_REPRESENTATION (  '', ( #156 ), #126 ) ;
#178 = DIRECTION ( 'NONE',  ( 1.000000000000000000, 0.000000000000000000, 0.000000000000000000 ) ) ;
#179 = CARTESIAN_POINT ( 'NONE',  ( 1.777096411741933493E-16, 0.04889065730689284156, 0.000000000000000000 ) ) ;
#180 = APPLICATION_PROTOCOL_DEFINITION ( 'draft international standard', 'automotive_design', 1998, #287 ) ;
#181 =( NAMED_UNIT ( * ) PLANE_ANGLE_UNIT ( ) SI_UNIT ( $, .RADIAN. ) );
#182 = MECHANICAL_DESIGN_GEOMETRIC_PRESENTATION_REPRESENTATION (  '', ( #187 ), #168 ) ;
#183 = PRESENTATION_STYLE_ASSIGNMENT (( #36 ) ) ;
#184 = DIMENSIONAL_EXPONENTS ( 1.000000000000000000, 0.000000000000000000, 0.000000000000000000, 0.000000000000000000, 0.000000000000000000, 0.000000000000000000, 0.000000000000000000 ) ;
#185 = ORIENTED_EDGE ( 'NONE', *, *, #186, .F. ) ;
#186 = EDGE_CURVE ( 'NONE', #48, #117, #294, .T. ) ;
#187 = STYLED_ITEM ( 'NONE', ( #250 ), #170 ) ;
#188 = PRESENTATION_LAYER_ASSIGNMENT (  '', '', ( #145 ) ) ;
#189 =( NAMED_UNIT ( * ) PLANE_ANGLE_UNIT ( ) SI_UNIT ( $, .RADIAN. ) );
#190 = ORIENTED_EDGE ( 'NONE', *, *, #236, .T. ) ;
#191 =( NAMED_UNIT ( * ) SI_UNIT ( $, .STERADIAN. ) SOLID_ANGLE_UNIT ( ) );
#192 = ORIENTED_EDGE ( 'NONE', *, *, #219, .F. ) ;
#193 = DIRECTION ( 'NONE',  ( 1.000000000000000000, 4.846530102532920424E-33, 0.000000000000000000 ) ) ;
#194 = SHAPE_DEFINITION_REPRESENTATION ( #200, #110 ) ;
#195 = VERTEX_POINT ( 'NONE', #305 ) ;
#196 = LENGTH_MEASURE_WITH_UNIT ( LENGTH_MEASURE( 0.02539999999999999897 ), #172 );
#197 = FILL_AREA_STYLE ('',( #124 ) ) ;
#198 =( NAMED_UNIT ( * ) SI_UNIT ( $, .STERADIAN. ) SOLID_ANGLE_UNIT ( ) );
#199 = FACE_OUTER_BOUND ( 'NONE', #233, .T. ) ;
#200 = PRODUCT_DEFINITION_SHAPE ( 'NONE', 'NONE',  #307 ) ;
#201 = CARTESIAN_POINT ( 'NONE',  ( 0.000000000000000000, 0.000000000000000000, 0.000000000000000000 ) ) ;
#202 =( LENGTH_UNIT ( ) NAMED_UNIT ( * ) SI_UNIT ( $, .METRE. ) );
#203 = DIRECTION ( 'NONE',  ( -1.000000000000000000, -1.365923996832135554E-16, 0.000000000000000000 ) ) ;
#204 = CARTESIAN_POINT ( 'NONE',  ( -0.02000000000000000042, -1.938612041013168135E-34, 0.000000000000000000 ) ) ;
#205 = ORIENTED_EDGE ( 'NONE', *, *, #72, .F. ) ;
#206 = DIRECTION ( 'NONE',  ( -1.000000000000000000, -4.846530102532920424E-33, 0.000000000000000000 ) ) ;
#207 = PRODUCT_RELATED_PRODUCT_CATEGORY ( 'part', '', ( #247 ) ) ;
#208 =( LENGTH_UNIT ( ) NAMED_UNIT ( * ) SI_UNIT ( $, .METRE. ) );
#209 = VERTEX_POINT ( 'NONE', #75 ) ;
#210 = CARTESIAN_POINT ( 'NONE',  ( 6.123233995736763571E-17, 1.500000000000000222, 0.000000000000000000 ) ) ;
#211 =( NAMED_UNIT ( * ) PLANE_ANGLE_UNIT ( ) SI_UNIT ( $, .RADIAN. ) );
#212 = CYLINDRICAL_SURFACE ( 'NONE', #268, 0.06249999999999988204 ) ;
#213 = ORIENTED_EDGE ( 'NONE', *, *, #53, .T. ) ;
#214 = CARTESIAN_POINT ( 'NONE',  ( 0.06249999999999999306, 1.500000000000000222, 0.000000000000000000 ) ) ;
#215 = STYLED_ITEM ( 'NONE', ( #30 ), #82 ) ;
#216 = UNCERTAINTY_MEASURE_WITH_UNIT (LENGTH_MEASURE( 1.000000000000000082E-05 ), #240, 'distance_accuracy_value', 'NONE');
#217 = SURFACE_STYLE_FILL_AREA ( #123 ) ;
#218 = VECTOR ( 'NONE', #283, 39.37007874015748143 ) ;
#219 = EDGE_CURVE ( 'NONE', #253, #195, #221, .T. ) ;
#220 = DIRECTION ( 'NONE',  ( -8.026776328285230384E-17, 1.000000000000000000, -0.000000000000000000 ) ) ;
#221 = CIRCLE ( 'NONE', #88, 0.06249999999999993061 ) ;
#222 = DIRECTION ( 'NONE',  ( -8.026776328285230384E-17, 1.000000000000000000, -0.000000000000000000 ) ) ;
#223 =( CONVERSION_BASED_UNIT ( 'INCH', #135 ) LENGTH_UNIT ( ) NAMED_UNIT ( #84 ) );
#224 = APPLICATION_CONTEXT ( 'automotive_design' ) ;
#225 =( NAMED_UNIT ( * ) PLANE_ANGLE_UNIT ( ) SI_UNIT ( $, .RADIAN. ) );
#226 = ORIENTED_EDGE ( 'NONE', *, *, #111, .F. ) ;
#227 =( GEOMETRIC_REPRESENTATION_CONTEXT ( 3 ) GLOBAL_UNCERTAINTY_ASSIGNED_CONTEXT ( ( #41 ) ) GLOBAL_UNIT_ASSIGNED_CONTEXT ( ( #115, #225, #83 ) ) REPRESENTATION_CONTEXT ( 'NONE', 'WORKASPACE' ) );
#228 = DIMENSIONAL_EXPONENTS ( 1.000000000000000000, 0.000000000000000000, 0.000000000000000000, 0.000000000000000000, 0.000000000000000000, 0.000000000000000000, 0.000000000000000000 ) ;
#229 = AXIS2_PLACEMENT_3D ( 'NONE', #179, #220, #128 ) ;
#230 = UNCERTAINTY_MEASURE_WITH_UNIT (LENGTH_MEASURE( 1.000000000000000082E-05 ), #129, 'distance_accuracy_value', 'NONE');
#231 = ORIENTED_EDGE ( 'NONE', *, *, #186, .T. ) ;
#232 = FILL_AREA_STYLE_COLOUR ( '', #33 ) ;
#233 = EDGE_LOOP ( 'NONE', ( #66, #185, #264, #19 ) ) ;
#234 = MECHANICAL_DESIGN_GEOMETRIC_PRESENTATION_REPRESENTATION (  '', ( #215 ), #107 ) ;
#235 = ORIENTED_EDGE ( 'NONE', *, *, #171, .F. ) ;
#236 = EDGE_CURVE ( 'NONE', #117, #209, #173, .T. ) ;
#237 = DIRECTION ( 'NONE',  ( -1.000000000000000000, -4.846530102532920424E-33, 0.000000000000000000 ) ) ;
#238 = ORIENTED_EDGE ( 'NONE', *, *, #1, .T. ) ;
#239 = CARTESIAN_POINT ( 'NONE',  ( 0.02000000000000000042, 0.000000000000000000, 2.449293598294706769E-18 ) ) ;
#240 =( CONVERSION_BASED_UNIT ( 'INCH', #196 ) LENGTH_UNIT ( ) NAMED_UNIT ( #228 ) );
#241 = AXIS2_PLACEMENT_3D ( 'NONE', #270, #288, #249 ) ;
#242 = DIRECTION ( 'NONE',  ( 4.846530102532920424E-33, -1.000000000000000000, -0.000000000000000000 ) ) ;
#243 = FILL_AREA_STYLE_COLOUR ( '', #95 ) ;
#244 = LENGTH_MEASURE_WITH_UNIT ( LENGTH_MEASURE( 0.02539999999999999897 ), #202 );
#245 =( GEOMETRIC_REPRESENTATION_CONTEXT ( 3 ) GLOBAL_UNCERTAINTY_ASSIGNED_CONTEXT ( ( #216 ) ) GLOBAL_UNIT_ASSIGNED_CONTEXT ( ( #240, #99, #78 ) ) REPRESENTATION_CONTEXT ( 'NONE', 'WORKASPACE' ) );
#246 = VECTOR ( 'NONE', #169, 39.37007874015748143 ) ;
#247 = PRODUCT ( '84584', '84584', '', ( #134 ) ) ;
#248 = DIRECTION ( 'NONE',  ( -8.026776328285230384E-17, 1.000000000000000000, -0.000000000000000000 ) ) ;
#249 = DIRECTION ( 'NONE',  ( -1.000000000000000000, -4.846530102532920424E-33, 0.000000000000000000 ) ) ;
#250 = PRESENTATION_STYLE_ASSIGNMENT (( #279 ) ) ;
#251 = CARTESIAN_POINT ( 'NONE',  ( 6.123233995736763571E-17, 1.500000000000000222, 0.000000000000000000 ) ) ;
#252 = DIRECTION ( 'NONE',  ( -1.000000000000000000, 0.000000000000000000, 0.000000000000000000 ) ) ;
#253 = VERTEX_POINT ( 'NONE', #49 ) ;
#254 = STYLED_ITEM ( 'NONE', ( #183 ), #130 ) ;
#255 = SURFACE_SIDE_STYLE ('',( #276 ) ) ;
#256 = EDGE_LOOP ( 'NONE', ( #231, #238 ) ) ;
#257 = DIMENSIONAL_EXPONENTS ( 1.000000000000000000, 0.000000000000000000, 0.000000000000000000, 0.000000000000000000, 0.000000000000000000, 0.000000000000000000, 0.000000000000000000 ) ;
#258 = PLANE ( 'NONE',  #263 ) ;
#259 = ORIENTED_EDGE ( 'NONE', *, *, #65, .F. ) ;
#260 = ADVANCED_FACE ( 'NONE', ( #121 ), #100, .T. ) ;
#261 = CLOSED_SHELL ( 'NONE', ( #58, #301, #127, #17 ) ) ;
#262 = DIMENSIONAL_EXPONENTS ( 1.000000000000000000, 0.000000000000000000, 0.000000000000000000, 0.000000000000000000, 0.000000000000000000, 0.000000000000000000, 0.000000000000000000 ) ;
#263 = AXIS2_PLACEMENT_3D ( 'NONE', #140, #18, #206 ) ;
#264 = ORIENTED_EDGE ( 'NONE', *, *, #119, .T. ) ;
#265 = FACE_OUTER_BOUND ( 'NONE', #23, .T. ) ;
#266 = SURFACE_STYLE_USAGE ( .BOTH. , #76 ) ;
#267 = COLOUR_RGB ( '',1.000000000000000000, 0.000000000000000000, 0.000000000000000000 ) ;
#268 = AXIS2_PLACEMENT_3D ( 'NONE', #210, #52, #21 ) ;
#269 =( CONVERSION_BASED_UNIT ( 'INCH', #104 ) LENGTH_UNIT ( ) NAMED_UNIT ( #257 ) );
#270 = CARTESIAN_POINT ( 'NONE',  ( 4.697770806951551639E-67, -9.693060205065840677E-35, 0.000000000000000000 ) ) ;
#271 = AXIS2_PLACEMENT_3D ( 'NONE', #274, #113, #162 ) ;
#272 = AXIS2_PLACEMENT_3D ( 'NONE', #43, #143, #22 ) ;
#273 =( CONVERSION_BASED_UNIT ( 'INCH', #131 ) LENGTH_UNIT ( ) NAMED_UNIT ( #262 ) );
#274 = CARTESIAN_POINT ( 'NONE',  ( 6.123233995736763571E-17, 1.500000000000000222, 0.000000000000000000 ) ) ;
#275 = EDGE_LOOP ( 'NONE', ( #139, #190, #13, #164 ) ) ;
#276 = SURFACE_STYLE_FILL_AREA ( #37 ) ;
#277 = CLOSED_SHELL ( 'NONE', ( #260, #130, #82, #102 ) ) ;
#278 = VERTEX_POINT ( 'NONE', #87 ) ;
#279 = SURFACE_STYLE_USAGE ( .BOTH. , #142 ) ;
#280 = CARTESIAN_POINT ( 'NONE',  ( 4.697770806951551639E-67, -9.693060205065840677E-35, 0.000000000000000000 ) ) ;
#281 = CARTESIAN_POINT ( 'NONE',  ( -2.369500423704768160E-34, 0.04889065730689275829, 0.000000000000000000 ) ) ;
#282 =( GEOMETRIC_REPRESENTATION_CONTEXT ( 3 ) GLOBAL_UNCERTAINTY_ASSIGNED_CONTEXT ( ( #85 ) ) GLOBAL_UNIT_ASSIGNED_CONTEXT ( ( #20, #211, #11 ) ) REPRESENTATION_CONTEXT ( 'NONE', 'WORKASPACE' ) );
#283 = DIRECTION ( 'NONE',  ( -8.026776328285230384E-17, 1.000000000000000000, -0.000000000000000000 ) ) ;
#284 = DIRECTION ( 'NONE',  ( 4.846530102532920424E-33, -1.000000000000000000, -0.000000000000000000 ) ) ;
#285 = PRESENTATION_STYLE_ASSIGNMENT (( #266 ) ) ;
#286 = SURFACE_STYLE_FILL_AREA ( #79 ) ;
#287 = APPLICATION_CONTEXT ( 'automotive_design' ) ;
#288 = DIRECTION ( 'NONE',  ( -4.846530102532920424E-33, 1.000000000000000000, 0.000000000000000000 ) ) ;
#289 = DIRECTION ( 'NONE',  ( 4.846530102532920424E-33, -1.000000000000000000, -0.000000000000000000 ) ) ;
#290 = PRESENTATION_LAYER_ASSIGNMENT (  '', '', ( #215 ) ) ;
#291 = EDGE_CURVE ( 'NONE', #278, #69, #31, .T. ) ;
#292 = UNCERTAINTY_MEASURE_WITH_UNIT (LENGTH_MEASURE( 1.000000000000000082E-05 ), #223, 'distance_accuracy_value', 'NONE');
#293 =( NAMED_UNIT ( * ) SI_UNIT ( $, .STERADIAN. ) SOLID_ANGLE_UNIT ( ) );
#294 = CIRCLE ( 'NONE', #45, 0.02000000000000000042 ) ;
#295 = AXIS2_PLACEMENT_3D ( 'NONE', #214, #118, #148 ) ;
#296 = FILL_AREA_STYLE ('',( #10 ) ) ;
#297 = EDGE_LOOP ( 'NONE', ( #205, #71 ) ) ;
#298 = DIRECTION ( 'NONE',  ( -0.6560590289905083861, 0.7547095802227710148, 0.000000000000000000 ) ) ;
#299 = PRODUCT_DEFINITION_CONTEXT ( 'detailed design', #287, 'design' ) ;
#300 = EDGE_LOOP ( 'NONE', ( #174, #74, #42, #235 ) ) ;
#301 = ADVANCED_FACE ( 'NONE', ( #35 ), #44, .F. ) ;
#302 = COLOUR_RGB ( '',0.7921568627450980005, 0.8196078431372548767, 0.9333333333333333481 ) ;
#303 = ORIENTED_EDGE ( 'NONE', *, *, #171, .T. ) ;
#304 = DIMENSIONAL_EXPONENTS ( 1.000000000000000000, 0.000000000000000000, 0.000000000000000000, 0.000000000000000000, 0.000000000000000000, 0.000000000000000000, 0.000000000000000000 ) ;
#305 = CARTESIAN_POINT ( 'NONE',  ( 0.06249999999999999306, 1.500000000000000222, 7.654042494670946760E-18 ) ) ;
#306 = AXIS2_PLACEMENT_3D ( 'NONE', #281, #242, #151 ) ;
#307 = PRODUCT_DEFINITION ( 'UNKNOWN', '', #39, #299 ) ;
#308 = DIRECTION ( 'NONE',  ( -1.000000000000000000, 0.000000000000000000, 0.000000000000000000 ) ) ;
#309 = CARTESIAN_POINT ( 'NONE',  ( 0.06249999999999993755, 1.500000000000000222, 7.654042494670943678E-18 ) ) ;
ENDSEC;
END-ISO-10303-21;
