ISO-10303-21;
HEADER;
FILE_DESCRIPTION (( 'STEP AP214' ),
    '1' );
FILE_NAME ('56332.STEP',
    '2023-06-30T22:07:45',
    ( '' ),
    ( '' ),
    'SwSTEP 2.0',
    'SolidWorks 2023',
    '' );
FILE_SCHEMA (( 'AUTOMOTIVE_DESIGN' ));
ENDSEC;

DATA;
#1 = AXIS2_PLACEMENT_3D ( 'NONE', #95, #210, #334 ) ;
#2 = VERTEX_POINT ( 'NONE', #140 ) ;
#3 = DIRECTION ( 'NONE',  ( -0.000000000000000000, -1.000000000000000000, -0.000000000000000000 ) ) ;
#4 = CYLINDRICAL_SURFACE ( 'NONE', #286, 0.1874999999999999167 ) ;
#5 = LINE ( 'NONE', #60, #134 ) ;
#6 = SURFACE_SIDE_STYLE ('',( #349 ) ) ;
#7 = CIRCLE ( 'NONE', #21, 0.1875000000000000278 ) ;
#8 = EDGE_LOOP ( 'NONE', ( #9, #55, #110, #248 ) ) ;
#9 = ORIENTED_EDGE ( 'NONE', *, *, #25, .T. ) ;
#10 = DIRECTION ( 'NONE',  ( 0.000000000000000000, 0.000000000000000000, -1.000000000000000000 ) ) ;
#11 = LENGTH_MEASURE_WITH_UNIT ( LENGTH_MEASURE( 0.02539999999999999897 ), #154 );
#12 = AXIS2_PLACEMENT_3D ( 'NONE', #234, #144, #331 ) ;
#13 =( CONVERSION_BASED_UNIT ( 'INCH', #236 ) LENGTH_UNIT ( ) NAMED_UNIT ( #26 ) );
#14 = STYLED_ITEM ( 'NONE', ( #155 ), #366 ) ;
#15 = ORIENTED_EDGE ( 'NONE', *, *, #261, .T. ) ;
#16 = DIRECTION ( 'NONE',  ( 1.000000000000000000, 0.000000000000000000, -1.224646799147353207E-16 ) ) ;
#17 = CIRCLE ( 'NONE', #228, 0.1874999999999999722 ) ;
#18 = ORIENTED_EDGE ( 'NONE', *, *, #128, .F. ) ;
#19 = UNCERTAINTY_MEASURE_WITH_UNIT (LENGTH_MEASURE( 1.000000000000000082E-05 ), #43, 'distance_accuracy_value', 'NONE');
#20 = EDGE_CURVE ( 'NONE', #87, #309, #89, .T. ) ;
#21 = AXIS2_PLACEMENT_3D ( 'NONE', #32, #10, #86 ) ;
#22 =( LENGTH_UNIT ( ) NAMED_UNIT ( * ) SI_UNIT ( $, .METRE. ) );
#23 = FACE_OUTER_BOUND ( 'NONE', #8, .T. ) ;
#24 = ORIENTED_EDGE ( 'NONE', *, *, #287, .F. ) ;
#25 = EDGE_CURVE ( 'NONE', #333, #87, #119, .T. ) ;
#26 = DIMENSIONAL_EXPONENTS ( 1.000000000000000000, 0.000000000000000000, 0.000000000000000000, 0.000000000000000000, 0.000000000000000000, 0.000000000000000000, 0.000000000000000000 ) ;
#27 = VERTEX_POINT ( 'NONE', #205 ) ;
#28 = ORIENTED_EDGE ( 'NONE', *, *, #218, .T. ) ;
#29 = EDGE_CURVE ( 'NONE', #68, #340, #5, .T. ) ;
#30 = ADVANCED_FACE ( 'NONE', ( #239 ), #112, .F. ) ;
#31 = CARTESIAN_POINT ( 'NONE',  ( 1.377727649040772882E-16, 0.8749999999999997780, 0.000000000000000000 ) ) ;
#32 = CARTESIAN_POINT ( 'NONE',  ( -2.296212748401287726E-17, 0.1875000000000000278, 0.000000000000000000 ) ) ;
#33 = AXIS2_PLACEMENT_3D ( 'NONE', #185, #305, #16 ) ;
#34 = FILL_AREA_STYLE_COLOUR ( '', #63 ) ;
#35 = CARTESIAN_POINT ( 'NONE',  ( -0.1875000000000001943, 3.000000000000000444, 0.000000000000000000 ) ) ;
#36 = EDGE_CURVE ( 'NONE', #2, #340, #274, .T. ) ;
#37 = CARTESIAN_POINT ( 'NONE',  ( 0.000000000000000000, 0.000000000000000000, 0.000000000000000000 ) ) ;
#38 = SURFACE_SIDE_STYLE ('',( #306 ) ) ;
#39 = CYLINDRICAL_SURFACE ( 'NONE', #193, 0.1874999999999999445 ) ;
#40 = PRESENTATION_STYLE_ASSIGNMENT (( #190 ) ) ;
#41 = ADVANCED_FACE ( 'NONE', ( #231 ), #352, .T. ) ;
#42 = DIRECTION ( 'NONE',  ( -1.000000000000000000, 0.000000000000000000, 0.000000000000000000 ) ) ;
#43 =( CONVERSION_BASED_UNIT ( 'INCH', #339 ) LENGTH_UNIT ( ) NAMED_UNIT ( #133 ) );
#44 = VERTEX_POINT ( 'NONE', #35 ) ;
#45 =( LENGTH_UNIT ( ) NAMED_UNIT ( * ) SI_UNIT ( $, .METRE. ) );
#46 = AXIS2_PLACEMENT_3D ( 'NONE', #37, #363, #62 ) ;
#47 =( CONVERSION_BASED_UNIT ( 'INCH', #283 ) LENGTH_UNIT ( ) NAMED_UNIT ( #233 ) );
#48 = EDGE_CURVE ( 'NONE', #27, #68, #311, .T. ) ;
#49 = CLOSED_SHELL ( 'NONE', ( #198, #30, #316, #342 ) ) ;
#50 = MECHANICAL_DESIGN_GEOMETRIC_PRESENTATION_REPRESENTATION (  '', ( #135 ), #195 ) ;
#51 = APPLICATION_CONTEXT ( 'automotive_design' ) ;
#52 = PLANE ( 'NONE',  #126 ) ;
#53 = DIRECTION ( 'NONE',  ( 0.000000000000000000, 0.000000000000000000, -1.000000000000000000 ) ) ;
#54 = CARTESIAN_POINT ( 'NONE',  ( 2.296212748401286801E-17, 0.1875000000000000555, 0.1874999999999999722 ) ) ;
#55 = ORIENTED_EDGE ( 'NONE', *, *, #20, .T. ) ;
#56 = SURFACE_SIDE_STYLE ('',( #226 ) ) ;
#57 = PRESENTATION_LAYER_ASSIGNMENT (  '', '', ( #176 ) ) ;
#58 =( CONVERSION_BASED_UNIT ( 'INCH', #296 ) LENGTH_UNIT ( ) NAMED_UNIT ( #211 ) );
#59 = PRESENTATION_LAYER_ASSIGNMENT (  '', '', ( #14 ) ) ;
#60 = CARTESIAN_POINT ( 'NONE',  ( 0.000000000000000000, 0.000000000000000000, -0.1874999999999999445 ) ) ;
#61 = ORIENTED_EDGE ( 'NONE', *, *, #315, .F. ) ;
#62 = DIRECTION ( 'NONE',  ( 0.000000000000000000, 0.000000000000000000, -1.000000000000000000 ) ) ;
#63 = COLOUR_RGB ( '',1.000000000000000000, 0.000000000000000000, 0.000000000000000000 ) ;
#64 = DIRECTION ( 'NONE',  ( -0.000000000000000000, -1.000000000000000000, -0.000000000000000000 ) ) ;
#65 = ADVANCED_FACE ( 'NONE', ( #177 ), #39, .T. ) ;
#66 =( NAMED_UNIT ( * ) PLANE_ANGLE_UNIT ( ) SI_UNIT ( $, .RADIAN. ) );
#67 = FILL_AREA_STYLE ('',( #173 ) ) ;
#68 = VERTEX_POINT ( 'NONE', #120 ) ;
#69 =( NAMED_UNIT ( * ) SI_UNIT ( $, .STERADIAN. ) SOLID_ANGLE_UNIT ( ) );
#70 = DIRECTION ( 'NONE',  ( -1.224646799147353454E-16, 1.000000000000000000, -0.000000000000000000 ) ) ;
#71 = SURFACE_SIDE_STYLE ('',( #335 ) ) ;
#72 = UNCERTAINTY_MEASURE_WITH_UNIT (LENGTH_MEASURE( 1.000000000000000082E-05 ), #163, 'distance_accuracy_value', 'NONE');
#73 = CARTESIAN_POINT ( 'NONE',  ( 0.000000000000000000, 0.000000000000000000, 0.000000000000000000 ) ) ;
#74 = EDGE_LOOP ( 'NONE', ( #329, #142, #365, #18 ) ) ;
#75 = FACE_OUTER_BOUND ( 'NONE', #116, .T. ) ;
#76 = MECHANICAL_DESIGN_GEOMETRIC_PRESENTATION_REPRESENTATION (  '', ( #109 ), #252 ) ;
#77 = CARTESIAN_POINT ( 'NONE',  ( 0.000000000000000000, 0.1875000000000000555, 0.000000000000000000 ) ) ;
#78 = UNCERTAINTY_MEASURE_WITH_UNIT (LENGTH_MEASURE( 1.000000000000000082E-05 ), #58, 'distance_accuracy_value', 'NONE');
#79 = EDGE_CURVE ( 'NONE', #44, #309, #242, .T. ) ;
#80 = AXIS2_PLACEMENT_3D ( 'NONE', #215, #307, #42 ) ;
#81 = MECHANICAL_DESIGN_GEOMETRIC_PRESENTATION_REPRESENTATION (  '', ( #372 ), #171 ) ;
#82 = SURFACE_STYLE_USAGE ( .BOTH. , #6 ) ;
#83 = FILL_AREA_STYLE ('',( #114 ) ) ;
#84 = DIRECTION ( 'NONE',  ( 0.000000000000000000, -0.000000000000000000, 1.000000000000000000 ) ) ;
#85 = EDGE_CURVE ( 'NONE', #333, #44, #362, .T. ) ;
#86 = DIRECTION ( 'NONE',  ( -1.000000000000000000, 0.000000000000000000, 0.000000000000000000 ) ) ;
#87 = VERTEX_POINT ( 'NONE', #182 ) ;
#88 = DIRECTION ( 'NONE',  ( -0.000000000000000000, -1.000000000000000000, -0.000000000000000000 ) ) ;
#89 = LINE ( 'NONE', #167, #189 ) ;
#90 = CARTESIAN_POINT ( 'NONE',  ( 0.1874999999999999167, 3.000000000000000444, 2.296212748401287109E-17 ) ) ;
#91 = ORIENTED_EDGE ( 'NONE', *, *, #29, .T. ) ;
#92 = CARTESIAN_POINT ( 'NONE',  ( 0.000000000000000000, 0.1875000000000000555, 0.000000000000000000 ) ) ;
#93 =( NAMED_UNIT ( * ) SI_UNIT ( $, .STERADIAN. ) SOLID_ANGLE_UNIT ( ) );
#94 = CYLINDRICAL_SURFACE ( 'NONE', #217, 0.1874999999999999167 ) ;
#95 = CARTESIAN_POINT ( 'NONE',  ( -1.224646799147353700E-16, 3.000000000000000444, 0.000000000000000000 ) ) ;
#96 = PRESENTATION_LAYER_ASSIGNMENT (  '', '', ( #152 ) ) ;
#97 = CARTESIAN_POINT ( 'NONE',  ( -2.296212748401287726E-17, 0.1875000000000000278, 0.000000000000000000 ) ) ;
#98 = PRODUCT ( '56332', '56332', '', ( #192 ) ) ;
#99 = ORIENTED_EDGE ( 'NONE', *, *, #101, .F. ) ;
#100 =( NAMED_UNIT ( * ) SI_UNIT ( $, .STERADIAN. ) SOLID_ANGLE_UNIT ( ) );
#101 = EDGE_CURVE ( 'NONE', #2, #157, #223, .T. ) ;
#102 = CARTESIAN_POINT ( 'NONE',  ( 0.000000000000000000, 0.1875000000000000555, -0.1874999999999999722 ) ) ;
#103 = COLOUR_RGB ( '',1.000000000000000000, 0.000000000000000000, 0.000000000000000000 ) ;
#104 = MECHANICAL_DESIGN_GEOMETRIC_PRESENTATION_REPRESENTATION (  '', ( #176 ), #275 ) ;
#105 = FILL_AREA_STYLE_COLOUR ( '', #237 ) ;
#106 = UNCERTAINTY_MEASURE_WITH_UNIT (LENGTH_MEASURE( 1.000000000000000082E-05 ), #314, 'distance_accuracy_value', 'NONE');
#107 = PRODUCT_RELATED_PRODUCT_CATEGORY ( 'part', '', ( #98 ) ) ;
#108 = DIRECTION ( 'NONE',  ( -1.000000000000000000, 0.000000000000000000, 0.000000000000000000 ) ) ;
#109 = STYLED_ITEM ( 'NONE', ( #359 ), #65 ) ;
#110 = ORIENTED_EDGE ( 'NONE', *, *, #79, .F. ) ;
#111 = ORIENTED_EDGE ( 'NONE', *, *, #36, .T. ) ;
#112 = PLANE ( 'NONE',  #12 ) ;
#113 = DIRECTION ( 'NONE',  ( 0.000000000000000000, 0.000000000000000000, -1.000000000000000000 ) ) ;
#114 = FILL_AREA_STYLE_COLOUR ( '', #103 ) ;
#115 = AXIS2_PLACEMENT_3D ( 'NONE', #166, #141, #265 ) ;
#116 = EDGE_LOOP ( 'NONE', ( #138, #281, #117, #251 ) ) ;
#117 = ORIENTED_EDGE ( 'NONE', *, *, #261, .F. ) ;
#118 = FACE_OUTER_BOUND ( 'NONE', #165, .T. ) ;
#119 = CIRCLE ( 'NONE', #169, 0.1874999999999997780 ) ;
#120 = CARTESIAN_POINT ( 'NONE',  ( 0.000000000000000000, 0.8750000000000000000, -0.1874999999999999167 ) ) ;
#121 = VECTOR ( 'NONE', #70, 39.37007874015748143 ) ;
#122 =( NAMED_UNIT ( * ) SI_UNIT ( $, .STERADIAN. ) SOLID_ANGLE_UNIT ( ) );
#123 = ORIENTED_EDGE ( 'NONE', *, *, #249, .F. ) ;
#124 =( LENGTH_UNIT ( ) NAMED_UNIT ( * ) SI_UNIT ( $, .METRE. ) );
#125 = DIRECTION ( 'NONE',  ( -0.000000000000000000, -1.000000000000000000, -0.000000000000000000 ) ) ;
#126 = AXIS2_PLACEMENT_3D ( 'NONE', #373, #323, #84 ) ;
#127 = DIRECTION ( 'NONE',  ( 0.000000000000000000, 0.000000000000000000, 1.000000000000000000 ) ) ;
#128 = EDGE_CURVE ( 'NONE', #309, #44, #206, .T. ) ;
#129 = PRODUCT_DEFINITION_CONTEXT ( 'detailed design', #350, 'design' ) ;
#130 = ORIENTED_EDGE ( 'NONE', *, *, #137, .F. ) ;
#131 = FACE_OUTER_BOUND ( 'NONE', #367, .T. ) ;
#132 = DIRECTION ( 'NONE',  ( 1.000000000000000000, 1.224646799147353454E-16, 0.000000000000000000 ) ) ;
#133 = DIMENSIONAL_EXPONENTS ( 1.000000000000000000, 0.000000000000000000, 0.000000000000000000, 0.000000000000000000, 0.000000000000000000, 0.000000000000000000, 0.000000000000000000 ) ;
#134 = VECTOR ( 'NONE', #3, 39.37007874015748143 ) ;
#135 = STYLED_ITEM ( 'NONE', ( #180 ), #271 ) ;
#136 = AXIS2_PLACEMENT_3D ( 'NONE', #97, #127, #255 ) ;
#137 = EDGE_CURVE ( 'NONE', #87, #333, #318, .T. ) ;
#138 = ORIENTED_EDGE ( 'NONE', *, *, #249, .T. ) ;
#139 = AXIS2_PLACEMENT_3D ( 'NONE', #156, #279, #222 ) ;
#140 = CARTESIAN_POINT ( 'NONE',  ( -0.1875000000000000278, 0.1875000000000000555, 2.296212748401287109E-17 ) ) ;
#141 = DIRECTION ( 'NONE',  ( 0.000000000000000000, 0.000000000000000000, 1.000000000000000000 ) ) ;
#142 = ORIENTED_EDGE ( 'NONE', *, *, #137, .T. ) ;
#143 = DIRECTION ( 'NONE',  ( 0.000000000000000000, 0.000000000000000000, -1.000000000000000000 ) ) ;
#144 = DIRECTION ( 'NONE',  ( -1.224646799147353454E-16, 1.000000000000000000, 0.000000000000000000 ) ) ;
#145 = SURFACE_STYLE_USAGE ( .BOTH. , #202 ) ;
#146 = COLOUR_RGB ( '',0.7921568627450980005, 0.8196078431372548767, 0.9333333333333333481 ) ;
#147 = SPHERICAL_SURFACE ( 'NONE', #348, 0.1875000000000000278 ) ;
#148 = ORIENTED_EDGE ( 'NONE', *, *, #218, .F. ) ;
#149 = SURFACE_SIDE_STYLE ('',( #276 ) ) ;
#150 =( LENGTH_UNIT ( ) NAMED_UNIT ( * ) SI_UNIT ( $, .METRE. ) );
#151 = DIRECTION ( 'NONE',  ( 0.000000000000000000, 0.000000000000000000, -1.000000000000000000 ) ) ;
#152 = STYLED_ITEM ( 'NONE', ( #199 ), #41 ) ;
#153 = ORIENTED_EDGE ( 'NONE', *, *, #25, .F. ) ;
#154 =( LENGTH_UNIT ( ) NAMED_UNIT ( * ) SI_UNIT ( $, .METRE. ) );
#155 = PRESENTATION_STYLE_ASSIGNMENT (( #368 ) ) ;
#156 = CARTESIAN_POINT ( 'NONE',  ( 1.377727649040772882E-16, 0.8749999999999997780, 0.000000000000000000 ) ) ;
#157 = VERTEX_POINT ( 'NONE', #317 ) ;
#158 = PRESENTATION_LAYER_ASSIGNMENT (  '', '', ( #109 ) ) ;
#159 = DIRECTION ( 'NONE',  ( -1.000000000000000000, 0.000000000000000000, 0.000000000000000000 ) ) ;
#160 = COLOUR_RGB ( '',1.000000000000000000, 0.000000000000000000, 0.000000000000000000 ) ;
#161 = AXIS2_PLACEMENT_3D ( 'NONE', #77, #295, #143 ) ;
#162 = AXIS2_PLACEMENT_3D ( 'NONE', #302, #278, #132 ) ;
#163 =( CONVERSION_BASED_UNIT ( 'INCH', #313 ) LENGTH_UNIT ( ) NAMED_UNIT ( #258 ) );
#164 = PRESENTATION_STYLE_ASSIGNMENT (( #346 ) ) ;
#165 = EDGE_LOOP ( 'NONE', ( #99, #111, #264, #15 ) ) ;
#166 = CARTESIAN_POINT ( 'NONE',  ( 0.000000000000000000, 0.000000000000000000, 0.000000000000000000 ) ) ;
#167 = CARTESIAN_POINT ( 'NONE',  ( 0.1874999999999997780, 3.000000000000000444, 2.296212748401286185E-17 ) ) ;
#168 = FILL_AREA_STYLE_COLOUR ( '', #183 ) ;
#169 = AXIS2_PLACEMENT_3D ( 'NONE', #31, #289, #327 ) ;
#170 = AXIS2_PLACEMENT_3D ( 'NONE', #232, #347, #53 ) ;
#171 =( GEOMETRIC_REPRESENTATION_CONTEXT ( 3 ) GLOBAL_UNCERTAINTY_ASSIGNED_CONTEXT ( ( #310 ) ) GLOBAL_UNIT_ASSIGNED_CONTEXT ( ( #47, #284, #69 ) ) REPRESENTATION_CONTEXT ( 'NONE', 'WORKASPACE' ) );
#172 = ORIENTED_EDGE ( 'NONE', *, *, #29, .F. ) ;
#173 = FILL_AREA_STYLE_COLOUR ( '', #304 ) ;
#174 = SURFACE_STYLE_FILL_AREA ( #67 ) ;
#175 = DIRECTION ( 'NONE',  ( 0.000000000000000000, 0.000000000000000000, -1.000000000000000000 ) ) ;
#176 = STYLED_ITEM ( 'NONE', ( #241 ), #243 ) ;
#177 = FACE_OUTER_BOUND ( 'NONE', #270, .T. ) ;
#178 = FACE_OUTER_BOUND ( 'NONE', #74, .T. ) ;
#179 = DIRECTION ( 'NONE',  ( 0.000000000000000000, 0.000000000000000000, -1.000000000000000000 ) ) ;
#180 = PRESENTATION_STYLE_ASSIGNMENT (( #360 ) ) ;
#181 = PLANE ( 'NONE',  #162 ) ;
#182 = CARTESIAN_POINT ( 'NONE',  ( 0.1874999999999999167, 0.8749999999999997780, 2.296212748401287109E-17 ) ) ;
#183 = COLOUR_RGB ( '',0.7921568627450980005, 0.8196078431372548767, 0.9333333333333333481 ) ;
#184 = DIRECTION ( 'NONE',  ( -1.224646799147353454E-16, 1.000000000000000000, -0.000000000000000000 ) ) ;
#185 = CARTESIAN_POINT ( 'NONE',  ( -2.296212748401287726E-17, 0.1875000000000000278, 0.000000000000000000 ) ) ;
#186 = VERTEX_POINT ( 'NONE', #54 ) ;
#187 = ADVANCED_FACE ( 'NONE', ( #364 ), #52, .T. ) ;
#188 = PRODUCT_DEFINITION_SHAPE ( 'NONE', 'NONE',  #361 ) ;
#189 = VECTOR ( 'NONE', #201, 39.37007874015748143 ) ;
#190 = SURFACE_STYLE_USAGE ( .BOTH. , #71 ) ;
#191 = MECHANICAL_DESIGN_GEOMETRIC_PRESENTATION_REPRESENTATION (  '', ( #152 ), #282 ) ;
#192 = PRODUCT_CONTEXT ( 'NONE', #51, 'mechanical' ) ;
#193 = AXIS2_PLACEMENT_3D ( 'NONE', #73, #298, #179 ) ;
#194 =( NAMED_UNIT ( * ) PLANE_ANGLE_UNIT ( ) SI_UNIT ( $, .RADIAN. ) );
#195 =( GEOMETRIC_REPRESENTATION_CONTEXT ( 3 ) GLOBAL_UNCERTAINTY_ASSIGNED_CONTEXT ( ( #371 ) ) GLOBAL_UNIT_ASSIGNED_CONTEXT ( ( #13, #328, #93 ) ) REPRESENTATION_CONTEXT ( 'NONE', 'WORKASPACE' ) );
#196 =( GEOMETRIC_REPRESENTATION_CONTEXT ( 3 ) GLOBAL_UNCERTAINTY_ASSIGNED_CONTEXT ( ( #72 ) ) GLOBAL_UNIT_ASSIGNED_CONTEXT ( ( #163, #224, #197 ) ) REPRESENTATION_CONTEXT ( 'NONE', 'WORKASPACE' ) );
#197 =( NAMED_UNIT ( * ) SI_UNIT ( $, .STERADIAN. ) SOLID_ANGLE_UNIT ( ) );
#198 = ADVANCED_FACE ( 'NONE', ( #23 ), #4, .T. ) ;
#199 = PRESENTATION_STYLE_ASSIGNMENT (( #82 ) ) ;
#200 = CIRCLE ( 'NONE', #161, 0.1874999999999999722 ) ;
#201 = DIRECTION ( 'NONE',  ( -1.224646799147353454E-16, 1.000000000000000000, -0.000000000000000000 ) ) ;
#202 = SURFACE_SIDE_STYLE ('',( #292 ) ) ;
#203 = ORIENTED_EDGE ( 'NONE', *, *, #259, .F. ) ;
#204 = DIRECTION ( 'NONE',  ( 1.000000000000000000, 0.000000000000000000, 0.000000000000000000 ) ) ;
#205 = CARTESIAN_POINT ( 'NONE',  ( 2.296212748401286493E-17, 0.8750000000000000000, 0.1874999999999999167 ) ) ;
#206 = CIRCLE ( 'NONE', #80, 0.1875000000000000555 ) ;
#207 = EDGE_LOOP ( 'NONE', ( #61, #277, #91, #356, #123 ) ) ;
#208 =( CONVERSION_BASED_UNIT ( 'INCH', #11 ) LENGTH_UNIT ( ) NAMED_UNIT ( #246 ) );
#209 = DIRECTION ( 'NONE',  ( -0.000000000000000000, -1.000000000000000000, -0.000000000000000000 ) ) ;
#210 = DIRECTION ( 'NONE',  ( -1.224646799147353454E-16, 1.000000000000000000, -0.000000000000000000 ) ) ;
#211 = DIMENSIONAL_EXPONENTS ( 1.000000000000000000, 0.000000000000000000, 0.000000000000000000, 0.000000000000000000, 0.000000000000000000, 0.000000000000000000, 0.000000000000000000 ) ;
#212 = ADVANCED_BREP_SHAPE_REPRESENTATION ( '56332', ( #369, #243, #115 ), #196 ) ;
#213 = CARTESIAN_POINT ( 'NONE',  ( -0.1875000000000000555, 3.000000000000000444, 0.000000000000000000 ) ) ;
#214 = FILL_AREA_STYLE_COLOUR ( '', #146 ) ;
#215 = CARTESIAN_POINT ( 'NONE',  ( -1.224646799147353700E-16, 3.000000000000000444, 0.000000000000000000 ) ) ;
#216 = PRESENTATION_LAYER_ASSIGNMENT (  '', '', ( #135 ) ) ;
#217 = AXIS2_PLACEMENT_3D ( 'NONE', #257, #184, #159 ) ;
#218 = EDGE_CURVE ( 'NONE', #68, #27, #344, .T. ) ;
#219 = FILL_AREA_STYLE ('',( #214 ) ) ;
#220 = ORIENTED_EDGE ( 'NONE', *, *, #315, .T. ) ;
#221 = SPHERICAL_SURFACE ( 'NONE', #136, 0.1875000000000000278 ) ;
#222 = DIRECTION ( 'NONE',  ( -1.000000000000000000, 0.000000000000000000, 0.000000000000000000 ) ) ;
#223 = CIRCLE ( 'NONE', #33, 0.1875000000000000278 ) ;
#224 =( NAMED_UNIT ( * ) PLANE_ANGLE_UNIT ( ) SI_UNIT ( $, .RADIAN. ) );
#225 = UNCERTAINTY_MEASURE_WITH_UNIT (LENGTH_MEASURE( 1.000000000000000082E-05 ), #208, 'distance_accuracy_value', 'NONE');
#226 = SURFACE_STYLE_FILL_AREA ( #321 ) ;
#227 = DIRECTION ( 'NONE',  ( -1.224646799147353454E-16, 1.000000000000000000, -0.000000000000000000 ) ) ;
#228 = AXIS2_PLACEMENT_3D ( 'NONE', #240, #88, #113 ) ;
#229 = FILL_AREA_STYLE ('',( #168 ) ) ;
#230 = PRODUCT_DEFINITION_FORMATION_WITH_SPECIFIED_SOURCE ( 'ANY', '', #98, .NOT_KNOWN. ) ;
#231 = FACE_OUTER_BOUND ( 'NONE', #207, .T. ) ;
#232 = CARTESIAN_POINT ( 'NONE',  ( 0.000000000000000000, 0.8750000000000000000, 0.000000000000000000 ) ) ;
#233 = DIMENSIONAL_EXPONENTS ( 1.000000000000000000, 0.000000000000000000, 0.000000000000000000, 0.000000000000000000, 0.000000000000000000, 0.000000000000000000, 0.000000000000000000 ) ;
#234 = CARTESIAN_POINT ( 'NONE',  ( 1.377727649040772389E-16, 0.8750000000000000000, 0.000000000000000000 ) ) ;
#235 = CARTESIAN_POINT ( 'NONE',  ( 0.000000000000000000, 0.1875000000000000555, 0.000000000000000000 ) ) ;
#236 = LENGTH_MEASURE_WITH_UNIT ( LENGTH_MEASURE( 0.02539999999999999897 ), #301 );
#237 = COLOUR_RGB ( '',1.000000000000000000, 0.000000000000000000, 0.000000000000000000 ) ;
#238 = CARTESIAN_POINT ( 'NONE',  ( -2.296212748401287726E-17, 0.1875000000000000278, 0.000000000000000000 ) ) ;
#239 = FACE_OUTER_BOUND ( 'NONE', #256, .T. ) ;
#240 = CARTESIAN_POINT ( 'NONE',  ( 0.000000000000000000, 0.1875000000000000555, 0.000000000000000000 ) ) ;
#241 = PRESENTATION_STYLE_ASSIGNMENT (( #145 ) ) ;
#242 = CIRCLE ( 'NONE', #1, 0.1875000000000000555 ) ;
#243 = MANIFOLD_SOLID_BREP ( 'Revolve - Tool Body (Straight Shanked)', #49 ) ;
#244 = SURFACE_STYLE_USAGE ( .BOTH. , #149 ) ;
#245 =( NAMED_UNIT ( * ) SI_UNIT ( $, .STERADIAN. ) SOLID_ANGLE_UNIT ( ) );
#246 = DIMENSIONAL_EXPONENTS ( 1.000000000000000000, 0.000000000000000000, 0.000000000000000000, 0.000000000000000000, 0.000000000000000000, 0.000000000000000000, 0.000000000000000000 ) ;
#247 =( LENGTH_UNIT ( ) NAMED_UNIT ( * ) SI_UNIT ( $, .METRE. ) );
#248 = ORIENTED_EDGE ( 'NONE', *, *, #85, .F. ) ;
#249 = EDGE_CURVE ( 'NONE', #186, #2, #200, .T. ) ;
#250 = DIMENSIONAL_EXPONENTS ( 1.000000000000000000, 0.000000000000000000, 0.000000000000000000, 0.000000000000000000, 0.000000000000000000, 0.000000000000000000, 0.000000000000000000 ) ;
#251 = ORIENTED_EDGE ( 'NONE', *, *, #287, .T. ) ;
#252 =( GEOMETRIC_REPRESENTATION_CONTEXT ( 3 ) GLOBAL_UNCERTAINTY_ASSIGNED_CONTEXT ( ( #225 ) ) GLOBAL_UNIT_ASSIGNED_CONTEXT ( ( #208, #66, #122 ) ) REPRESENTATION_CONTEXT ( 'NONE', 'WORKASPACE' ) );
#253 = PRESENTATION_LAYER_ASSIGNMENT (  '', '', ( #372 ) ) ;
#254 =( GEOMETRIC_REPRESENTATION_CONTEXT ( 3 ) GLOBAL_UNCERTAINTY_ASSIGNED_CONTEXT ( ( #19 ) ) GLOBAL_UNIT_ASSIGNED_CONTEXT ( ( #43, #280, #100 ) ) REPRESENTATION_CONTEXT ( 'NONE', 'WORKASPACE' ) );
#255 = DIRECTION ( 'NONE',  ( 1.000000000000000000, 0.000000000000000000, 0.000000000000000000 ) ) ;
#256 = EDGE_LOOP ( 'NONE', ( #153, #130 ) ) ;
#257 = CARTESIAN_POINT ( 'NONE',  ( -1.224646799147353700E-16, 3.000000000000000444, 0.000000000000000000 ) ) ;
#258 = DIMENSIONAL_EXPONENTS ( 1.000000000000000000, 0.000000000000000000, 0.000000000000000000, 0.000000000000000000, 0.000000000000000000, 0.000000000000000000, 0.000000000000000000 ) ;
#259 = EDGE_CURVE ( 'NONE', #340, #267, #260, .T. ) ;
#260 = CIRCLE ( 'NONE', #336, 0.1874999999999999722 ) ;
#261 = EDGE_CURVE ( 'NONE', #267, #157, #7, .T. ) ;
#262 = EDGE_LOOP ( 'NONE', ( #148, #354 ) ) ;
#263 = MECHANICAL_DESIGN_GEOMETRIC_PRESENTATION_REPRESENTATION (  '', ( #358 ), #325 ) ;
#264 = ORIENTED_EDGE ( 'NONE', *, *, #259, .T. ) ;
#265 = DIRECTION ( 'NONE',  ( 1.000000000000000000, 0.000000000000000000, 0.000000000000000000 ) ) ;
#266 = ORIENTED_EDGE ( 'NONE', *, *, #79, .T. ) ;
#267 = VERTEX_POINT ( 'NONE', #357 ) ;
#268 = AXIS2_PLACEMENT_3D ( 'NONE', #235, #351, #175 ) ;
#269 =( NAMED_UNIT ( * ) SI_UNIT ( $, .STERADIAN. ) SOLID_ANGLE_UNIT ( ) );
#270 = EDGE_LOOP ( 'NONE', ( #28, #220, #24, #203, #172 ) ) ;
#271 = ADVANCED_FACE ( 'NONE', ( #118 ), #147, .T. ) ;
#272 = LENGTH_MEASURE_WITH_UNIT ( LENGTH_MEASURE( 0.02539999999999999897 ), #150 );
#273 =( NAMED_UNIT ( * ) PLANE_ANGLE_UNIT ( ) SI_UNIT ( $, .RADIAN. ) );
#274 = CIRCLE ( 'NONE', #268, 0.1874999999999999722 ) ;
#275 =( GEOMETRIC_REPRESENTATION_CONTEXT ( 3 ) GLOBAL_UNCERTAINTY_ASSIGNED_CONTEXT ( ( #322 ) ) GLOBAL_UNIT_ASSIGNED_CONTEXT ( ( #353, #273, #245 ) ) REPRESENTATION_CONTEXT ( 'NONE', 'WORKASPACE' ) );
#276 = SURFACE_STYLE_FILL_AREA ( #338 ) ;
#277 = ORIENTED_EDGE ( 'NONE', *, *, #48, .T. ) ;
#278 = DIRECTION ( 'NONE',  ( 1.224646799147353454E-16, -1.000000000000000000, 0.000000000000000000 ) ) ;
#279 = DIRECTION ( 'NONE',  ( -1.224646799147353454E-16, 1.000000000000000000, -0.000000000000000000 ) ) ;
#280 =( NAMED_UNIT ( * ) PLANE_ANGLE_UNIT ( ) SI_UNIT ( $, .RADIAN. ) );
#281 = ORIENTED_EDGE ( 'NONE', *, *, #101, .T. ) ;
#282 =( GEOMETRIC_REPRESENTATION_CONTEXT ( 3 ) GLOBAL_UNCERTAINTY_ASSIGNED_CONTEXT ( ( #78 ) ) GLOBAL_UNIT_ASSIGNED_CONTEXT ( ( #58, #294, #269 ) ) REPRESENTATION_CONTEXT ( 'NONE', 'WORKASPACE' ) );
#283 = LENGTH_MEASURE_WITH_UNIT ( LENGTH_MEASURE( 0.02539999999999999897 ), #45 );
#284 =( NAMED_UNIT ( * ) PLANE_ANGLE_UNIT ( ) SI_UNIT ( $, .RADIAN. ) );
#285 = CARTESIAN_POINT ( 'NONE',  ( -1.224646799147353700E-16, 3.000000000000000444, 0.000000000000000000 ) ) ;
#286 = AXIS2_PLACEMENT_3D ( 'NONE', #285, #227, #108 ) ;
#287 = EDGE_CURVE ( 'NONE', #267, #186, #17, .T. ) ;
#288 =( NAMED_UNIT ( * ) SI_UNIT ( $, .STERADIAN. ) SOLID_ANGLE_UNIT ( ) );
#289 = DIRECTION ( 'NONE',  ( -1.224646799147353454E-16, 1.000000000000000000, -0.000000000000000000 ) ) ;
#290 = APPLICATION_PROTOCOL_DEFINITION ( 'draft international standard', 'automotive_design', 1998, #350 ) ;
#291 = AXIS2_PLACEMENT_3D ( 'NONE', #300, #125, #151 ) ;
#292 = SURFACE_STYLE_FILL_AREA ( #229 ) ;
#293 = SURFACE_SIDE_STYLE ('',( #174 ) ) ;
#294 =( NAMED_UNIT ( * ) PLANE_ANGLE_UNIT ( ) SI_UNIT ( $, .RADIAN. ) );
#295 = DIRECTION ( 'NONE',  ( -0.000000000000000000, -1.000000000000000000, -0.000000000000000000 ) ) ;
#296 = LENGTH_MEASURE_WITH_UNIT ( LENGTH_MEASURE( 0.02539999999999999897 ), #324 );
#297 = PRESENTATION_LAYER_ASSIGNMENT (  '', '', ( #358 ) ) ;
#298 = DIRECTION ( 'NONE',  ( -0.000000000000000000, -1.000000000000000000, -0.000000000000000000 ) ) ;
#299 = DIRECTION ( 'NONE',  ( 0.000000000000000000, 0.000000000000000000, -1.000000000000000000 ) ) ;
#300 = CARTESIAN_POINT ( 'NONE',  ( 0.000000000000000000, 0.8750000000000000000, 0.000000000000000000 ) ) ;
#301 =( LENGTH_UNIT ( ) NAMED_UNIT ( * ) SI_UNIT ( $, .METRE. ) );
#302 = CARTESIAN_POINT ( 'NONE',  ( 0.1874999999999999167, 3.000000000000000444, 0.000000000000000000 ) ) ;
#303 = CLOSED_SHELL ( 'NONE', ( #366, #65, #187, #41, #271 ) ) ;
#304 = COLOUR_RGB ( '',1.000000000000000000, 0.000000000000000000, 0.000000000000000000 ) ;
#305 = DIRECTION ( 'NONE',  ( 1.224646799147353207E-16, -0.000000000000000000, 1.000000000000000000 ) ) ;
#306 = SURFACE_STYLE_FILL_AREA ( #370 ) ;
#307 = DIRECTION ( 'NONE',  ( -1.224646799147353454E-16, 1.000000000000000000, -0.000000000000000000 ) ) ;
#308 = FILL_AREA_STYLE_COLOUR ( '', #160 ) ;
#309 = VERTEX_POINT ( 'NONE', #90 ) ;
#310 = UNCERTAINTY_MEASURE_WITH_UNIT (LENGTH_MEASURE( 1.000000000000000082E-05 ), #47, 'distance_accuracy_value', 'NONE');
#311 = CIRCLE ( 'NONE', #291, 0.1874999999999999167 ) ;
#312 = SHAPE_DEFINITION_REPRESENTATION ( #188, #212 ) ;
#313 = LENGTH_MEASURE_WITH_UNIT ( LENGTH_MEASURE( 0.02539999999999999897 ), #247 );
#314 =( CONVERSION_BASED_UNIT ( 'INCH', #326 ) LENGTH_UNIT ( ) NAMED_UNIT ( #250 ) );
#315 = EDGE_CURVE ( 'NONE', #27, #186, #330, .T. ) ;
#316 = ADVANCED_FACE ( 'NONE', ( #178 ), #94, .T. ) ;
#317 = CARTESIAN_POINT ( 'NONE',  ( -1.148106374200643863E-17, 0.000000000000000000, 0.000000000000000000 ) ) ;
#318 = CIRCLE ( 'NONE', #139, 0.1874999999999997780 ) ;
#319 = APPLICATION_PROTOCOL_DEFINITION ( 'draft international standard', 'automotive_design', 1998, #51 ) ;
#320 = VECTOR ( 'NONE', #64, 39.37007874015748143 ) ;
#321 = FILL_AREA_STYLE ('',( #105 ) ) ;
#322 = UNCERTAINTY_MEASURE_WITH_UNIT (LENGTH_MEASURE( 1.000000000000000082E-05 ), #353, 'distance_accuracy_value', 'NONE');
#323 = DIRECTION ( 'NONE',  ( 0.000000000000000000, 1.000000000000000000, 0.000000000000000000 ) ) ;
#324 =( LENGTH_UNIT ( ) NAMED_UNIT ( * ) SI_UNIT ( $, .METRE. ) );
#325 =( GEOMETRIC_REPRESENTATION_CONTEXT ( 3 ) GLOBAL_UNCERTAINTY_ASSIGNED_CONTEXT ( ( #106 ) ) GLOBAL_UNIT_ASSIGNED_CONTEXT ( ( #314, #194, #288 ) ) REPRESENTATION_CONTEXT ( 'NONE', 'WORKASPACE' ) );
#326 = LENGTH_MEASURE_WITH_UNIT ( LENGTH_MEASURE( 0.02539999999999999897 ), #22 );
#327 = DIRECTION ( 'NONE',  ( -1.000000000000000000, 0.000000000000000000, 0.000000000000000000 ) ) ;
#328 =( NAMED_UNIT ( * ) PLANE_ANGLE_UNIT ( ) SI_UNIT ( $, .RADIAN. ) );
#329 = ORIENTED_EDGE ( 'NONE', *, *, #20, .F. ) ;
#330 = LINE ( 'NONE', #332, #320 ) ;
#331 = DIRECTION ( 'NONE',  ( -1.000000000000000000, -1.224646799147353454E-16, 0.000000000000000000 ) ) ;
#332 = CARTESIAN_POINT ( 'NONE',  ( 2.296212748401286493E-17, 0.000000000000000000, 0.1874999999999999445 ) ) ;
#333 = VERTEX_POINT ( 'NONE', #343 ) ;
#334 = DIRECTION ( 'NONE',  ( -1.000000000000000000, 0.000000000000000000, 0.000000000000000000 ) ) ;
#335 = SURFACE_STYLE_FILL_AREA ( #219 ) ;
#336 = AXIS2_PLACEMENT_3D ( 'NONE', #92, #209, #299 ) ;
#337 = MECHANICAL_DESIGN_GEOMETRIC_PRESENTATION_REPRESENTATION (  '', ( #14 ), #254 ) ;
#338 = FILL_AREA_STYLE ('',( #34 ) ) ;
#339 = LENGTH_MEASURE_WITH_UNIT ( LENGTH_MEASURE( 0.02539999999999999897 ), #124 );
#340 = VERTEX_POINT ( 'NONE', #102 ) ;
#341 = ORIENTED_EDGE ( 'NONE', *, *, #128, .T. ) ;
#342 = ADVANCED_FACE ( 'NONE', ( #131 ), #181, .F. ) ;
#343 = CARTESIAN_POINT ( 'NONE',  ( -0.1874999999999996392, 0.8749999999999997780, 0.000000000000000000 ) ) ;
#344 = CIRCLE ( 'NONE', #170, 0.1874999999999999167 ) ;
#345 = DIMENSIONAL_EXPONENTS ( 1.000000000000000000, 0.000000000000000000, 0.000000000000000000, 0.000000000000000000, 0.000000000000000000, 0.000000000000000000, 0.000000000000000000 ) ;
#346 = SURFACE_STYLE_USAGE ( .BOTH. , #56 ) ;
#347 = DIRECTION ( 'NONE',  ( -0.000000000000000000, -1.000000000000000000, -0.000000000000000000 ) ) ;
#348 = AXIS2_PLACEMENT_3D ( 'NONE', #238, #355, #204 ) ;
#349 = SURFACE_STYLE_FILL_AREA ( #83 ) ;
#350 = APPLICATION_CONTEXT ( 'automotive_design' ) ;
#351 = DIRECTION ( 'NONE',  ( -0.000000000000000000, -1.000000000000000000, -0.000000000000000000 ) ) ;
#352 = CYLINDRICAL_SURFACE ( 'NONE', #46, 0.1874999999999999445 ) ;
#353 =( CONVERSION_BASED_UNIT ( 'INCH', #272 ) LENGTH_UNIT ( ) NAMED_UNIT ( #345 ) );
#354 = ORIENTED_EDGE ( 'NONE', *, *, #48, .F. ) ;
#355 = DIRECTION ( 'NONE',  ( 0.000000000000000000, 0.000000000000000000, 1.000000000000000000 ) ) ;
#356 = ORIENTED_EDGE ( 'NONE', *, *, #36, .F. ) ;
#357 = CARTESIAN_POINT ( 'NONE',  ( 0.1874999999999999722, 0.1875000000000000555, 0.000000000000000000 ) ) ;
#358 = STYLED_ITEM ( 'NONE', ( #164 ), #187 ) ;
#359 = PRESENTATION_STYLE_ASSIGNMENT (( #244 ) ) ;
#360 = SURFACE_STYLE_USAGE ( .BOTH. , #293 ) ;
#361 = PRODUCT_DEFINITION ( 'UNKNOWN', '', #230, #129 ) ;
#362 = LINE ( 'NONE', #213, #121 ) ;
#363 = DIRECTION ( 'NONE',  ( -0.000000000000000000, -1.000000000000000000, -0.000000000000000000 ) ) ;
#364 = FACE_OUTER_BOUND ( 'NONE', #262, .T. ) ;
#365 = ORIENTED_EDGE ( 'NONE', *, *, #85, .T. ) ;
#366 = ADVANCED_FACE ( 'NONE', ( #75 ), #221, .T. ) ;
#367 = EDGE_LOOP ( 'NONE', ( #266, #341 ) ) ;
#368 = SURFACE_STYLE_USAGE ( .BOTH. , #38 ) ;
#369 = MANIFOLD_SOLID_BREP ( 'Revolve - Cutting Edge', #303 ) ;
#370 = FILL_AREA_STYLE ('',( #308 ) ) ;
#371 = UNCERTAINTY_MEASURE_WITH_UNIT (LENGTH_MEASURE( 1.000000000000000082E-05 ), #13, 'distance_accuracy_value', 'NONE');
#372 = STYLED_ITEM ( 'NONE', ( #40 ), #369 ) ;
#373 = CARTESIAN_POINT ( 'NONE',  ( 0.000000000000000000, 0.8750000000000000000, 0.000000000000000000 ) ) ;
ENDSEC;
END-ISO-10303-21;
