ISO-10303-21;
HEADER;
FILE_DESCRIPTION (( 'STEP AP214' ),
    '1' );
FILE_NAME ('Micro_RMEM-013-2.STEP',
    '2021-09-02T00:00:08',
    ( '' ),
    ( '' ),
    'SwSTEP 2.0',
    'SolidWorks 2020',
    '' );
FILE_SCHEMA (( 'AUTOMOTIVE_DESIGN' ));
ENDSEC;

DATA;
#1 = DIRECTION ( 'NONE',  ( -1.224646799147353207E-16, -0.0000000000000000000, -1.000000000000000000 ) ) ;
#2 = ADVANCED_FACE ( 'NONE', ( #118 ), #120, .T. ) ;
#3 = DIRECTION ( 'NONE',  ( 0.0000000000000000000, 0.0000000000000000000, 1.000000000000000000 ) ) ;
#4 = CARTESIAN_POINT ( 'NONE',  ( 0.04405499999999973326, 6.313666573004162521E-18, 1.496062999999999921 ) ) ;
#5 = AXIS2_PLACEMENT_3D ( 'NONE', #151, #134, #32 ) ;
#6 = CIRCLE ( 'NONE', #250, 0.05905500000000000332 ) ;
#7 = EDGE_LOOP ( 'NONE', ( #281, #216 ) ) ;
#8 = EDGE_CURVE ( 'NONE', #71, #193, #179, .T. ) ;
#9 = EDGE_LOOP ( 'NONE', ( #137, #60, #159, #77 ) ) ;
#10 = ORIENTED_EDGE ( 'NONE', *, *, #29, .T. ) ;
#11 = PLANE ( 'NONE',  #174 ) ;
#12 = VECTOR ( 'NONE', #160, 39.37007874015748143 ) ;
#13 = CARTESIAN_POINT ( 'NONE',  ( 0.0000000000000000000, 0.0000000000000000000, 1.496062999999999921 ) ) ;
#14 = EDGE_CURVE ( 'NONE', #144, #102, #95, .T. ) ;
#15 = DIRECTION ( 'NONE',  ( 1.000000000000000000, 0.0000000000000000000, -0.0000000000000000000 ) ) ;
#16 = FILL_AREA_STYLE_COLOUR ( '', #82 ) ;
#17 = DIRECTION ( 'NONE',  ( 0.0000000000000000000, 0.0000000000000000000, -1.000000000000000000 ) ) ;
#18 = STYLED_ITEM ( 'NONE', ( #88 ), #287 ) ;
#19 = ADVANCED_FACE ( 'NONE', ( #140 ), #188, .T. ) ;
#20 =( CONVERSION_BASED_UNIT ( 'INCH', #178 ) LENGTH_UNIT ( ) NAMED_UNIT ( #99 ) );
#21 =( NAMED_UNIT ( * ) SI_UNIT ( $, .STERADIAN. ) SOLID_ANGLE_UNIT ( ) );
#22 = AXIS2_PLACEMENT_3D ( 'NONE', #272, #145, #152 ) ;
#23 = DIRECTION ( 'NONE',  ( 0.0000000000000000000, 0.0000000000000000000, 1.000000000000000000 ) ) ;
#24 = SURFACE_SIDE_STYLE ('',( #292 ) ) ;
#25 = APPLICATION_CONTEXT ( 'automotive_design' ) ;
#26 = ORIENTED_EDGE ( 'NONE', *, *, #83, .T. ) ;
#27 = CARTESIAN_POINT ( 'NONE',  ( 3.834122311549006146E-34, 0.0000000000000000000, 3.130798458966676147E-18 ) ) ;
#28 = SHAPE_DEFINITION_REPRESENTATION ( #157, #287 ) ;
#29 = EDGE_CURVE ( 'NONE', #144, #260, #254, .T. ) ;
#30 = ORIENTED_EDGE ( 'NONE', *, *, #141, .T. ) ;
#31 = DIRECTION ( 'NONE',  ( 0.0000000000000000000, 0.0000000000000000000, 1.000000000000000000 ) ) ;
#32 = DIRECTION ( 'NONE',  ( 1.000000000000000000, 0.0000000000000000000, 0.0000000000000000000 ) ) ;
#33 = VECTOR ( 'NONE', #163, 39.37007874015748143 ) ;
#34 = EDGE_LOOP ( 'NONE', ( #173, #253, #105, #37 ) ) ;
#35 = AXIS2_PLACEMENT_3D ( 'NONE', #84, #237, #239 ) ;
#36 = ADVANCED_FACE ( 'NONE', ( #235 ), #155, .T. ) ;
#37 = ORIENTED_EDGE ( 'NONE', *, *, #66, .F. ) ;
#38 = CARTESIAN_POINT ( 'NONE',  ( 0.05905500000000000332, 7.232151672364695422E-18, 1.481062999999999574 ) ) ;
#39 = EDGE_CURVE ( 'NONE', #102, #220, #274, .T. ) ;
#40 = STYLED_ITEM ( 'NONE', ( #192 ), #128 ) ;
#41 = PRODUCT_DEFINITION_FORMATION_WITH_SPECIFIED_SOURCE ( 'ANY', '', #50, .NOT_KNOWN. ) ;
#42 = LENGTH_MEASURE_WITH_UNIT ( LENGTH_MEASURE( 0.02539999999999999897 ), #177 );
#43 = VERTEX_POINT ( 'NONE', #92 ) ;
#44 = CARTESIAN_POINT ( 'NONE',  ( 0.05905500000000000332, 7.232151672364695422E-18, 1.496062999999999921 ) ) ;
#45 = UNCERTAINTY_MEASURE_WITH_UNIT (LENGTH_MEASURE( 1.000000000000000082E-05 ), #20, 'distance_accuracy_value', 'NONE');
#46 = DIRECTION ( 'NONE',  ( -0.0000000000000000000, -0.0000000000000000000, -1.000000000000000000 ) ) ;
#47 = VECTOR ( 'NONE', #242, 39.37007874015748143 ) ;
#48 = AXIS2_PLACEMENT_3D ( 'NONE', #294, #245, #116 ) ;
#49 = PRODUCT_DEFINITION_CONTEXT ( 'detailed design', #25, 'design' ) ;
#50 = PRODUCT ( 'Micro_RMEM-013-2', 'Micro_RMEM-013-2', '', ( #248 ) ) ;
#51 = EDGE_LOOP ( 'NONE', ( #202, #266, #72, #222 ) ) ;
#52 = CARTESIAN_POINT ( 'NONE',  ( 0.02556490949999999998, 3.130798458966676147E-18, -3.130798458966676147E-18 ) ) ;
#53 = DIRECTION ( 'NONE',  ( -1.000000000000000000, 0.0000000000000000000, 1.224646799147353207E-16 ) ) ;
#54 = DIRECTION ( 'NONE',  ( -1.000000000000000000, 0.0000000000000000000, 0.0000000000000000000 ) ) ;
#55 = CIRCLE ( 'NONE', #212, 0.05905500000000000332 ) ;
#56 = CARTESIAN_POINT ( 'NONE',  ( 0.0000000000000000000, 0.0000000000000000000, 1.496062999999999921 ) ) ;
#57 = LINE ( 'NONE', #282, #59 ) ;
#58 = ORIENTED_EDGE ( 'NONE', *, *, #66, .T. ) ;
#59 = VECTOR ( 'NONE', #198, 39.37007874015748143 ) ;
#60 = ORIENTED_EDGE ( 'NONE', *, *, #223, .F. ) ;
#61 =( GEOMETRIC_REPRESENTATION_CONTEXT ( 3 ) GLOBAL_UNCERTAINTY_ASSIGNED_CONTEXT ( ( #295 ) ) GLOBAL_UNIT_ASSIGNED_CONTEXT ( ( #276, #69, #142 ) ) REPRESENTATION_CONTEXT ( 'NONE', 'WORKASPACE' ) );
#62 = VERTEX_POINT ( 'NONE', #271 ) ;
#63 = DIRECTION ( 'NONE',  ( 1.000000000000000000, 0.0000000000000000000, 0.0000000000000000000 ) ) ;
#64 = ADVANCED_FACE ( 'NONE', ( #93 ), #251, .T. ) ;
#65 = CARTESIAN_POINT ( 'NONE',  ( 0.0000000000000000000, 0.0000000000000000000, 1.496062999999999921 ) ) ;
#66 = EDGE_CURVE ( 'NONE', #71, #43, #143, .T. ) ;
#67 = CIRCLE ( 'NONE', #94, 0.04405499999999973326 ) ;
#68 = DIRECTION ( 'NONE',  ( 1.000000000000000000, 0.0000000000000000000, 0.0000000000000000000 ) ) ;
#69 =( NAMED_UNIT ( * ) PLANE_ANGLE_UNIT ( ) SI_UNIT ( $, .RADIAN. ) );
#70 = PRESENTATION_LAYER_ASSIGNMENT (  '', '', ( #18 ) ) ;
#71 = VERTEX_POINT ( 'NONE', #208 ) ;
#72 = ORIENTED_EDGE ( 'NONE', *, *, #87, .T. ) ;
#73 = DIRECTION ( 'NONE',  ( -1.000000000000000000, 0.0000000000000000000, 0.0000000000000000000 ) ) ;
#74 = VERTEX_POINT ( 'NONE', #4 ) ;
#75 = LENGTH_MEASURE_WITH_UNIT ( LENGTH_MEASURE( 0.02539999999999999897 ), #285 );
#76 = CIRCLE ( 'NONE', #35, 0.02556490949999999998 ) ;
#77 = ORIENTED_EDGE ( 'NONE', *, *, #138, .F. ) ;
#78 = CARTESIAN_POINT ( 'NONE',  ( 0.0000000000000000000, 0.0000000000000000000, 1.481062999999999574 ) ) ;
#79 = ORIENTED_EDGE ( 'NONE', *, *, #117, .T. ) ;
#80 = DIRECTION ( 'NONE',  ( -1.000000000000000000, 0.0000000000000000000, 1.224646799147353207E-16 ) ) ;
#81 = CARTESIAN_POINT ( 'NONE',  ( 0.0000000000000000000, 0.0000000000000000000, 1.481062999999999574 ) ) ;
#82 = COLOUR_RGB ( '',0.7921568627450980005, 0.8196078431372548767, 0.9333333333333333481 ) ;
#83 = EDGE_CURVE ( 'NONE', #260, #220, #57, .T. ) ;
#84 = CARTESIAN_POINT ( 'NONE',  ( 1.880359434814820563E-17, 0.0000000000000000000, 0.1535430000000000128 ) ) ;
#85 = FACE_OUTER_BOUND ( 'NONE', #9, .T. ) ;
#86 = CIRCLE ( 'NONE', #131, 0.04405499999999973326 ) ;
#87 = EDGE_CURVE ( 'NONE', #43, #62, #261, .T. ) ;
#88 = PRESENTATION_STYLE_ASSIGNMENT (( #200 ) ) ;
#89 = CYLINDRICAL_SURFACE ( 'NONE', #291, 0.02556490949999999998 ) ;
#90 = CARTESIAN_POINT ( 'NONE',  ( 0.0000000000000000000, 0.0000000000000000000, 0.0000000000000000000 ) ) ;
#91 = AXIS2_PLACEMENT_3D ( 'NONE', #278, #148, #73 ) ;
#92 = CARTESIAN_POINT ( 'NONE',  ( -0.05905499999999996169, 0.0000000000000000000, 0.3434747413900008373 ) ) ;
#93 = FACE_OUTER_BOUND ( 'NONE', #125, .T. ) ;
#94 = AXIS2_PLACEMENT_3D ( 'NONE', #136, #115, #68 ) ;
#95 = LINE ( 'NONE', #52, #113 ) ;
#96 = ORIENTED_EDGE ( 'NONE', *, *, #184, .F. ) ;
#97 = ORIENTED_EDGE ( 'NONE', *, *, #154, .T. ) ;
#98 = DIRECTION ( 'NONE',  ( -1.224646799147353207E-16, -0.0000000000000000000, -1.000000000000000000 ) ) ;
#99 = DIMENSIONAL_EXPONENTS ( 1.000000000000000000, 0.0000000000000000000, 0.0000000000000000000, 0.0000000000000000000, 0.0000000000000000000, 0.0000000000000000000, 0.0000000000000000000 ) ;
#100 = ADVANCED_FACE ( 'NONE', ( #241 ), #11, .T. ) ;
#101 = AXIS2_PLACEMENT_3D ( 'NONE', #126, #209, #54 ) ;
#102 = VERTEX_POINT ( 'NONE', #129 ) ;
#103 = CARTESIAN_POINT ( 'NONE',  ( 0.04405499999999973326, 5.395181473643630390E-18, 1.496062999999999921 ) ) ;
#104 = VECTOR ( 'NONE', #201, 39.37007874015747433 ) ;
#105 = ORIENTED_EDGE ( 'NONE', *, *, #87, .F. ) ;
#106 = DIRECTION ( 'NONE',  ( -0.7071067811865482389, 0.0000000000000000000, -0.7071067811865469066 ) ) ;
#107 = ORIENTED_EDGE ( 'NONE', *, *, #39, .T. ) ;
#108 = SURFACE_STYLE_USAGE ( .BOTH. , #196 ) ;
#109 = FACE_OUTER_BOUND ( 'NONE', #194, .T. ) ;
#110 = FILL_AREA_STYLE_COLOUR ( '', #186 ) ;
#111 = FACE_OUTER_BOUND ( 'NONE', #51, .T. ) ;
#112 = ORIENTED_EDGE ( 'NONE', *, *, #8, .F. ) ;
#113 = VECTOR ( 'NONE', #123, 39.37007874015748143 ) ;
#114 = MECHANICAL_DESIGN_GEOMETRIC_PRESENTATION_REPRESENTATION (  '', ( #18 ), #61 ) ;
#115 = DIRECTION ( 'NONE',  ( 0.0000000000000000000, 0.0000000000000000000, 1.000000000000000000 ) ) ;
#116 = DIRECTION ( 'NONE',  ( 1.000000000000000000, 0.0000000000000000000, 0.0000000000000000000 ) ) ;
#117 = EDGE_CURVE ( 'NONE', #74, #193, #219, .T. ) ;
#118 = FACE_OUTER_BOUND ( 'NONE', #257, .T. ) ;
#119 = APPLICATION_PROTOCOL_DEFINITION ( 'draft international standard', 'automotive_design', 1998, #25 ) ;
#120 = CONICAL_SURFACE ( 'NONE', #22, 0.02556490949999999998, 0.1745329251994338637 ) ;
#121 = CARTESIAN_POINT ( 'NONE',  ( 0.0000000000000000000, 0.0000000000000000000, 0.0000000000000000000 ) ) ;
#122 = DIRECTION ( 'NONE',  ( -1.224646799147353207E-16, -0.0000000000000000000, -1.000000000000000000 ) ) ;
#123 = DIRECTION ( 'NONE',  ( -1.224646799147353207E-16, -0.0000000000000000000, -1.000000000000000000 ) ) ;
#124 = CARTESIAN_POINT ( 'NONE',  ( -0.05905500000000000332, 0.0000000000000000000, 1.496062999999999921 ) ) ;
#125 = EDGE_LOOP ( 'NONE', ( #190, #10, #26, #130 ) ) ;
#126 = CARTESIAN_POINT ( 'NONE',  ( 0.0000000000000000000, 0.0000000000000000000, 1.496062999999999921 ) ) ;
#127 = EDGE_CURVE ( 'NONE', #164, #71, #224, .T. ) ;
#128 = MANIFOLD_SOLID_BREP ( 'Cut-Revolve1', #283 ) ;
#129 = CARTESIAN_POINT ( 'NONE',  ( 0.02556490949999999998, 3.130798458966676147E-18, 0.0000000000000000000 ) ) ;
#130 = ORIENTED_EDGE ( 'NONE', *, *, #39, .F. ) ;
#131 = AXIS2_PLACEMENT_3D ( 'NONE', #56, #149, #236 ) ;
#132 = ORIENTED_EDGE ( 'NONE', *, *, #273, .T. ) ;
#133 = CARTESIAN_POINT ( 'NONE',  ( 0.02556490950000001733, 0.0000000000000000000, 0.1535430000000000128 ) ) ;
#134 = DIRECTION ( 'NONE',  ( -1.224646799147353207E-16, -0.0000000000000000000, -1.000000000000000000 ) ) ;
#135 = APPLICATION_PROTOCOL_DEFINITION ( 'draft international standard', 'automotive_design', 1998, #230 ) ;
#136 = CARTESIAN_POINT ( 'NONE',  ( 0.0000000000000000000, 0.0000000000000000000, 1.496062999999999921 ) ) ;
#137 = ORIENTED_EDGE ( 'NONE', *, *, #117, .F. ) ;
#138 = EDGE_CURVE ( 'NONE', #193, #71, #55, .T. ) ;
#139 =( NAMED_UNIT ( * ) PLANE_ANGLE_UNIT ( ) SI_UNIT ( $, .RADIAN. ) );
#140 = FACE_OUTER_BOUND ( 'NONE', #34, .T. ) ;
#141 = EDGE_CURVE ( 'NONE', #260, #144, #76, .T. ) ;
#142 =( NAMED_UNIT ( * ) SI_UNIT ( $, .STERADIAN. ) SOLID_ANGLE_UNIT ( ) );
#143 = LINE ( 'NONE', #124, #33 ) ;
#144 = VERTEX_POINT ( 'NONE', #133 ) ;
#145 = DIRECTION ( 'NONE',  ( 1.224646799147353207E-16, 0.0000000000000000000, 1.000000000000000000 ) ) ;
#146 = AXIS2_PLACEMENT_3D ( 'NONE', #81, #17, #249 ) ;
#147 = AXIS2_PLACEMENT_3D ( 'NONE', #65, #189, #280 ) ;
#148 = DIRECTION ( 'NONE',  ( -0.0000000000000000000, -0.0000000000000000000, -1.000000000000000000 ) ) ;
#149 = DIRECTION ( 'NONE',  ( 0.0000000000000000000, 0.0000000000000000000, 1.000000000000000000 ) ) ;
#150 =( NAMED_UNIT ( * ) SI_UNIT ( $, .STERADIAN. ) SOLID_ANGLE_UNIT ( ) );
#151 = CARTESIAN_POINT ( 'NONE',  ( 4.206352426312293893E-17, 0.0000000000000000000, 0.3434747413900008373 ) ) ;
#152 = DIRECTION ( 'NONE',  ( 1.000000000000000000, 0.0000000000000000000, 0.0000000000000000000 ) ) ;
#153 = DIRECTION ( 'NONE',  ( 1.000000000000000000, 0.0000000000000000000, 0.0000000000000000000 ) ) ;
#154 = EDGE_CURVE ( 'NONE', #220, #102, #204, .T. ) ;
#155 = CONICAL_SURFACE ( 'NONE', #101, 0.04405499999999973326, 0.7853981633974491672 ) ;
#156 =( GEOMETRIC_REPRESENTATION_CONTEXT ( 3 ) GLOBAL_UNCERTAINTY_ASSIGNED_CONTEXT ( ( #181 ) ) GLOBAL_UNIT_ASSIGNED_CONTEXT ( ( #171, #259, #150 ) ) REPRESENTATION_CONTEXT ( 'NONE', 'WORKASPACE' ) );
#157 = PRODUCT_DEFINITION_SHAPE ( 'NONE', 'NONE',  #195 ) ;
#158 = DIRECTION ( 'NONE',  ( -1.224646799147353207E-16, -0.0000000000000000000, -1.000000000000000000 ) ) ;
#159 = ORIENTED_EDGE ( 'NONE', *, *, #127, .T. ) ;
#160 = DIRECTION ( 'NONE',  ( 0.1736481776669313581, 0.0000000000000000000, 0.9848077530122077983 ) ) ;
#161 =( GEOMETRIC_REPRESENTATION_CONTEXT ( 3 ) GLOBAL_UNCERTAINTY_ASSIGNED_CONTEXT ( ( #45 ) ) GLOBAL_UNIT_ASSIGNED_CONTEXT ( ( #20, #139, #21 ) ) REPRESENTATION_CONTEXT ( 'NONE', 'WORKASPACE' ) );
#162 = LINE ( 'NONE', #44, #238 ) ;
#163 = DIRECTION ( 'NONE',  ( -0.0000000000000000000, -0.0000000000000000000, -1.000000000000000000 ) ) ;
#164 = VERTEX_POINT ( 'NONE', #175 ) ;
#165 = DIRECTION ( 'NONE',  ( 1.000000000000000000, 0.0000000000000000000, 0.0000000000000000000 ) ) ;
#166 = MECHANICAL_DESIGN_GEOMETRIC_PRESENTATION_REPRESENTATION (  '', ( #40 ), #156 ) ;
#167 = CARTESIAN_POINT ( 'NONE',  ( 0.0000000000000000000, 0.0000000000000000000, 0.0000000000000000000 ) ) ;
#168 = PRODUCT_RELATED_PRODUCT_CATEGORY ( 'part', '', ( #50 ) ) ;
#169 = ORIENTED_EDGE ( 'NONE', *, *, #138, .T. ) ;
#170 = ORIENTED_EDGE ( 'NONE', *, *, #29, .F. ) ;
#171 =( CONVERSION_BASED_UNIT ( 'INCH', #75 ) LENGTH_UNIT ( ) NAMED_UNIT ( #296 ) );
#172 = ORIENTED_EDGE ( 'NONE', *, *, #14, .T. ) ;
#173 = ORIENTED_EDGE ( 'NONE', *, *, #8, .T. ) ;
#174 = AXIS2_PLACEMENT_3D ( 'NONE', #13, #31, #15 ) ;
#175 = CARTESIAN_POINT ( 'NONE',  ( -0.04405499999999973326, 0.0000000000000000000, 1.496062999999999921 ) ) ;
#176 = CARTESIAN_POINT ( 'NONE',  ( -0.04405499999999973326, 0.0000000000000000000, 1.496062999999999921 ) ) ;
#177 =( LENGTH_UNIT ( ) NAMED_UNIT ( * ) SI_UNIT ( $, .METRE. ) );
#178 = LENGTH_MEASURE_WITH_UNIT ( LENGTH_MEASURE( 0.02539999999999999897 ), #268 );
#179 = CIRCLE ( 'NONE', #146, 0.05905500000000000332 ) ;
#180 = PRESENTATION_LAYER_ASSIGNMENT (  '', '', ( #40 ) ) ;
#181 = UNCERTAINTY_MEASURE_WITH_UNIT (LENGTH_MEASURE( 1.000000000000000082E-05 ), #171, 'distance_accuracy_value', 'NONE');
#182 = CARTESIAN_POINT ( 'NONE',  ( -0.02556490949999998263, 5.181475065665685785E-18, 0.1535430000000000128 ) ) ;
#183 = CARTESIAN_POINT ( 'NONE',  ( -0.02556490949999999998, 0.0000000000000000000, 6.261596917933352294E-18 ) ) ;
#184 = EDGE_CURVE ( 'NONE', #62, #43, #6, .T. ) ;
#185 = AXIS2_PLACEMENT_3D ( 'NONE', #167, #122, #53 ) ;
#186 = COLOUR_RGB ( '',0.7921568627450980005, 0.8196078431372548767, 0.9333333333333333481 ) ;
#187 = DIMENSIONAL_EXPONENTS ( 1.000000000000000000, 0.0000000000000000000, 0.0000000000000000000, 0.0000000000000000000, 0.0000000000000000000, 0.0000000000000000000, 0.0000000000000000000 ) ;
#188 = CYLINDRICAL_SURFACE ( 'NONE', #91, 0.05905500000000000332 ) ;
#189 = DIRECTION ( 'NONE',  ( -0.0000000000000000000, -0.0000000000000000000, -1.000000000000000000 ) ) ;
#190 = ORIENTED_EDGE ( 'NONE', *, *, #14, .F. ) ;
#191 = CONICAL_SURFACE ( 'NONE', #233, 0.04405499999999973326, 0.7853981633974491672 ) ;
#192 = PRESENTATION_STYLE_ASSIGNMENT (( #108 ) ) ;
#193 = VERTEX_POINT ( 'NONE', #38 ) ;
#194 = EDGE_LOOP ( 'NONE', ( #263, #169, #58, #96 ) ) ;
#195 = PRODUCT_DEFINITION ( 'UNKNOWN', '', #41, #49 ) ;
#196 = SURFACE_SIDE_STYLE ('',( #284 ) ) ;
#197 = EDGE_LOOP ( 'NONE', ( #97, #107 ) ) ;
#198 = DIRECTION ( 'NONE',  ( -1.224646799147353207E-16, -0.0000000000000000000, -1.000000000000000000 ) ) ;
#199 = ADVANCED_FACE ( 'NONE', ( #109 ), #286, .T. ) ;
#200 = SURFACE_STYLE_USAGE ( .BOTH. , #24 ) ;
#201 = DIRECTION ( 'NONE',  ( -0.1736481776669311639, 2.126576849575783008E-17, 0.9848077530122080203 ) ) ;
#202 = ORIENTED_EDGE ( 'NONE', *, *, #141, .F. ) ;
#203 = CARTESIAN_POINT ( 'NONE',  ( 0.02556490950000001733, 0.0000000000000000000, 0.1535430000000000128 ) ) ;
#204 = CIRCLE ( 'NONE', #299, 0.02556490949999999998 ) ;
#205 = FACE_OUTER_BOUND ( 'NONE', #265, .T. ) ;
#206 = DIRECTION ( 'NONE',  ( 0.0000000000000000000, 0.0000000000000000000, -1.000000000000000000 ) ) ;
#207 = EDGE_CURVE ( 'NONE', #74, #164, #86, .T. ) ;
#208 = CARTESIAN_POINT ( 'NONE',  ( -0.05905500000000000332, 0.0000000000000000000, 1.481062999999999574 ) ) ;
#209 = DIRECTION ( 'NONE',  ( 0.0000000000000000000, 0.0000000000000000000, -1.000000000000000000 ) ) ;
#210 = DIRECTION ( 'NONE',  ( -1.000000000000000000, 0.0000000000000000000, 0.0000000000000000000 ) ) ;
#211 = VECTOR ( 'NONE', #106, 39.37007874015748143 ) ;
#212 = AXIS2_PLACEMENT_3D ( 'NONE', #78, #258, #153 ) ;
#213 = ORIENTED_EDGE ( 'NONE', *, *, #127, .F. ) ;
#214 = FILL_AREA_STYLE ('',( #16 ) ) ;
#215 = FACE_OUTER_BOUND ( 'NONE', #197, .T. ) ;
#216 = ORIENTED_EDGE ( 'NONE', *, *, #207, .T. ) ;
#217 = ADVANCED_FACE ( 'NONE', ( #215 ), #228, .F. ) ;
#218 = ORIENTED_EDGE ( 'NONE', *, *, #207, .F. ) ;
#219 = LINE ( 'NONE', #103, #47 ) ;
#220 = VERTEX_POINT ( 'NONE', #183 ) ;
#221 = CARTESIAN_POINT ( 'NONE',  ( 3.834122311549006146E-34, 0.0000000000000000000, 3.130798458966676147E-18 ) ) ;
#222 = ORIENTED_EDGE ( 'NONE', *, *, #273, .F. ) ;
#223 = EDGE_CURVE ( 'NONE', #164, #74, #67, .T. ) ;
#224 = LINE ( 'NONE', #176, #211 ) ;
#225 = FILL_AREA_STYLE ('',( #110 ) ) ;
#226 = DIRECTION ( 'NONE',  ( -1.000000000000000000, 0.0000000000000000000, 1.224646799147353207E-16 ) ) ;
#227 = ORIENTED_EDGE ( 'NONE', *, *, #184, .T. ) ;
#228 = PLANE ( 'NONE',  #270 ) ;
#229 = AXIS2_PLACEMENT_3D ( 'NONE', #121, #3, #165 ) ;
#230 = APPLICATION_CONTEXT ( 'automotive_design' ) ;
#231 = ADVANCED_FACE ( 'NONE', ( #205 ), #89, .T. ) ;
#232 = CARTESIAN_POINT ( 'NONE',  ( 1.880359434814820563E-17, 0.0000000000000000000, 0.1535430000000000128 ) ) ;
#233 = AXIS2_PLACEMENT_3D ( 'NONE', #244, #206, #243 ) ;
#234 = EDGE_LOOP ( 'NONE', ( #218, #79, #112, #213 ) ) ;
#235 = FACE_OUTER_BOUND ( 'NONE', #234, .T. ) ;
#236 = DIRECTION ( 'NONE',  ( 1.000000000000000000, 0.0000000000000000000, 0.0000000000000000000 ) ) ;
#237 = DIRECTION ( 'NONE',  ( -1.224646799147353207E-16, -0.0000000000000000000, -1.000000000000000000 ) ) ;
#238 = VECTOR ( 'NONE', #46, 39.37007874015748143 ) ;
#239 = DIRECTION ( 'NONE',  ( -1.000000000000000000, 0.0000000000000000000, 0.0000000000000000000 ) ) ;
#240 = ORIENTED_EDGE ( 'NONE', *, *, #154, .F. ) ;
#241 = FACE_OUTER_BOUND ( 'NONE', #7, .T. ) ;
#242 = DIRECTION ( 'NONE',  ( 0.7071067811865482389, 8.659560562354941486E-17, -0.7071067811865469066 ) ) ;
#243 = DIRECTION ( 'NONE',  ( -1.000000000000000000, 0.0000000000000000000, 0.0000000000000000000 ) ) ;
#244 = CARTESIAN_POINT ( 'NONE',  ( 0.0000000000000000000, 0.0000000000000000000, 1.496062999999999921 ) ) ;
#245 = DIRECTION ( 'NONE',  ( 1.224646799147353207E-16, 0.0000000000000000000, 1.000000000000000000 ) ) ;
#246 = ADVANCED_FACE ( 'NONE', ( #111 ), #275, .T. ) ;
#247 = LINE ( 'NONE', #203, #12 ) ;
#248 = PRODUCT_CONTEXT ( 'NONE', #230, 'mechanical' ) ;
#249 = DIRECTION ( 'NONE',  ( 1.000000000000000000, 0.0000000000000000000, 0.0000000000000000000 ) ) ;
#250 = AXIS2_PLACEMENT_3D ( 'NONE', #262, #98, #63 ) ;
#251 = CYLINDRICAL_SURFACE ( 'NONE', #185, 0.02556490949999999998 ) ;
#252 = DIRECTION ( 'NONE',  ( -1.224646799147353207E-16, -0.0000000000000000000, -1.000000000000000000 ) ) ;
#253 = ORIENTED_EDGE ( 'NONE', *, *, #288, .T. ) ;
#254 = CIRCLE ( 'NONE', #297, 0.02556490949999999998 ) ;
#255 = EDGE_CURVE ( 'NONE', #260, #43, #289, .T. ) ;
#256 = DIRECTION ( 'NONE',  ( -1.224646799147353207E-16, -0.0000000000000000000, -1.000000000000000000 ) ) ;
#257 = EDGE_LOOP ( 'NONE', ( #279, #170, #132, #227 ) ) ;
#258 = DIRECTION ( 'NONE',  ( 0.0000000000000000000, 0.0000000000000000000, -1.000000000000000000 ) ) ;
#259 =( NAMED_UNIT ( * ) PLANE_ANGLE_UNIT ( ) SI_UNIT ( $, .RADIAN. ) );
#260 = VERTEX_POINT ( 'NONE', #182 ) ;
#261 = CIRCLE ( 'NONE', #5, 0.05905500000000000332 ) ;
#262 = CARTESIAN_POINT ( 'NONE',  ( 4.206352426312293893E-17, 0.0000000000000000000, 0.3434747413900008373 ) ) ;
#263 = ORIENTED_EDGE ( 'NONE', *, *, #288, .F. ) ;
#264 = CARTESIAN_POINT ( 'NONE',  ( -0.02556490949999998263, 3.130798458966676147E-18, 0.1535430000000000128 ) ) ;
#265 = EDGE_LOOP ( 'NONE', ( #30, #172, #240, #277 ) ) ;
#266 = ORIENTED_EDGE ( 'NONE', *, *, #255, .T. ) ;
#267 = CARTESIAN_POINT ( 'NONE',  ( 0.0000000000000000000, 0.0000000000000000000, 0.0000000000000000000 ) ) ;
#268 =( LENGTH_UNIT ( ) NAMED_UNIT ( * ) SI_UNIT ( $, .METRE. ) );
#269 = ADVANCED_FACE ( 'NONE', ( #85 ), #191, .T. ) ;
#270 = AXIS2_PLACEMENT_3D ( 'NONE', #90, #23, #293 ) ;
#271 = CARTESIAN_POINT ( 'NONE',  ( 0.05905500000000004496, 7.232151672364700045E-18, 0.3434747413900008373 ) ) ;
#272 = CARTESIAN_POINT ( 'NONE',  ( 1.880359434814820563E-17, 0.0000000000000000000, 0.1535430000000000128 ) ) ;
#273 = EDGE_CURVE ( 'NONE', #144, #62, #247, .T. ) ;
#274 = CIRCLE ( 'NONE', #290, 0.02556490949999999998 ) ;
#275 = CONICAL_SURFACE ( 'NONE', #48, 0.02556490949999999998, 0.1745329251994338637 ) ;
#276 =( CONVERSION_BASED_UNIT ( 'INCH', #42 ) LENGTH_UNIT ( ) NAMED_UNIT ( #187 ) );
#277 = ORIENTED_EDGE ( 'NONE', *, *, #83, .F. ) ;
#278 = CARTESIAN_POINT ( 'NONE',  ( 0.0000000000000000000, 0.0000000000000000000, 1.496062999999999921 ) ) ;
#279 = ORIENTED_EDGE ( 'NONE', *, *, #255, .F. ) ;
#280 = DIRECTION ( 'NONE',  ( -1.000000000000000000, 0.0000000000000000000, 0.0000000000000000000 ) ) ;
#281 = ORIENTED_EDGE ( 'NONE', *, *, #223, .T. ) ;
#282 = CARTESIAN_POINT ( 'NONE',  ( -0.02556490949999999998, 0.0000000000000000000, 3.130798458966676147E-18 ) ) ;
#283 = CLOSED_SHELL ( 'NONE', ( #231, #246, #36, #19, #199, #100, #269, #2, #64, #217 ) ) ;
#284 = SURFACE_STYLE_FILL_AREA ( #214 ) ;
#285 =( LENGTH_UNIT ( ) NAMED_UNIT ( * ) SI_UNIT ( $, .METRE. ) );
#286 = CYLINDRICAL_SURFACE ( 'NONE', #147, 0.05905500000000000332 ) ;
#287 = ADVANCED_BREP_SHAPE_REPRESENTATION ( 'Micro_RMEM-013-2', ( #128, #229 ), #161 ) ;
#288 = EDGE_CURVE ( 'NONE', #193, #62, #162, .T. ) ;
#289 = LINE ( 'NONE', #264, #104 ) ;
#290 = AXIS2_PLACEMENT_3D ( 'NONE', #27, #1, #298 ) ;
#291 = AXIS2_PLACEMENT_3D ( 'NONE', #267, #158, #226 ) ;
#292 = SURFACE_STYLE_FILL_AREA ( #225 ) ;
#293 = DIRECTION ( 'NONE',  ( 1.000000000000000000, 0.0000000000000000000, -0.0000000000000000000 ) ) ;
#294 = CARTESIAN_POINT ( 'NONE',  ( 1.880359434814820563E-17, 0.0000000000000000000, 0.1535430000000000128 ) ) ;
#295 = UNCERTAINTY_MEASURE_WITH_UNIT (LENGTH_MEASURE( 1.000000000000000082E-05 ), #276, 'distance_accuracy_value', 'NONE');
#296 = DIMENSIONAL_EXPONENTS ( 1.000000000000000000, 0.0000000000000000000, 0.0000000000000000000, 0.0000000000000000000, 0.0000000000000000000, 0.0000000000000000000, 0.0000000000000000000 ) ;
#297 = AXIS2_PLACEMENT_3D ( 'NONE', #232, #252, #210 ) ;
#298 = DIRECTION ( 'NONE',  ( -1.000000000000000000, 0.0000000000000000000, 1.224646799147353207E-16 ) ) ;
#299 = AXIS2_PLACEMENT_3D ( 'NONE', #221, #256, #80 ) ;
ENDSEC;
END-ISO-10303-21;
