ISO-10303-21;
HEADER;
FILE_DESCRIPTION (( 'STEP AP214' ),
    '1' );
FILE_NAME ('81319.STEP',
    '2023-06-30T22:22:58',
    ( '' ),
    ( '' ),
    'SwSTEP 2.0',
    'SolidWorks 2023',
    '' );
FILE_SCHEMA (( 'AUTOMOTIVE_DESIGN' ));
ENDSEC;

DATA;
#1 =( GEOMETRIC_REPRESENTATION_CONTEXT ( 3 ) GLOBAL_UNCERTAINTY_ASSIGNED_CONTEXT ( ( #246 ) ) GLOBAL_UNIT_ASSIGNED_CONTEXT ( ( #80, #312, #163 ) ) REPRESENTATION_CONTEXT ( 'NONE', 'WORKASPACE' ) );
#2 = SURFACE_STYLE_USAGE ( .BOTH. , #282 ) ;
#3 = ORIENTED_EDGE ( 'NONE', *, *, #81, .T. ) ;
#4 = EDGE_CURVE ( 'NONE', #266, #115, #195, .T. ) ;
#5 = AXIS2_PLACEMENT_3D ( 'NONE', #164, #169, #139 ) ;
#6 = EDGE_LOOP ( 'NONE', ( #320, #198, #87, #292 ) ) ;
#7 = DIRECTION ( 'NONE',  ( -1.000000000000000000, 0.000000000000000000, 0.000000000000000000 ) ) ;
#8 = COLOUR_RGB ( '',1.000000000000000000, 0.000000000000000000, 0.000000000000000000 ) ;
#9 =( LENGTH_UNIT ( ) NAMED_UNIT ( * ) SI_UNIT ( $, .METRE. ) );
#10 = MANIFOLD_SOLID_BREP ( 'Revolve - Cutting Edge', #335 ) ;
#11 =( NAMED_UNIT ( * ) PLANE_ANGLE_UNIT ( ) SI_UNIT ( $, .RADIAN. ) );
#12 = ORIENTED_EDGE ( 'NONE', *, *, #226, .F. ) ;
#13 = EDGE_CURVE ( 'NONE', #64, #266, #27, .T. ) ;
#14 = PRESENTATION_STYLE_ASSIGNMENT (( #267 ) ) ;
#15 = UNCERTAINTY_MEASURE_WITH_UNIT (LENGTH_MEASURE( 1.000000000000000082E-05 ), #251, 'distance_accuracy_value', 'NONE');
#16 = ORIENTED_EDGE ( 'NONE', *, *, #4, .T. ) ;
#17 = AXIS2_PLACEMENT_3D ( 'NONE', #40, #92, #121 ) ;
#18 = CARTESIAN_POINT ( 'NONE',  ( 0.000000000000000000, 0.000000000000000000, 0.000000000000000000 ) ) ;
#19 = UNCERTAINTY_MEASURE_WITH_UNIT (LENGTH_MEASURE( 1.000000000000000082E-05 ), #166, 'distance_accuracy_value', 'NONE');
#20 = CARTESIAN_POINT ( 'NONE',  ( -5.740531871003217773E-18, -1.707404996040164512E-17, 0.000000000000000000 ) ) ;
#21 = DIRECTION ( 'NONE',  ( -1.000000000000000000, 0.000000000000000000, 0.000000000000000000 ) ) ;
#22 = DIRECTION ( 'NONE',  ( -0.000000000000000000, -1.000000000000000000, -0.000000000000000000 ) ) ;
#23 = EDGE_CURVE ( 'NONE', #158, #68, #237, .T. ) ;
#24 = FILL_AREA_STYLE_COLOUR ( '', #8 ) ;
#25 = PRODUCT ( '81319', '81319', '', ( #111 ) ) ;
#26 = PLANE ( 'NONE',  #59 ) ;
#27 = CIRCLE ( 'NONE', #253, 0.09375000000000002776 ) ;
#28 = ORIENTED_EDGE ( 'NONE', *, *, #313, .F. ) ;
#29 = VECTOR ( 'NONE', #314, 39.37007874015748143 ) ;
#30 = SURFACE_SIDE_STYLE ('',( #108 ) ) ;
#31 = STYLED_ITEM ( 'NONE', ( #277 ), #155 ) ;
#32 = DIRECTION ( 'NONE',  ( -1.483672453417965792E-16, 1.000000000000000000, -0.000000000000000000 ) ) ;
#33 = VERTEX_POINT ( 'NONE', #185 ) ;
#34 = FACE_OUTER_BOUND ( 'NONE', #6, .T. ) ;
#35 = EDGE_LOOP ( 'NONE', ( #353, #318, #89, #124, #170 ) ) ;
#36 = MECHANICAL_DESIGN_GEOMETRIC_PRESENTATION_REPRESENTATION (  '', ( #184 ), #224 ) ;
#37 = MECHANICAL_DESIGN_GEOMETRIC_PRESENTATION_REPRESENTATION (  '', ( #31 ), #1 ) ;
#38 = DIRECTION ( 'NONE',  ( 1.000000000000000000, 0.000000000000000000, -1.224646799147353207E-16 ) ) ;
#39 = ORIENTED_EDGE ( 'NONE', *, *, #173, .F. ) ;
#40 = CARTESIAN_POINT ( 'NONE',  ( 0.000000000000000000, 0.7500000000000001110, 0.000000000000000000 ) ) ;
#41 = EDGE_LOOP ( 'NONE', ( #44, #323, #3, #217 ) ) ;
#42 = CARTESIAN_POINT ( 'NONE',  ( 1.148106374200643863E-17, 0.09375000000000002776, 0.09375000000000001388 ) ) ;
#43 = UNCERTAINTY_MEASURE_WITH_UNIT (LENGTH_MEASURE( 1.000000000000000082E-05 ), #104, 'distance_accuracy_value', 'NONE');
#44 = ORIENTED_EDGE ( 'NONE', *, *, #360, .F. ) ;
#45 = AXIS2_PLACEMENT_3D ( 'NONE', #234, #32, #86 ) ;
#46 = ADVANCED_FACE ( 'NONE', ( #102 ), #214, .F. ) ;
#47 = DIRECTION ( 'NONE',  ( -0.000000000000000000, -1.000000000000000000, -0.000000000000000000 ) ) ;
#48 = CARTESIAN_POINT ( 'NONE',  ( 5.045720391776147351E-16, 0.7499999999999998890, 0.000000000000000000 ) ) ;
#49 = DIRECTION ( 'NONE',  ( -0.000000000000000000, -1.000000000000000000, -0.000000000000000000 ) ) ;
#50 = DIRECTION ( 'NONE',  ( -1.483672453417965792E-16, 1.000000000000000000, 0.000000000000000000 ) ) ;
#51 = AXIS2_PLACEMENT_3D ( 'NONE', #322, #67, #62 ) ;
#52 = APPLICATION_PROTOCOL_DEFINITION ( 'draft international standard', 'automotive_design', 1998, #149 ) ;
#53 =( NAMED_UNIT ( * ) SI_UNIT ( $, .STERADIAN. ) SOLID_ANGLE_UNIT ( ) );
#54 = AXIS2_PLACEMENT_3D ( 'NONE', #364, #298, #207 ) ;
#55 = MECHANICAL_DESIGN_GEOMETRIC_PRESENTATION_REPRESENTATION (  '', ( #307 ), #73 ) ;
#56 = CARTESIAN_POINT ( 'NONE',  ( 0.000000000000000000, 0.7499999999999998890, 0.000000000000000000 ) ) ;
#57 = CARTESIAN_POINT ( 'NONE',  ( 0.000000000000000000, 0.7500000000000001110, 0.000000000000000000 ) ) ;
#58 = AXIS2_PLACEMENT_3D ( 'NONE', #273, #50, #99 ) ;
#59 = AXIS2_PLACEMENT_3D ( 'NONE', #134, #255, #114 ) ;
#60 = LENGTH_MEASURE_WITH_UNIT ( LENGTH_MEASURE( 0.02539999999999999897 ), #346 );
#61 = EDGE_LOOP ( 'NONE', ( #91, #187, #256, #16 ) ) ;
#62 = DIRECTION ( 'NONE',  ( -1.000000000000000000, 0.000000000000000000, 0.000000000000000000 ) ) ;
#63 = SURFACE_STYLE_USAGE ( .BOTH. , #361 ) ;
#64 = VERTEX_POINT ( 'NONE', #365 ) ;
#65 = CIRCLE ( 'NONE', #280, 0.09375000000000002776 ) ;
#66 = AXIS2_PLACEMENT_3D ( 'NONE', #18, #296, #77 ) ;
#67 = DIRECTION ( 'NONE',  ( -1.483672453417965792E-16, 1.000000000000000000, -0.000000000000000000 ) ) ;
#68 = VERTEX_POINT ( 'NONE', #148 ) ;
#69 =( NAMED_UNIT ( * ) SI_UNIT ( $, .STERADIAN. ) SOLID_ANGLE_UNIT ( ) );
#70 = ORIENTED_EDGE ( 'NONE', *, *, #226, .T. ) ;
#71 =( NAMED_UNIT ( * ) SI_UNIT ( $, .STERADIAN. ) SOLID_ANGLE_UNIT ( ) );
#72 = DIRECTION ( 'NONE',  ( -1.483672453417965792E-16, 1.000000000000000000, -0.000000000000000000 ) ) ;
#73 =( GEOMETRIC_REPRESENTATION_CONTEXT ( 3 ) GLOBAL_UNCERTAINTY_ASSIGNED_CONTEXT ( ( #19 ) ) GLOBAL_UNIT_ASSIGNED_CONTEXT ( ( #166, #210, #74 ) ) REPRESENTATION_CONTEXT ( 'NONE', 'WORKASPACE' ) );
#74 =( NAMED_UNIT ( * ) SI_UNIT ( $, .STERADIAN. ) SOLID_ANGLE_UNIT ( ) );
#75 = FILL_AREA_STYLE_COLOUR ( '', #83 ) ;
#76 = DIRECTION ( 'NONE',  ( 0.000000000000000000, 0.000000000000000000, -1.000000000000000000 ) ) ;
#77 = DIRECTION ( 'NONE',  ( 0.000000000000000000, 0.000000000000000000, -1.000000000000000000 ) ) ;
#78 =( LENGTH_UNIT ( ) NAMED_UNIT ( * ) SI_UNIT ( $, .METRE. ) );
#79 = COLOUR_RGB ( '',1.000000000000000000, 0.000000000000000000, 0.000000000000000000 ) ;
#80 =( CONVERSION_BASED_UNIT ( 'INCH', #338 ) LENGTH_UNIT ( ) NAMED_UNIT ( #252 ) );
#81 = EDGE_CURVE ( 'NONE', #351, #68, #308, .T. ) ;
#82 = CARTESIAN_POINT ( 'NONE',  ( -1.148106374200643863E-17, 0.09375000000000001388, 0.000000000000000000 ) ) ;
#83 = COLOUR_RGB ( '',1.000000000000000000, 0.000000000000000000, 0.000000000000000000 ) ;
#84 = LINE ( 'NONE', #194, #29 ) ;
#85 = EDGE_CURVE ( 'NONE', #294, #146, #65, .T. ) ;
#86 = DIRECTION ( 'NONE',  ( -1.000000000000000000, 0.000000000000000000, 0.000000000000000000 ) ) ;
#87 = ORIENTED_EDGE ( 'NONE', *, *, #90, .F. ) ;
#88 = MECHANICAL_DESIGN_GEOMETRIC_PRESENTATION_REPRESENTATION (  '', ( #368 ), #159 ) ;
#89 = ORIENTED_EDGE ( 'NONE', *, *, #302, .T. ) ;
#90 = EDGE_CURVE ( 'NONE', #68, #158, #109, .T. ) ;
#91 = ORIENTED_EDGE ( 'NONE', *, *, #215, .F. ) ;
#92 = DIRECTION ( 'NONE',  ( -0.000000000000000000, -1.000000000000000000, -0.000000000000000000 ) ) ;
#93 = DIRECTION ( 'NONE',  ( 0.000000000000000000, 0.000000000000000000, -1.000000000000000000 ) ) ;
#94 = CIRCLE ( 'NONE', #358, 0.09374999999999991673 ) ;
#95 =( CONVERSION_BASED_UNIT ( 'INCH', #270 ) LENGTH_UNIT ( ) NAMED_UNIT ( #291 ) );
#96 = ADVANCED_FACE ( 'NONE', ( #336 ), #127, .T. ) ;
#97 = DIRECTION ( 'NONE',  ( 0.000000000000000000, 0.000000000000000000, -1.000000000000000000 ) ) ;
#98 = FACE_OUTER_BOUND ( 'NONE', #35, .T. ) ;
#99 = DIRECTION ( 'NONE',  ( -1.000000000000000000, -1.483672453417965792E-16, 0.000000000000000000 ) ) ;
#100 = AXIS2_PLACEMENT_3D ( 'NONE', #48, #272, #21 ) ;
#101 = SURFACE_STYLE_USAGE ( .BOTH. , #367 ) ;
#102 = FACE_OUTER_BOUND ( 'NONE', #122, .T. ) ;
#103 = EDGE_CURVE ( 'NONE', #351, #33, #208, .T. ) ;
#104 =( CONVERSION_BASED_UNIT ( 'INCH', #275 ) LENGTH_UNIT ( ) NAMED_UNIT ( #107 ) );
#105 = LENGTH_MEASURE_WITH_UNIT ( LENGTH_MEASURE( 0.02539999999999999897 ), #78 );
#106 = PRODUCT_DEFINITION_SHAPE ( 'NONE', 'NONE',  #332 ) ;
#107 = DIMENSIONAL_EXPONENTS ( 1.000000000000000000, 0.000000000000000000, 0.000000000000000000, 0.000000000000000000, 0.000000000000000000, 0.000000000000000000, 0.000000000000000000 ) ;
#108 = SURFACE_STYLE_FILL_AREA ( #225 ) ;
#109 = CIRCLE ( 'NONE', #269, 0.09374999999999968081 ) ;
#110 = AXIS2_PLACEMENT_3D ( 'NONE', #119, #324, #38 ) ;
#111 = PRODUCT_CONTEXT ( 'NONE', #149, 'mechanical' ) ;
#112 = EDGE_CURVE ( 'NONE', #33, #351, #263, .T. ) ;
#113 = DIRECTION ( 'NONE',  ( 0.000000000000000000, -0.000000000000000000, 1.000000000000000000 ) ) ;
#114 = DIRECTION ( 'NONE',  ( 1.000000000000000000, 1.483672453417965792E-16, 0.000000000000000000 ) ) ;
#115 = VERTEX_POINT ( 'NONE', #20 ) ;
#116 = VECTOR ( 'NONE', #276, 39.37007874015748143 ) ;
#117 = COLOUR_RGB ( '',1.000000000000000000, 0.000000000000000000, 0.000000000000000000 ) ;
#118 = ADVANCED_FACE ( 'NONE', ( #128 ), #344, .T. ) ;
#119 = CARTESIAN_POINT ( 'NONE',  ( -1.148106374200643863E-17, 0.09375000000000001388, 0.000000000000000000 ) ) ;
#120 = VERTEX_POINT ( 'NONE', #330 ) ;
#121 = DIRECTION ( 'NONE',  ( 0.000000000000000000, 0.000000000000000000, -1.000000000000000000 ) ) ;
#122 = EDGE_LOOP ( 'NONE', ( #341, #136 ) ) ;
#123 = CYLINDRICAL_SURFACE ( 'NONE', #51, 0.09374999999999954203 ) ;
#124 = ORIENTED_EDGE ( 'NONE', *, *, #233, .F. ) ;
#125 = AXIS2_PLACEMENT_3D ( 'NONE', #82, #186, #216 ) ;
#126 = PRODUCT_RELATED_PRODUCT_CATEGORY ( 'part', '', ( #25 ) ) ;
#127 = CYLINDRICAL_SURFACE ( 'NONE', #243, 0.09374999999999997224 ) ;
#128 = FACE_OUTER_BOUND ( 'NONE', #61, .T. ) ;
#129 = CARTESIAN_POINT ( 'NONE',  ( 0.000000000000000000, 0.000000000000000000, -0.09374999999999997224 ) ) ;
#130 = FILL_AREA_STYLE ('',( #75 ) ) ;
#131 = CIRCLE ( 'NONE', #110, 0.09375000000000002776 ) ;
#132 = DIRECTION ( 'NONE',  ( -0.000000000000000000, -1.000000000000000000, -0.000000000000000000 ) ) ;
#133 = COLOUR_RGB ( '',0.7921568627450980005, 0.8196078431372548767, 0.9333333333333333481 ) ;
#134 = CARTESIAN_POINT ( 'NONE',  ( 0.09374999999999991673, 2.500000000000000000, 0.000000000000000000 ) ) ;
#135 = CLOSED_SHELL ( 'NONE', ( #191, #46, #248, #179 ) ) ;
#136 = ORIENTED_EDGE ( 'NONE', *, *, #112, .F. ) ;
#137 = APPLICATION_PROTOCOL_DEFINITION ( 'draft international standard', 'automotive_design', 1998, #354 ) ;
#138 = PLANE ( 'NONE',  #196 ) ;
#139 = DIRECTION ( 'NONE',  ( 1.000000000000000000, 0.000000000000000000, 0.000000000000000000 ) ) ;
#140 = CYLINDRICAL_SURFACE ( 'NONE', #45, 0.09374999999999954203 ) ;
#141 =( NAMED_UNIT ( * ) PLANE_ANGLE_UNIT ( ) SI_UNIT ( $, .RADIAN. ) );
#142 = SURFACE_SIDE_STYLE ('',( #230 ) ) ;
#143 = CARTESIAN_POINT ( 'NONE',  ( 0.000000000000000000, 0.09375000000000002776, 0.000000000000000000 ) ) ;
#144 = DIMENSIONAL_EXPONENTS ( 1.000000000000000000, 0.000000000000000000, 0.000000000000000000, 0.000000000000000000, 0.000000000000000000, 0.000000000000000000, 0.000000000000000000 ) ;
#145 = LINE ( 'NONE', #129, #264 ) ;
#146 = VERTEX_POINT ( 'NONE', #193 ) ;
#147 =( GEOMETRIC_REPRESENTATION_CONTEXT ( 3 ) GLOBAL_UNCERTAINTY_ASSIGNED_CONTEXT ( ( #15 ) ) GLOBAL_UNIT_ASSIGNED_CONTEXT ( ( #251, #188, #283 ) ) REPRESENTATION_CONTEXT ( 'NONE', 'WORKASPACE' ) );
#148 = CARTESIAN_POINT ( 'NONE',  ( -0.09374999999999944489, 2.500000000000000000, 0.000000000000000000 ) ) ;
#149 = APPLICATION_CONTEXT ( 'automotive_design' ) ;
#150 = LINE ( 'NONE', #241, #165 ) ;
#151 = DIRECTION ( 'NONE',  ( -0.000000000000000000, -1.000000000000000000, -0.000000000000000000 ) ) ;
#152 = CARTESIAN_POINT ( 'NONE',  ( 0.000000000000000000, 0.09375000000000002776, 0.000000000000000000 ) ) ;
#153 = PRODUCT_DEFINITION_FORMATION_WITH_SPECIFIED_SOURCE ( 'ANY', '', #25, .NOT_KNOWN. ) ;
#154 =( NAMED_UNIT ( * ) PLANE_ANGLE_UNIT ( ) SI_UNIT ( $, .RADIAN. ) );
#155 = ADVANCED_FACE ( 'NONE', ( #309 ), #138, .T. ) ;
#156 =( CONVERSION_BASED_UNIT ( 'INCH', #105 ) LENGTH_UNIT ( ) NAMED_UNIT ( #315 ) );
#157 = DIRECTION ( 'NONE',  ( 0.000000000000000000, 0.000000000000000000, -1.000000000000000000 ) ) ;
#158 = VERTEX_POINT ( 'NONE', #345 ) ;
#159 =( GEOMETRIC_REPRESENTATION_CONTEXT ( 3 ) GLOBAL_UNCERTAINTY_ASSIGNED_CONTEXT ( ( #231 ) ) GLOBAL_UNIT_ASSIGNED_CONTEXT ( ( #156, #327, #53 ) ) REPRESENTATION_CONTEXT ( 'NONE', 'WORKASPACE' ) );
#160 = CIRCLE ( 'NONE', #17, 0.09374999999999991673 ) ;
#161 = LENGTH_MEASURE_WITH_UNIT ( LENGTH_MEASURE( 0.02539999999999999897 ), #343 );
#162 = EDGE_CURVE ( 'NONE', #356, #294, #84, .T. ) ;
#163 =( NAMED_UNIT ( * ) SI_UNIT ( $, .STERADIAN. ) SOLID_ANGLE_UNIT ( ) );
#164 = CARTESIAN_POINT ( 'NONE',  ( -1.148106374200643863E-17, 0.09375000000000001388, 0.000000000000000000 ) ) ;
#165 = VECTOR ( 'NONE', #300, 39.37007874015748143 ) ;
#166 =( CONVERSION_BASED_UNIT ( 'INCH', #60 ) LENGTH_UNIT ( ) NAMED_UNIT ( #303 ) );
#167 = FILL_AREA_STYLE ('',( #168 ) ) ;
#168 = FILL_AREA_STYLE_COLOUR ( '', #222 ) ;
#169 = DIRECTION ( 'NONE',  ( 0.000000000000000000, 0.000000000000000000, 1.000000000000000000 ) ) ;
#170 = ORIENTED_EDGE ( 'NONE', *, *, #85, .F. ) ;
#171 =( CONVERSION_BASED_UNIT ( 'INCH', #200 ) LENGTH_UNIT ( ) NAMED_UNIT ( #212 ) );
#172 = ORIENTED_EDGE ( 'NONE', *, *, #85, .T. ) ;
#173 = EDGE_CURVE ( 'NONE', #356, #120, #94, .T. ) ;
#174 = UNCERTAINTY_MEASURE_WITH_UNIT (LENGTH_MEASURE( 1.000000000000000082E-05 ), #182, 'distance_accuracy_value', 'NONE');
#175 = ORIENTED_EDGE ( 'NONE', *, *, #162, .T. ) ;
#176 = DIRECTION ( 'NONE',  ( 0.000000000000000000, 0.000000000000000000, -1.000000000000000000 ) ) ;
#177 = CARTESIAN_POINT ( 'NONE',  ( -0.09374999999999930611, 2.500000000000000000, 0.000000000000000000 ) ) ;
#178 =( GEOMETRIC_REPRESENTATION_CONTEXT ( 3 ) GLOBAL_UNCERTAINTY_ASSIGNED_CONTEXT ( ( #288 ) ) GLOBAL_UNIT_ASSIGNED_CONTEXT ( ( #95, #141, #271 ) ) REPRESENTATION_CONTEXT ( 'NONE', 'WORKASPACE' ) );
#179 = ADVANCED_FACE ( 'NONE', ( #278 ), #26, .F. ) ;
#180 = CARTESIAN_POINT ( 'NONE',  ( 0.09375000000000002776, 0.09375000000000002776, 0.000000000000000000 ) ) ;
#181 = CARTESIAN_POINT ( 'NONE',  ( 0.000000000000000000, 0.09375000000000002776, 0.000000000000000000 ) ) ;
#182 =( CONVERSION_BASED_UNIT ( 'INCH', #213 ) LENGTH_UNIT ( ) NAMED_UNIT ( #342 ) );
#183 = FILL_AREA_STYLE ('',( #247 ) ) ;
#184 = STYLED_ITEM ( 'NONE', ( #333 ), #366 ) ;
#185 = CARTESIAN_POINT ( 'NONE',  ( 0.09374999999999994449, 0.7499999999999998890, 1.148106374200639087E-17 ) ) ;
#186 = DIRECTION ( 'NONE',  ( 0.000000000000000000, 0.000000000000000000, 1.000000000000000000 ) ) ;
#187 = ORIENTED_EDGE ( 'NONE', *, *, #233, .T. ) ;
#188 =( NAMED_UNIT ( * ) PLANE_ANGLE_UNIT ( ) SI_UNIT ( $, .RADIAN. ) );
#189 = PRESENTATION_LAYER_ASSIGNMENT (  '', '', ( #307 ) ) ;
#190 = PRESENTATION_LAYER_ASSIGNMENT (  '', '', ( #184 ) ) ;
#191 = ADVANCED_FACE ( 'NONE', ( #34 ), #140, .T. ) ;
#192 = SURFACE_STYLE_FILL_AREA ( #130 ) ;
#193 = CARTESIAN_POINT ( 'NONE',  ( -0.09375000000000002776, 0.09375000000000002776, 1.148106374200643863E-17 ) ) ;
#194 = CARTESIAN_POINT ( 'NONE',  ( 1.148106374200643247E-17, 0.000000000000000000, 0.09374999999999997224 ) ) ;
#195 = CIRCLE ( 'NONE', #227, 0.09375000000000002776 ) ;
#196 = AXIS2_PLACEMENT_3D ( 'NONE', #56, #260, #113 ) ;
#197 = ORIENTED_EDGE ( 'NONE', *, *, #90, .T. ) ;
#198 = ORIENTED_EDGE ( 'NONE', *, *, #360, .T. ) ;
#199 = ORIENTED_EDGE ( 'NONE', *, *, #215, .T. ) ;
#200 = LENGTH_MEASURE_WITH_UNIT ( LENGTH_MEASURE( 0.02539999999999999897 ), #9 );
#201 = STYLED_ITEM ( 'NONE', ( #202 ), #10 ) ;
#202 = PRESENTATION_STYLE_ASSIGNMENT (( #63 ) ) ;
#203 = FILL_AREA_STYLE ('',( #355 ) ) ;
#204 = CYLINDRICAL_SURFACE ( 'NONE', #66, 0.09374999999999997224 ) ;
#205 = DIRECTION ( 'NONE',  ( -1.483672453417965792E-16, 1.000000000000000000, -0.000000000000000000 ) ) ;
#206 = FILL_AREA_STYLE ('',( #304 ) ) ;
#207 = DIRECTION ( 'NONE',  ( -1.000000000000000000, 0.000000000000000000, 0.000000000000000000 ) ) ;
#208 = CIRCLE ( 'NONE', #54, 0.09374999999999943101 ) ;
#209 = STYLED_ITEM ( 'NONE', ( #265 ), #219 ) ;
#210 =( NAMED_UNIT ( * ) PLANE_ANGLE_UNIT ( ) SI_UNIT ( $, .RADIAN. ) );
#211 = SURFACE_STYLE_USAGE ( .BOTH. , #250 ) ;
#212 = DIMENSIONAL_EXPONENTS ( 1.000000000000000000, 0.000000000000000000, 0.000000000000000000, 0.000000000000000000, 0.000000000000000000, 0.000000000000000000, 0.000000000000000000 ) ;
#213 = LENGTH_MEASURE_WITH_UNIT ( LENGTH_MEASURE( 0.02539999999999999897 ), #328 );
#214 = PLANE ( 'NONE',  #58 ) ;
#215 = EDGE_CURVE ( 'NONE', #146, #115, #131, .T. ) ;
#216 = DIRECTION ( 'NONE',  ( 1.000000000000000000, 0.000000000000000000, 0.000000000000000000 ) ) ;
#217 = ORIENTED_EDGE ( 'NONE', *, *, #23, .F. ) ;
#218 = SURFACE_STYLE_USAGE ( .BOTH. , #30 ) ;
#219 = ADVANCED_FACE ( 'NONE', ( #262 ), #319, .T. ) ;
#220 = DIRECTION ( 'NONE',  ( 0.000000000000000000, 0.000000000000000000, 1.000000000000000000 ) ) ;
#221 = PRESENTATION_STYLE_ASSIGNMENT (( #2 ) ) ;
#222 = COLOUR_RGB ( '',0.7921568627450980005, 0.8196078431372548767, 0.9333333333333333481 ) ;
#223 = CARTESIAN_POINT ( 'NONE',  ( 0.000000000000000000, 0.000000000000000000, 0.000000000000000000 ) ) ;
#224 =( GEOMETRIC_REPRESENTATION_CONTEXT ( 3 ) GLOBAL_UNCERTAINTY_ASSIGNED_CONTEXT ( ( #174 ) ) GLOBAL_UNIT_ASSIGNED_CONTEXT ( ( #182, #326, #71 ) ) REPRESENTATION_CONTEXT ( 'NONE', 'WORKASPACE' ) );
#225 = FILL_AREA_STYLE ('',( #24 ) ) ;
#226 = EDGE_CURVE ( 'NONE', #120, #356, #160, .T. ) ;
#227 = AXIS2_PLACEMENT_3D ( 'NONE', #268, #93, #7 ) ;
#228 = DIRECTION ( 'NONE',  ( -0.000000000000000000, -1.000000000000000000, -0.000000000000000000 ) ) ;
#229 = EDGE_LOOP ( 'NONE', ( #70, #175, #28, #347, #235 ) ) ;
#230 = SURFACE_STYLE_FILL_AREA ( #203 ) ;
#231 = UNCERTAINTY_MEASURE_WITH_UNIT (LENGTH_MEASURE( 1.000000000000000082E-05 ), #156, 'distance_accuracy_value', 'NONE');
#232 =( LENGTH_UNIT ( ) NAMED_UNIT ( * ) SI_UNIT ( $, .METRE. ) );
#233 = EDGE_CURVE ( 'NONE', #146, #64, #299, .T. ) ;
#234 = CARTESIAN_POINT ( 'NONE',  ( 2.449293598294706907E-16, 2.500000000000000000, 0.000000000000000000 ) ) ;
#235 = ORIENTED_EDGE ( 'NONE', *, *, #302, .F. ) ;
#236 = SURFACE_SIDE_STYLE ('',( #285 ) ) ;
#237 = CIRCLE ( 'NONE', #297, 0.09374999999999968081 ) ;
#238 = EDGE_LOOP ( 'NONE', ( #172, #199, #339, #295 ) ) ;
#239 = DIRECTION ( 'NONE',  ( -0.000000000000000000, -1.000000000000000000, -0.000000000000000000 ) ) ;
#240 = PRESENTATION_STYLE_ASSIGNMENT (( #211 ) ) ;
#241 = CARTESIAN_POINT ( 'NONE',  ( 0.09374999999999979183, 2.500000000000000000, 1.148106374200638162E-17 ) ) ;
#242 = DIRECTION ( 'NONE',  ( 0.000000000000000000, 0.000000000000000000, -1.000000000000000000 ) ) ;
#243 = AXIS2_PLACEMENT_3D ( 'NONE', #301, #239, #97 ) ;
#244 = PRESENTATION_LAYER_ASSIGNMENT (  '', '', ( #31 ) ) ;
#245 =( LENGTH_UNIT ( ) NAMED_UNIT ( * ) SI_UNIT ( $, .METRE. ) );
#246 = UNCERTAINTY_MEASURE_WITH_UNIT (LENGTH_MEASURE( 1.000000000000000082E-05 ), #80, 'distance_accuracy_value', 'NONE');
#247 = FILL_AREA_STYLE_COLOUR ( '', #79 ) ;
#248 = ADVANCED_FACE ( 'NONE', ( #261 ), #123, .T. ) ;
#249 = CARTESIAN_POINT ( 'NONE',  ( 1.148106374200642938E-17, 0.7500000000000001110, 0.09374999999999991673 ) ) ;
#250 = SURFACE_SIDE_STYLE ('',( #372 ) ) ;
#251 =( CONVERSION_BASED_UNIT ( 'INCH', #161 ) LENGTH_UNIT ( ) NAMED_UNIT ( #144 ) );
#252 = DIMENSIONAL_EXPONENTS ( 1.000000000000000000, 0.000000000000000000, 0.000000000000000000, 0.000000000000000000, 0.000000000000000000, 0.000000000000000000, 0.000000000000000000 ) ;
#253 = AXIS2_PLACEMENT_3D ( 'NONE', #143, #22, #242 ) ;
#254 = MECHANICAL_DESIGN_GEOMETRIC_PRESENTATION_REPRESENTATION (  '', ( #209 ), #331 ) ;
#255 = DIRECTION ( 'NONE',  ( 1.483672453417965792E-16, -1.000000000000000000, 0.000000000000000000 ) ) ;
#256 = ORIENTED_EDGE ( 'NONE', *, *, #13, .T. ) ;
#257 = MANIFOLD_SOLID_BREP ( 'Revolve - Tool Body (Straight Shanked)', #135 ) ;
#258 =( LENGTH_UNIT ( ) NAMED_UNIT ( * ) SI_UNIT ( $, .METRE. ) );
#259 = SHAPE_DEFINITION_REPRESENTATION ( #106, #362 ) ;
#260 = DIRECTION ( 'NONE',  ( 0.000000000000000000, 1.000000000000000000, 0.000000000000000000 ) ) ;
#261 = FACE_OUTER_BOUND ( 'NONE', #41, .T. ) ;
#262 = FACE_OUTER_BOUND ( 'NONE', #238, .T. ) ;
#263 = CIRCLE ( 'NONE', #100, 0.09374999999999943101 ) ;
#264 = VECTOR ( 'NONE', #47, 39.37007874015748143 ) ;
#265 = PRESENTATION_STYLE_ASSIGNMENT (( #352 ) ) ;
#266 = VERTEX_POINT ( 'NONE', #180 ) ;
#267 = SURFACE_STYLE_USAGE ( .BOTH. , #236 ) ;
#268 = CARTESIAN_POINT ( 'NONE',  ( -1.148106374200643863E-17, 0.09375000000000001388, 0.000000000000000000 ) ) ;
#269 = AXIS2_PLACEMENT_3D ( 'NONE', #334, #72, #373 ) ;
#270 = LENGTH_MEASURE_WITH_UNIT ( LENGTH_MEASURE( 0.02539999999999999897 ), #232 );
#271 =( NAMED_UNIT ( * ) SI_UNIT ( $, .STERADIAN. ) SOLID_ANGLE_UNIT ( ) );
#272 = DIRECTION ( 'NONE',  ( -1.483672453417965792E-16, 1.000000000000000000, -0.000000000000000000 ) ) ;
#273 = CARTESIAN_POINT ( 'NONE',  ( 5.045720391776147351E-16, 0.7499999999999998890, 0.000000000000000000 ) ) ;
#274 = PRESENTATION_LAYER_ASSIGNMENT (  '', '', ( #201 ) ) ;
#275 = LENGTH_MEASURE_WITH_UNIT ( LENGTH_MEASURE( 0.02539999999999999897 ), #245 );
#276 = DIRECTION ( 'NONE',  ( -1.483672453417965792E-16, 1.000000000000000000, -0.000000000000000000 ) ) ;
#277 = PRESENTATION_STYLE_ASSIGNMENT (( #218 ) ) ;
#278 = FACE_OUTER_BOUND ( 'NONE', #316, .T. ) ;
#279 = EDGE_LOOP ( 'NONE', ( #12, #39 ) ) ;
#280 = AXIS2_PLACEMENT_3D ( 'NONE', #181, #151, #76 ) ;
#281 = CIRCLE ( 'NONE', #311, 0.09375000000000002776 ) ;
#282 = SURFACE_SIDE_STYLE ('',( #192 ) ) ;
#283 =( NAMED_UNIT ( * ) SI_UNIT ( $, .STERADIAN. ) SOLID_ANGLE_UNIT ( ) );
#284 = AXIS2_PLACEMENT_3D ( 'NONE', #223, #220, #340 ) ;
#285 = SURFACE_STYLE_FILL_AREA ( #287 ) ;
#286 = SURFACE_STYLE_FILL_AREA ( #167 ) ;
#287 = FILL_AREA_STYLE ('',( #359 ) ) ;
#288 = UNCERTAINTY_MEASURE_WITH_UNIT (LENGTH_MEASURE( 1.000000000000000082E-05 ), #95, 'distance_accuracy_value', 'NONE');
#289 = ORIENTED_EDGE ( 'NONE', *, *, #23, .T. ) ;
#290 = CARTESIAN_POINT ( 'NONE',  ( 0.000000000000000000, 0.09375000000000002776, 0.000000000000000000 ) ) ;
#291 = DIMENSIONAL_EXPONENTS ( 1.000000000000000000, 0.000000000000000000, 0.000000000000000000, 0.000000000000000000, 0.000000000000000000, 0.000000000000000000, 0.000000000000000000 ) ;
#292 = ORIENTED_EDGE ( 'NONE', *, *, #81, .F. ) ;
#293 = PRODUCT_DEFINITION_CONTEXT ( 'detailed design', #354, 'design' ) ;
#294 = VERTEX_POINT ( 'NONE', #42 ) ;
#295 = ORIENTED_EDGE ( 'NONE', *, *, #313, .T. ) ;
#296 = DIRECTION ( 'NONE',  ( -0.000000000000000000, -1.000000000000000000, -0.000000000000000000 ) ) ;
#297 = AXIS2_PLACEMENT_3D ( 'NONE', #369, #205, #305 ) ;
#298 = DIRECTION ( 'NONE',  ( -1.483672453417965792E-16, 1.000000000000000000, -0.000000000000000000 ) ) ;
#299 = CIRCLE ( 'NONE', #349, 0.09375000000000002776 ) ;
#300 = DIRECTION ( 'NONE',  ( -1.483672453417965792E-16, 1.000000000000000000, -0.000000000000000000 ) ) ;
#301 = CARTESIAN_POINT ( 'NONE',  ( 0.000000000000000000, 0.000000000000000000, 0.000000000000000000 ) ) ;
#302 = EDGE_CURVE ( 'NONE', #120, #64, #145, .T. ) ;
#303 = DIMENSIONAL_EXPONENTS ( 1.000000000000000000, 0.000000000000000000, 0.000000000000000000, 0.000000000000000000, 0.000000000000000000, 0.000000000000000000, 0.000000000000000000 ) ;
#304 = FILL_AREA_STYLE_COLOUR ( '', #370 ) ;
#305 = DIRECTION ( 'NONE',  ( -1.000000000000000000, 0.000000000000000000, 0.000000000000000000 ) ) ;
#306 = STYLED_ITEM ( 'NONE', ( #221 ), #118 ) ;
#307 = STYLED_ITEM ( 'NONE', ( #14 ), #257 ) ;
#308 = LINE ( 'NONE', #177, #116 ) ;
#309 = FACE_OUTER_BOUND ( 'NONE', #279, .T. ) ;
#310 = PRESENTATION_LAYER_ASSIGNMENT (  '', '', ( #306 ) ) ;
#311 = AXIS2_PLACEMENT_3D ( 'NONE', #152, #49, #176 ) ;
#312 =( NAMED_UNIT ( * ) PLANE_ANGLE_UNIT ( ) SI_UNIT ( $, .RADIAN. ) );
#313 = EDGE_CURVE ( 'NONE', #266, #294, #281, .T. ) ;
#314 = DIRECTION ( 'NONE',  ( -0.000000000000000000, -1.000000000000000000, -0.000000000000000000 ) ) ;
#315 = DIMENSIONAL_EXPONENTS ( 1.000000000000000000, 0.000000000000000000, 0.000000000000000000, 0.000000000000000000, 0.000000000000000000, 0.000000000000000000, 0.000000000000000000 ) ;
#316 = EDGE_LOOP ( 'NONE', ( #197, #289 ) ) ;
#317 =( NAMED_UNIT ( * ) SI_UNIT ( $, .STERADIAN. ) SOLID_ANGLE_UNIT ( ) );
#318 = ORIENTED_EDGE ( 'NONE', *, *, #173, .T. ) ;
#319 = SPHERICAL_SURFACE ( 'NONE', #5, 0.09375000000000002776 ) ;
#320 = ORIENTED_EDGE ( 'NONE', *, *, #103, .T. ) ;
#321 =( GEOMETRIC_REPRESENTATION_CONTEXT ( 3 ) GLOBAL_UNCERTAINTY_ASSIGNED_CONTEXT ( ( #43 ) ) GLOBAL_UNIT_ASSIGNED_CONTEXT ( ( #104, #154, #69 ) ) REPRESENTATION_CONTEXT ( 'NONE', 'WORKASPACE' ) );
#322 = CARTESIAN_POINT ( 'NONE',  ( 2.449293598294706907E-16, 2.500000000000000000, 0.000000000000000000 ) ) ;
#323 = ORIENTED_EDGE ( 'NONE', *, *, #112, .T. ) ;
#324 = DIRECTION ( 'NONE',  ( 1.224646799147353207E-16, -0.000000000000000000, 1.000000000000000000 ) ) ;
#325 = UNCERTAINTY_MEASURE_WITH_UNIT (LENGTH_MEASURE( 1.000000000000000082E-05 ), #171, 'distance_accuracy_value', 'NONE');
#326 =( NAMED_UNIT ( * ) PLANE_ANGLE_UNIT ( ) SI_UNIT ( $, .RADIAN. ) );
#327 =( NAMED_UNIT ( * ) PLANE_ANGLE_UNIT ( ) SI_UNIT ( $, .RADIAN. ) );
#328 =( LENGTH_UNIT ( ) NAMED_UNIT ( * ) SI_UNIT ( $, .METRE. ) );
#329 = PRESENTATION_LAYER_ASSIGNMENT (  '', '', ( #368 ) ) ;
#330 = CARTESIAN_POINT ( 'NONE',  ( 0.000000000000000000, 0.7500000000000001110, -0.09374999999999991673 ) ) ;
#331 =( GEOMETRIC_REPRESENTATION_CONTEXT ( 3 ) GLOBAL_UNCERTAINTY_ASSIGNED_CONTEXT ( ( #325 ) ) GLOBAL_UNIT_ASSIGNED_CONTEXT ( ( #171, #11, #317 ) ) REPRESENTATION_CONTEXT ( 'NONE', 'WORKASPACE' ) );
#332 = PRODUCT_DEFINITION ( 'UNKNOWN', '', #153, #293 ) ;
#333 = PRESENTATION_STYLE_ASSIGNMENT (( #101 ) ) ;
#334 = CARTESIAN_POINT ( 'NONE',  ( 2.449293598294706907E-16, 2.500000000000000000, 0.000000000000000000 ) ) ;
#335 = CLOSED_SHELL ( 'NONE', ( #219, #96, #155, #366, #118 ) ) ;
#336 = FACE_OUTER_BOUND ( 'NONE', #229, .T. ) ;
#337 = PRESENTATION_LAYER_ASSIGNMENT (  '', '', ( #209 ) ) ;
#338 = LENGTH_MEASURE_WITH_UNIT ( LENGTH_MEASURE( 0.02539999999999999897 ), #258 );
#339 = ORIENTED_EDGE ( 'NONE', *, *, #4, .F. ) ;
#340 = DIRECTION ( 'NONE',  ( 1.000000000000000000, 0.000000000000000000, 0.000000000000000000 ) ) ;
#341 = ORIENTED_EDGE ( 'NONE', *, *, #103, .F. ) ;
#342 = DIMENSIONAL_EXPONENTS ( 1.000000000000000000, 0.000000000000000000, 0.000000000000000000, 0.000000000000000000, 0.000000000000000000, 0.000000000000000000, 0.000000000000000000 ) ;
#343 =( LENGTH_UNIT ( ) NAMED_UNIT ( * ) SI_UNIT ( $, .METRE. ) );
#344 = SPHERICAL_SURFACE ( 'NONE', #125, 0.09375000000000002776 ) ;
#345 = CARTESIAN_POINT ( 'NONE',  ( 0.09374999999999991673, 2.500000000000000000, 1.148106374200638932E-17 ) ) ;
#346 =( LENGTH_UNIT ( ) NAMED_UNIT ( * ) SI_UNIT ( $, .METRE. ) );
#347 = ORIENTED_EDGE ( 'NONE', *, *, #13, .F. ) ;
#348 = MECHANICAL_DESIGN_GEOMETRIC_PRESENTATION_REPRESENTATION (  '', ( #201 ), #178 ) ;
#349 = AXIS2_PLACEMENT_3D ( 'NONE', #290, #228, #350 ) ;
#350 = DIRECTION ( 'NONE',  ( 0.000000000000000000, 0.000000000000000000, -1.000000000000000000 ) ) ;
#351 = VERTEX_POINT ( 'NONE', #371 ) ;
#352 = SURFACE_STYLE_USAGE ( .BOTH. , #142 ) ;
#353 = ORIENTED_EDGE ( 'NONE', *, *, #162, .F. ) ;
#354 = APPLICATION_CONTEXT ( 'automotive_design' ) ;
#355 = FILL_AREA_STYLE_COLOUR ( '', #117 ) ;
#356 = VERTEX_POINT ( 'NONE', #249 ) ;
#357 = MECHANICAL_DESIGN_GEOMETRIC_PRESENTATION_REPRESENTATION (  '', ( #306 ), #147 ) ;
#358 = AXIS2_PLACEMENT_3D ( 'NONE', #57, #132, #157 ) ;
#359 = FILL_AREA_STYLE_COLOUR ( '', #133 ) ;
#360 = EDGE_CURVE ( 'NONE', #33, #158, #150, .T. ) ;
#361 = SURFACE_SIDE_STYLE ('',( #286 ) ) ;
#362 = ADVANCED_BREP_SHAPE_REPRESENTATION ( '81319', ( #10, #257, #284 ), #321 ) ;
#363 = SURFACE_STYLE_FILL_AREA ( #206 ) ;
#364 = CARTESIAN_POINT ( 'NONE',  ( 5.045720391776147351E-16, 0.7499999999999998890, 0.000000000000000000 ) ) ;
#365 = CARTESIAN_POINT ( 'NONE',  ( 0.000000000000000000, 0.09375000000000002776, -0.09375000000000002776 ) ) ;
#366 = ADVANCED_FACE ( 'NONE', ( #98 ), #204, .T. ) ;
#367 = SURFACE_SIDE_STYLE ('',( #363 ) ) ;
#368 = STYLED_ITEM ( 'NONE', ( #240 ), #96 ) ;
#369 = CARTESIAN_POINT ( 'NONE',  ( 2.449293598294706907E-16, 2.500000000000000000, 0.000000000000000000 ) ) ;
#370 = COLOUR_RGB ( '',1.000000000000000000, 0.000000000000000000, 0.000000000000000000 ) ;
#371 = CARTESIAN_POINT ( 'NONE',  ( -0.09374999999999891753, 0.7499999999999998890, 0.000000000000000000 ) ) ;
#372 = SURFACE_STYLE_FILL_AREA ( #183 ) ;
#373 = DIRECTION ( 'NONE',  ( -1.000000000000000000, 0.000000000000000000, 0.000000000000000000 ) ) ;
ENDSEC;
END-ISO-10303-21;
